  0
SECTION
  2
HEADER
  9
$ACADVER
  1
AC1015
  9
$ACADMAINTVER
 70
     6
  9
$DWGCODEPAGE
  3
ANSI_1252
  9
$INSBASE
 10
0.0
 20
0.0
 30
0.0
  9
$EXTMIN
 10
0.0
 20
0.0
 30
0.0
  9
$EXTMAX
 10
420.0
 20
297.0
 30
0.0
  9
$LIMMIN
 10
0.0
 20
0.0
  9
$LIMMAX
 10
420.0
 20
297.0
  9
$ORTHOMODE
 70
     0
  9
$REGENMODE
 70
     1
  9
$FILLMODE
 70
     1
  9
$QTEXTMODE
 70
     0
  9
$MIRRTEXT
 70
     1
  9
$LTSCALE
 40
1.0
  9
$ATTMODE
 70
     1
  9
$TEXTSIZE
 40
3.5
  9
$TRACEWID
 40
1.0
  9
$TEXTSTYLE
  7
Standard
  9
$CLAYER
  8
0
  9
$CELTYPE
  6
ByLayer
  9
$CECOLOR
 62
   256
  9
$CELTSCALE
 40
1.0
  9
$DISPSILH
 70
     0
  9
$DIMSCALE
 40
1.0
  9
$DIMASZ
 40
4.0
  9
$DIMEXO
 40
0.0
  9
$DIMDLI
 40
3.75
  9
$DIMRND
 40
0.0
  9
$DIMDLE
 40
0.0
  9
$DIMEXE
 40
2.0
  9
$DIMTP
 40
0.0
  9
$DIMTM
 40
0.0
  9
$DIMTXT
 40
3.5
  9
$DIMCEN
 40
2.5
  9
$DIMTSZ
 40
0.0
  9
$DIMTOL
 70
     0
  9
$DIMLIM
 70
     0
  9
$DIMTIH
 70
     1
  9
$DIMTOH
 70
     1
  9
$DIMSE1
 70
     0
  9
$DIMSE2
 70
     0
  9
$DIMTAD
 70
     1
  9
$DIMZIN
 70
     0
  9
$DIMBLK
  1

  9
$DIMASO
 70
     1
  9
$DIMSHO
 70
     1
  9
$DIMPOST
  1

  9
$DIMAPOST
  1

  9
$DIMALT
 70
     0
  9
$DIMALTD
 70
     3
  9
$DIMALTF
 40
0.0393700787
  9
$DIMLFAC
 40
5.0
  9
$DIMTOFL
 70
     1
  9
$DIMTVP
 40
0.0
  9
$DIMTIX
 70
     0
  9
$DIMSOXD
 70
     0
  9
$DIMSAH
 70
     0
  9
$DIMBLK1
  1

  9
$DIMBLK2
  1

  9
$DIMSTYLE
  2
ISO-25
  9
$DIMCLRD
 70
     0
  9
$DIMCLRE
 70
     0
  9
$DIMCLRT
 70
     0
  9
$DIMTFAC
 40
1.0
  9
$DIMGAP
 40
1.524
  9
$DIMJUST
 70
     0
  9
$DIMSD1
 70
     0
  9
$DIMSD2
 70
     0
  9
$DIMTOLJ
 70
     0
  9
$DIMTZIN
 70
     0
  9
$DIMALTZ
 70
     0
  9
$DIMALTTZ
 70
     0
  9
$DIMUPT
 70
     0
  9
$DIMDEC
 70
     2
  9
$DIMTDEC
 70
     2
  9
$DIMALTU
 70
     2
  9
$DIMALTTD
 70
     3
  9
$DIMTXSTY
  7
Standard
  9
$DIMAUNIT
 70
     0
  9
$DIMADEC
 70
     2
  9
$DIMALTRND
 40
0.0
  9
$DIMAZIN
 70
     0
  9
$DIMDSEP
 70
    44
  9
$DIMATFIT
 70
     3
  9
$DIMFRAC
 70
     0
  9
$DIMLDRBLK
  1

  9
$DIMLUNIT
 70
     2
  9
$DIMLWD
 70
    -2
  9
$DIMLWE
 70
    -2
  9
$DIMTMOVE
 70
     0
  9
$LUNITS
 70
     2
  9
$LUPREC
 70
     2
  9
$SKETCHINC
 40
1.0
  9
$FILLETRAD
 40
10.0
  9
$AUNITS
 70
     0
  9
$AUPREC
 70
     2
  9
$MENU
  1
.
  9
$ELEVATION
 40
0.0
  9
$PELEVATION
 40
0.0
  9
$THICKNESS
 40
0.0
  9
$LIMCHECK
 70
     0
  9
$CHAMFERA
 40
10.0
  9
$CHAMFERB
 40
10.0
  9
$CHAMFERC
 40
20.0
  9
$CHAMFERD
 40
0.0
  9
$SKPOLY
 70
     0
  9
$TDCREATE
 40
2457823.672935197
  9
$TDUCREATE
 40
2457823.63126853
  9
$TDUPDATE
 40
2457823.672936296
  9
$TDUUPDATE
 40
2457823.63126963
  9
$TDINDWG
 40
0.0000000116
  9
$TDUSRTIMER
 40
0.0000000116
  9
$USRTIMER
 70
     1
  9
$ANGBASE
 50
0.0
  9
$ANGDIR
 70
     0
  9
$PDMODE
 70
     0
  9
$PDSIZE
 40
-1.0
  9
$PLINEWID
 40
0.0
  9
$SPLFRAME
 70
     0
  9
$SPLINETYPE
 70
     6
  9
$SPLINESEGS
 70
     8
  9
$HANDSEED
  5
203
  9
$SURFTAB1
 70
     6
  9
$SURFTAB2
 70
     6
  9
$SURFTYPE
 70
     6
  9
$SURFU
 70
     6
  9
$SURFV
 70
     6
  9
$UCSBASE
  2

  9
$UCSNAME
  2

  9
$UCSORG
 10
0.0
 20
0.0
 30
0.0
  9
$UCSXDIR
 10
1.0
 20
0.0
 30
0.0
  9
$UCSYDIR
 10
0.0
 20
1.0
 30
0.0
  9
$UCSORTHOREF
  2

  9
$UCSORTHOVIEW
 70
     0
  9
$UCSORGTOP
 10
0.0
 20
0.0
 30
0.0
  9
$UCSORGBOTTOM
 10
0.0
 20
0.0
 30
0.0
  9
$UCSORGLEFT
 10
0.0
 20
0.0
 30
0.0
  9
$UCSORGRIGHT
 10
0.0
 20
0.0
 30
0.0
  9
$UCSORGFRONT
 10
0.0
 20
0.0
 30
0.0
  9
$UCSORGBACK
 10
0.0
 20
0.0
 30
0.0
  9
$PUCSBASE
  2

  9
$PUCSNAME
  2

  9
$PUCSORG
 10
0.0
 20
0.0
 30
0.0
  9
$PUCSXDIR
 10
1.0
 20
0.0
 30
0.0
  9
$PUCSYDIR
 10
0.0
 20
1.0
 30
0.0
  9
$PUCSORTHOREF
  2

  9
$PUCSORTHOVIEW
 70
     0
  9
$PUCSORGTOP
 10
0.0
 20
0.0
 30
0.0
  9
$PUCSORGBOTTOM
 10
0.0
 20
0.0
 30
0.0
  9
$PUCSORGLEFT
 10
0.0
 20
0.0
 30
0.0
  9
$PUCSORGRIGHT
 10
0.0
 20
0.0
 30
0.0
  9
$PUCSORGFRONT
 10
0.0
 20
0.0
 30
0.0
  9
$PUCSORGBACK
 10
0.0
 20
0.0
 30
0.0
  9
$USERI1
 70
     0
  9
$USERI2
 70
     0
  9
$USERI3
 70
     0
  9
$USERI4
 70
     0
  9
$USERI5
 70
     0
  9
$USERR1
 40
0.0
  9
$USERR2
 40
0.0
  9
$USERR3
 40
0.0
  9
$USERR4
 40
0.0
  9
$USERR5
 40
0.0
  9
$WORLDVIEW
 70
     1
  9
$SHADEDGE
 70
     3
  9
$SHADEDIF
 70
    70
  9
$TILEMODE
 70
     1
  9
$MAXACTVP
 70
    64
  9
$PINSBASE
 10
0.0
 20
0.0
 30
0.0
  9
$PLIMCHECK
 70
     0
  9
$PEXTMIN
 10
1.0000000000E+20
 20
1.0000000000E+20
 30
1.0000000000E+20
  9
$PEXTMAX
 10
-1.0000000000E+20
 20
-1.0000000000E+20
 30
-1.0000000000E+20
  9
$PLIMMIN
 10
0.0
 20
0.0
  9
$PLIMMAX
 10
420.0
 20
297.0
  9
$UNITMODE
 70
     0
  9
$VISRETAIN
 70
     1
  9
$PLINEGEN
 70
     0
  9
$PSLTSCALE
 70
     1
  9
$TREEDEPTH
 70
  3020
  9
$CMLSTYLE
  2
Standard
  9
$CMLJUST
 70
     0
  9
$CMLSCALE
 40
20.0
  9
$PROXYGRAPHICS
 70
     1
  9
$MEASUREMENT
 70
     1
  9
$CELWEIGHT
370
    -1
  9
$ENDCAPS
280
     0
  9
$JOINSTYLE
280
     0
  9
$LWDISPLAY
290
     1
  9
$INSUNITS
 70
     4
  9
$HYPERLINKBASE
  1

  9
$STYLESHEET
  1

  9
$XEDIT
290
     1
  9
$CEPSNTYPE
380
     0
  9
$PSTYLEMODE
290
     1
  9
$FINGERPRINTGUID
  2
{3062CAFC-045E-4543-A13B-6923AED24784}
  9
$VERSIONGUID
  2
{FAEB1C32-E019-11D5-929B-00C0DF256EC4}
  9
$EXTNAMES
290
     1
  9
$PSVPSCALE
 40
0.0
  9
$OLESTARTUP
290
     0
  0
ENDSEC
  0
SECTION
  2
CLASSES
  0
CLASS
  1
ACDBDICTIONARYWDFLT
  2
AcDbDictionaryWithDefault
  3
ObjectDBX Classes
 90
        0
280
     0
281
     0
  0
CLASS
  1
VISUALSTYLE
  2
AcDbVisualStyle
  3
ObjectDBX Classes
 90
     4095
280
     0
281
     0
  0
CLASS
  1
MATERIAL
  2
AcDbMaterial
  3
ObjectDBX Classes
 90
     1153
280
     0
281
     0
  0
CLASS
  1
ACDBPLACEHOLDER
  2
AcDbPlaceHolder
  3
ObjectDBX Classes
 90
        0
280
     0
281
     0
  0
CLASS
  1
LAYOUT
  2
AcDbLayout
  3
ObjectDBX Classes
 90
        0
280
     0
281
     0
  0
ENDSEC
  0
SECTION
  2
TABLES
  0
TABLE
  2
VPORT
  5
8
330
0
100
AcDbSymbolTable
 70
     1
  0
VPORT
  5
29
330
8
100
AcDbSymbolTableRecord
100
AcDbViewportTableRecord
  2
*Active
 70
     0
 10
0.0
 20
0.0
 11
1.0
 21
1.0
 12
210.0
 22
148.5
 13
0.0
 23
0.0
 14
10.0
 24
10.0
 15
10.0
 25
10.0
 16
0.0
 26
0.0
 36
1.0
 17
0.0
 27
0.0
 37
0.0
 40
297.0
 41
1.4141414141
 42
50.0
 43
0.0
 44
0.0
 50
0.0
 51
0.0
 71
     0
 72
  2000
 73
     1
 74
     3
 75
     0
 76
     0
 77
     0
 78
     0
281
     0
 65
     1
110
0.0
120
0.0
130
0.0
111
1.0
121
0.0
131
0.0
112
0.0
122
1.0
132
0.0
 79
     0
146
0.0
  0
ENDTAB
  0
TABLE
  2
LTYPE
  5
5
330
0
100
AcDbSymbolTable
 70
     6
  0
LTYPE
  5
14
330
5
100
AcDbSymbolTableRecord
100
AcDbLinetypeTableRecord
  2
ByBlock
 70
     0
  3

 72
    65
 73
     0
 40
0.0
  0
LTYPE
  5
15
330
5
100
AcDbSymbolTableRecord
100
AcDbLinetypeTableRecord
  2
ByLayer
 70
     0
  3

 72
    65
 73
     0
 40
0.0
  0
LTYPE
  5
16
330
5
100
AcDbSymbolTableRecord
100
AcDbLinetypeTableRecord
  2
Continuous
 70
     0
  3
Solid line
 72
    65
 73
     0
 40
0.0
  0
LTYPE
  5
3F
330
5
100
AcDbSymbolTableRecord
100
AcDbLinetypeTableRecord
  2
HIDDEN
 70
     0
  3
Hidden __ __ __ __ __ __ __ __ __ __ __ __ __ __
 72
    65
 73
     2
 40
1.905
 49
1.27
 74
     0
 49
-0.635
 74
     0
  0
LTYPE
  5
40
330
5
100
AcDbSymbolTableRecord
100
AcDbLinetypeTableRecord
  2
PHANTOM
 70
     0
  3
Phantom ______  __  __  ______  __  __  ______
 72
    65
 73
     6
 40
12.7
 49
6.35
 74
     0
 49
-1.27
 74
     0
 49
1.27
 74
     0
 49
-1.27
 74
     0
 49
1.27
 74
     0
 49
-1.27
 74
     0
  0
LTYPE
  5
41
330
5
100
AcDbSymbolTableRecord
100
AcDbLinetypeTableRecord
  2
CENTER
 70
     0
  3
Center ____ _ ____ _ ____ _ ____ _ ____ _ ____
 72
    65
 73
     4
 40
10.16
 49
6.35
 74
     0
 49
-1.27
 74
     0
 49
1.27
 74
     0
 49
-1.27
 74
     0
  0
LTYPE
  5
42
330
5
100
AcDbSymbolTableRecord
100
AcDbLinetypeTableRecord
  2
CENTERX2
 70
     0
  3
Center (2x) ________  __  ________  __  _____
 72
    65
 73
     4
 40
20.32
 49
12.7
 74
     0
 49
-2.54
 74
     0
 49
2.54
 74
     0
 49
-2.54
 74
     0
  0
LTYPE
  5
43
330
5
100
AcDbSymbolTableRecord
100
AcDbLinetypeTableRecord
  2
DOT2
 70
     0
  3
Dot (.5x) ........................................
 72
    65
 73
     2
 40
0.635
 49
0.0
 74
     0
 49
-0.635
 74
     0
  0
ENDTAB
  0
TABLE
  2
LAYER
  5
2
330
0
100
AcDbSymbolTable
 70
     2
  0
LAYER
  5
10
330
2
100
AcDbSymbolTableRecord
100
AcDbLayerTableRecord
  2
0
 70
     0
 62
     7
  6
Continuous
370
    -3
390
F
  0
LAYER
  5
44
330
2
100
AcDbSymbolTableRecord
100
AcDbLayerTableRecord
  2
FORMAT
 70
     0
 62
     7
  6
Continuous
370
    -3
390
F
  0
ENDTAB
  0
TABLE
  2
STYLE
  5
3
330
0
100
AcDbSymbolTable
 70
     1
  0
STYLE
  5
11
330
3
100
AcDbSymbolTableRecord
100
AcDbTextStyleTableRecord
  2
Standard
 70
     0
 40
0.0
 41
1.0
 50
0.0
 71
     0
 42
3.5
  3
txt
  4

  0
ENDTAB
  0
TABLE
  2
VIEW
  5
6
330
0
100
AcDbSymbolTable
 70
     0
  0
ENDTAB
  0
TABLE
  2
UCS
  5
7
330
0
100
AcDbSymbolTable
 70
     0
  0
ENDTAB
  0
TABLE
  2
APPID
  5
9
330
0
100
AcDbSymbolTable
 70
     1
  0
APPID
  5
12
330
9
100
AcDbSymbolTableRecord
100
AcDbRegAppTableRecord
  2
ACAD
 70
     0
  0
ENDTAB
  0
TABLE
  2
DIMSTYLE
  5
A
330
0
100
AcDbSymbolTable
 70
     1
100
AcDbDimStyleTable
  0
DIMSTYLE
105
27
330
A
100
AcDbSymbolTableRecord
100
AcDbDimStyleTableRecord
  2
ISO-25
 70
     0
 41
2.5
 42
0.625
 43
3.75
 44
1.25
 73
     0
 74
     0
 77
     1
 78
     8
140
2.5
141
2.5
143
0.0393700787
147
0.625
171
     3
172
     1
178
     0
271
     2
272
     2
274
     3
278
    44
283
     0
284
     8
340
11
  0
ENDTAB
  0
TABLE
  2
BLOCK_RECORD
  5
1
330
0
100
AcDbSymbolTable
 70
     1
  0
BLOCK_RECORD
  5
1F
330
1
100
AcDbSymbolTableRecord
100
AcDbBlockTableRecord
  2
*Model_Space
340
22
  0
BLOCK_RECORD
  5
1B
330
1
100
AcDbSymbolTableRecord
100
AcDbBlockTableRecord
  2
*Paper_Space
340
1E
  0
BLOCK_RECORD
  5
23
330
1
100
AcDbSymbolTableRecord
100
AcDbBlockTableRecord
  2
*Paper_Space0
340
26
  0
ENDTAB
  0
ENDSEC
  0
SECTION
  2
BLOCKS
  0
BLOCK
  5
20
330
1F
100
AcDbEntity
  8
0
100
AcDbBlockBegin
  2
*Model_Space
 70
     0
 10
0.0
 20
0.0
 30
0.0
  3
*Model_Space
  1

  0
ENDBLK
  5
21
330
1F
100
AcDbEntity
  8
0
100
AcDbBlockEnd
  0
BLOCK
  5
1C
330
1B
100
AcDbEntity
 67
     1
  8
0
100
AcDbBlockBegin
  2
*Paper_Space
 70
     0
 10
0.0
 20
0.0
 30
0.0
  3
*Paper_Space
  1

  0
ENDBLK
  5
1D
330
1B
100
AcDbEntity
 67
     1
  8
0
100
AcDbBlockEnd
  0
BLOCK
  5
24
330
23
100
AcDbEntity
  8
0
100
AcDbBlockBegin
  2
*Paper_Space0
 70
     0
 10
0.0
 20
0.0
 30
0.0
  3
*Paper_Space0
  1

  0
ENDBLK
  5
25
330
23
100
AcDbEntity
  8
0
100
AcDbBlockEnd
  0
ENDSEC
  0
SECTION
  2
ENTITIES
  0
LINE
  5
45
330
1F
100
AcDbEntity
  8
0
  6
Continuous
 62
     7
370
     0
100
AcDbLine
 10
414.85
 20
5.15
 30
0.0
 11
5.15
 21
5.15
 31
0.0
  0
LINE
  5
46
330
1F
100
AcDbEntity
  8
0
  6
Continuous
 62
     7
370
     0
100
AcDbLine
 10
415.0
 20
5.0
 30
0.0
 11
415.0
 21
277.0
 31
0.0
  0
LINE
  5
47
330
1F
100
AcDbEntity
  8
0
  6
Continuous
 62
     7
370
     0
100
AcDbLine
 10
415.0
 20
277.0
 30
0.0
 11
5.0
 21
277.0
 31
0.0
  0
LINE
  5
48
330
1F
100
AcDbEntity
  8
0
  6
Continuous
 62
     7
370
     0
100
AcDbLine
 10
5.15
 20
276.85
 30
0.0
 11
5.15
 21
5.15
 31
0.0
  0
SPLINE
  5
49
330
1F
100
AcDbEntity
  8
0
  6
Continuous
 62
     7
370
    40
100
AcDbSpline
210
0.0
220
0.0
230
1.0
 70
     8
 71
     3
 72
    63
 73
    59
 74
     0
 42
0.00000001
 43
0.00000001
 12
1.0
 22
0.0
 32
0.0
 13
1.0
 23
0.0
 33
0.0
 40
0.0
 40
0.0
 40
0.0
 40
0.0
 40
0.0125362109324751
 40
0.0278800640611362
 40
0.040358185800531
 40
0.0499707554172972
 40
0.0576543615490872
 40
0.0653390773851869
 40
0.0772660833819362
 40
0.0900814884228105
 40
0.1041585639700378
 40
0.1197948667621035
 40
0.1367490738480845
 40
0.1526497763434602
 40
0.1672839268813584
 40
0.180860619059685
 40
0.1936700310993641
 40
0.2060227299159484
 40
0.2172354157604752
 40
0.22566213510622
 40
0.2319904181357854
 40
0.239776199743286
 40
0.2495296458919589
 40
0.2612518361388272
 40
0.2749434561088899
 40
0.2958519105222918
 40
0.320036610134916
 40
0.3452547864833453
 40
0.4133939659590605
 40
0.4824056412902186
 40
0.5267832409579334
 40
0.5715231724127067
 40
0.6153121245611662
 40
0.6559541252503484
 40
0.6759743960568837
 40
0.695123332424463
 40
0.7134016415622351
 40
0.7308101618510554
 40
0.7473498907985311
 40
0.7623834490826731
 40
0.7727484886952255
 40
0.7808018858456737
 40
0.7839623595022661
 40
0.7869103869788652
 40
0.7905993825727278
 40
0.7951794666298905
 40
0.8044751096366103
 40
0.8162449676887383
 40
0.8301656419385648
 40
0.8440758814122642
 40
0.8577109516975134
 40
0.8800162769625558
 40
0.9021018882577138
 40
0.9244035541492591
 40
0.9423709449149482
 40
0.9618401484829302
 40
0.9829140763733498
 40
1.0
 40
1.0
 40
1.0
 40
1.0
 10
245.1687290796384
 20
196.2888173818087
 30
0.0
 10
244.839562668189
 20
196.2445711359309
 30
0.0
 10
244.1075088851586
 20
196.1461691406085
 30
0.0
 10
243.0470547617902
 20
196.0099339881846
 30
0.0
 10
242.0627823716117
 20
195.8869798753513
 30
0.0
 10
241.2801707324321
 20
195.7916012155885
 30
0.0
 10
240.6217631899413
 20
195.7135839635999
 30
0.0
 10
239.9137894849155
 20
195.6352150616565
 30
0.0
 10
239.1092957194379
 20
195.5532177162128
 30
0.0
 10
238.2299274861024
 20
195.4726305999749
 30
0.0
 10
237.3692607093949
 20
195.4011649990816
 30
0.0
 10
236.5307472160429
 20
195.3366154537835
 30
0.0
 10
235.7734638732674
 20
195.2794031278243
 30
0.0
 10
234.921641862599
 20
195.2101402970398
 30
0.0
 10
234.0432442409849
 20
195.1401346719338
 30
0.0
 10
233.1352918537588
 20
195.072808373086
 30
0.0
 10
232.2024992430019
 20
195.0087022643621
 30
0.0
 10
231.2657228277988
 20
194.9487803528609
 30
0.0
 10
230.424676649068
 20
194.8987033720735
 30
0.0
 10
229.7439886630094
 20
194.8600546209876
 30
0.0
 10
229.1503079080363
 20
194.8276140854414
 30
0.0
 10
228.5205607941922
 20
194.7943667511478
 30
0.0
 10
227.7478657886795
 20
194.755267470518
 30
0.0
 10
226.8186781842449
 20
194.7106486662192
 30
0.0
 10
225.5942536209549
 20
194.6554815707653
 30
0.0
 10
224.0397986259472
 20
194.5915452409152
 30
0.0
 10
222.1799710505168
 20
194.524248436208
 30
0.0
 10
219.0696030085827
 20
194.427691193825
 30
0.0
 10
214.7701286166954
 20
194.3338147719523
 30
0.0
 10
209.9609740720493
 20
194.2882010646087
 30
0.0
 10
205.771415670378
 20
194.2899056360964
 30
0.0
 10
202.2504123786375
 20
194.3187938054054
 30
0.0
 10
198.8291377588715
 20
194.373972705386
 30
0.0
 10
196.0634998949267
 20
194.4403203366041
 30
0.0
 10
193.9511444550174
 20
194.5034830412042
 30
0.0
 10
192.4311947916624
 20
194.5549370592997
 30
0.0
 10
190.9809423748201
 20
194.6097105364528
 30
0.0
 10
189.6003847561631
 20
194.6672283597912
 30
0.0
 10
188.3063974619138
 20
194.7261616426011
 30
0.0
 10
187.1992758366675
 20
194.7807839025836
 30
0.0
 10
186.3167084968979
 20
194.827151392411
 30
0.0
 10
185.7480221072937
 20
194.8584143579241
 30
0.0
 10
185.3751868649976
 20
194.8794701482911
 30
0.0
 10
185.1181317244963
 20
194.8942711358785
 30
0.0
 10
184.8494562831334
 20
194.910127984716
 30
0.0
 10
184.4592166061947
 20
194.9331608512342
 30
0.0
 10
183.937235506358
 20
194.9630498625467
 30
0.0
 10
183.2694391115195
 20
195.0019323405864
 30
0.0
 10
182.5581265656469
 20
195.0454025917014
 30
0.0
 10
181.750927963568
 20
195.0988190165846
 30
0.0
 10
180.7249366055263
 20
195.1721758420946
 30
0.0
 10
179.4423456835191
 20
195.2730010937091
 30
0.0
 10
177.8629855442879
 20
195.4125257787983
 30
0.0
 10
176.3092486810703
 20
195.5657056553643
 30
0.0
 10
174.7757976716299
 20
195.7314381962112
 30
0.0
 10
173.2529486854314
 20
195.90869115017
 30
0.0
 10
171.7427079151713
 20
196.0954572505199
 30
0.0
 10
170.7406724058552
 20
196.229436485933
 30
0.0
 10
170.2920149425076
 20
196.289425162325
 30
0.0
  0
LINE
  5
4A
330
1F
100
AcDbEntity
  8
0
  6
Continuous
 62
     7
370
    40
100
AcDbLine
 10
170.1443748518
 20
195.2278394578
 30
0.0
 11
170.1300130665
 21
195.1645381031
 31
0.0
  0
LINE
  5
4B
330
1F
100
AcDbEntity
  8
0
  6
Continuous
 62
     7
370
    40
100
AcDbLine
 10
170.2780949803
 20
196.2923179166
 30
0.0
 11
170.2747702094
 21
196.2653223838
 31
0.0
  0
SPLINE
  5
4C
330
1F
100
AcDbEntity
  8
0
  6
Continuous
 62
     7
370
    40
100
AcDbSpline
210
0.0
220
0.0
230
1.0
 70
     8
 71
     3
 72
     9
 73
     5
 74
     0
 42
0.00000001
 43
0.00000001
 12
1.0
 22
0.0
 32
0.0
 13
1.0
 23
0.0
 33
0.0
 40
0.0
 40
0.0
 40
0.0
 40
0.0
 40
0.3357699973285805
 40
1.0
 40
1.0
 40
1.0
 40
1.0
 10
170.2424193908301
 20
196.0026493776984
 30
0.0
 10
170.230770432009
 20
195.90732777835
 30
0.0
 10
170.1960771630635
 20
195.6234382107687
 30
0.0
 10
170.1565042985168
 20
195.3195581640316
 30
0.0
 10
170.1302188145932
 20
195.1177119197756
 30
0.0
  0
SPLINE
  5
4D
330
1F
100
AcDbEntity
  8
0
  6
Continuous
 62
     7
370
    40
100
AcDbSpline
210
0.0
220
0.0
230
1.0
 70
     8
 71
     3
 72
     9
 73
     5
 74
     0
 42
0.00000001
 43
0.00000001
 12
1.0
 22
0.0
 32
0.0
 13
1.0
 23
0.0
 33
0.0
 40
0.0
 40
0.0
 40
0.0
 40
0.0
 40
0.6677959760839606
 40
1.0
 40
1.0
 40
1.0
 40
1.0
 10
245.3308663658186
 20
195.1161033445432
 30
0.0
 10
245.3045395094776
 20
195.3182400405242
 30
0.0
 10
245.2651160069651
 20
195.6209323346082
 30
0.0
 10
245.2305533192918
 20
195.9037167595271
 30
0.0
 10
245.2190714553694
 20
195.9976588833859
 30
0.0
  0
LINE
  5
4E
330
1F
100
AcDbEntity
  8
0
  6
Continuous
 62
     7
370
    40
100
AcDbLine
 10
245.1849848404
 20
196.2744123014
 30
0.0
 11
245.182779586
 21
196.2923170333
 31
0.0
  0
LINE
  5
4F
330
1F
100
AcDbEntity
  8
0
  6
Continuous
 62
     7
370
    40
100
AcDbLine
 10
245.3308610117
 20
195.1645359088
 30
0.0
 11
245.3165078465
 21
195.2277991523
 31
0.0
  0
LINE
  5
50
330
1F
100
AcDbEntity
  8
0
  6
Continuous
 62
     7
370
    40
100
AcDbLine
 10
170.0304371921
 20
184.7739889087
 30
0.0
 11
170.8304371921
 21
184.7739889087
 31
0.0
  0
LINE
  5
51
330
1F
100
AcDbEntity
  8
0
  6
Continuous
 62
     7
370
    40
100
AcDbLine
 10
170.0304371921
 20
184.7050644899
 30
0.0
 11
186.4304371921
 21
184.7050644899
 31
0.0
  0
LINE
  5
52
330
1F
100
AcDbEntity
  8
0
  6
Continuous
 62
     7
370
    40
100
AcDbLine
 10
186.4304371921
 20
196.9050644899
 30
0.0
 11
170.0304371921
 21
196.9050644899
 31
0.0
  0
LINE
  5
53
330
1F
100
AcDbEntity
  8
0
  6
Continuous
 62
     7
370
    40
100
AcDbLine
 10
244.6304371921
 20
184.7739889087
 30
0.0
 11
245.4304371921
 21
184.7739889087
 31
0.0
  0
LINE
  5
54
330
1F
100
AcDbEntity
  8
0
  6
Continuous
 62
     7
370
    40
100
AcDbLine
 10
245.4304371921
 20
196.9050644899
 30
0.0
 11
229.0304371921
 21
196.9050644899
 31
0.0
  0
LINE
  5
55
330
1F
100
AcDbEntity
  8
0
  6
Continuous
 62
     7
370
    40
100
AcDbLine
 10
229.0304371921
 20
184.7050644899
 30
0.0
 11
245.4304371921
 21
184.7050644899
 31
0.0
  0
LINE
  5
56
330
1F
100
AcDbEntity
  8
0
  6
Continuous
 62
     7
370
    40
100
AcDbLine
 10
249.1304371921
 20
197.2050644899
 30
0.0
 11
245.7304371921
 21
197.2050644899
 31
0.0
  0
LINE
  5
57
330
1F
100
AcDbEntity
  8
0
  6
Continuous
 62
     7
370
    40
100
AcDbLine
 10
245.7304371921
 20
196.8050644899
 30
0.0
 11
245.4304371921
 21
196.8050644899
 31
0.0
  0
LINE
  5
58
330
1F
100
AcDbEntity
  8
0
  6
Continuous
 62
     7
370
    40
100
AcDbLine
 10
229.0304371921
 20
196.8050644899
 30
0.0
 11
228.3304371921
 21
196.8050644899
 31
0.0
  0
LINE
  5
59
330
1F
100
AcDbEntity
  8
0
  6
Continuous
 62
     7
370
    40
100
AcDbLine
 10
228.3304371921
 20
184.8050644899
 30
0.0
 11
229.0304371921
 21
184.8050644899
 31
0.0
  0
LINE
  5
5A
330
1F
100
AcDbEntity
  8
0
  6
Continuous
 62
     7
370
    40
100
AcDbLine
 10
245.4304371921
 20
184.8050644899
 30
0.0
 11
245.7304371921
 21
184.8050644899
 31
0.0
  0
LINE
  5
5B
330
1F
100
AcDbEntity
  8
0
  6
Continuous
 62
     7
370
    40
100
AcDbLine
 10
169.7304371921
 20
197.2050644899
 30
0.0
 11
166.3304371921
 21
197.2050644899
 31
0.0
  0
LINE
  5
5C
330
1F
100
AcDbEntity
  8
0
  6
Continuous
 62
     7
370
    40
100
AcDbLine
 10
169.7304371921
 20
184.8050644899
 30
0.0
 11
170.0304371921
 21
184.8050644899
 31
0.0
  0
LINE
  5
5D
330
1F
100
AcDbEntity
  8
0
  6
Continuous
 62
     7
370
    40
100
AcDbLine
 10
186.4304371921
 20
184.8050644899
 30
0.0
 11
187.1304371921
 21
184.8050644899
 31
0.0
  0
LINE
  5
5E
330
1F
100
AcDbEntity
  8
0
  6
Continuous
 62
     7
370
    40
100
AcDbLine
 10
187.1304371921
 20
196.8050644899
 30
0.0
 11
186.4304371921
 21
196.8050644899
 31
0.0
  0
LINE
  5
5F
330
1F
100
AcDbEntity
  8
0
  6
Continuous
 62
     7
370
    40
100
AcDbLine
 10
170.0304371921
 20
196.8050644899
 30
0.0
 11
169.7304371921
 21
196.8050644899
 31
0.0
  0
SPLINE
  5
60
330
1F
100
AcDbEntity
  8
0
  6
Continuous
 62
     7
370
    40
100
AcDbSpline
210
0.0
220
0.0
230
1.0
 70
     8
 71
     3
 72
    11
 73
     7
 74
     0
 42
0.00000001
 43
0.00000001
 12
1.0
 22
0.0
 32
0.0
 13
1.0
 23
0.0
 33
0.0
 40
0.0
 40
0.0
 40
0.0
 40
0.0
 40
0.2075408542759137
 40
0.4155764303488094
 40
0.8094155088547805
 40
1.0
 40
1.0
 40
1.0
 40
1.0
 10
170.1303659652559
 20
194.7441163664832
 30
0.0
 10
170.1303707584881
 20
194.8039202552489
 30
0.0
 10
170.1303803563784
 20
194.9236705892298
 30
0.0
 10
170.1305538907794
 20
195.0594806807583
 30
0.0
 10
170.1309264191946
 20
195.1321382052114
 30
0.0
 10
170.1311097033241
 20
195.1188403930594
 30
0.0
 10
170.1311694735222
 20
195.1145038862962
 30
0.0
  0
SPLINE
  5
61
330
1F
100
AcDbEntity
  8
0
  6
Continuous
 62
     7
370
    40
100
AcDbSpline
210
0.0
220
0.0
230
1.0
 70
     8
 71
     3
 72
    32
 73
    28
 74
     0
 42
0.00000001
 43
0.00000001
 12
1.0
 22
0.0
 32
0.0
 13
1.0
 23
0.0
 33
0.0
 40
0.0
 40
0.0
 40
0.0
 40
0.0
 40
0.1250000000000009
 40
0.1250000000000009
 40
0.1875000000000014
 40
0.1875000000000014
 40
0.2500000000000019
 40
0.2500000000000019
 40
0.3750000000000028
 40
0.3750000000000028
 40
0.4375000000000037
 40
0.4375000000000037
 40
0.5000000000000044
 40
0.5000000000000044
 40
0.6250000000000061
 40
0.6250000000000061
 40
0.6875000000000066
 40
0.6875000000000066
 40
0.750000000000007
 40
0.750000000000007
 40
0.875000000000008
 40
0.875000000000008
 40
0.906250000000006
 40
0.906250000000006
 40
0.937500000000004
 40
0.937500000000004
 40
1.0
 40
1.0
 40
1.0
 40
1.0
 10
176.2179364395462
 20
191.2143918641186
 30
0.0
 10
175.7715649702106
 20
191.2689948709698
 30
0.0
 10
175.3442787154242
 20
191.3554858506988
 30
0.0
 10
174.7282033303171
 20
191.5248265574856
 30
0.0
 10
174.5270212291742
 20
191.5879181530756
 30
0.0
 10
174.1327174394143
 20
191.7263730762448
 30
0.0
 10
173.9389134930291
 20
191.802098335575
 30
0.0
 10
173.3812244529072
 20
192.0408464931861
 30
0.0
 10
173.0369307278798
 20
192.2165459113213
 30
0.0
 10
172.5561707279322
 20
192.4954953985658
 30
0.0
 10
172.4016108294103
 20
192.5912999841773
 30
0.0
 10
172.1085362690702
 20
192.7834796648723
 30
0.0
 10
171.9694058967984
 20
192.8801865631347
 30
0.0
 10
171.5728047020301
 20
193.1697593268421
 30
0.0
 10
171.3358885618614
 20
193.3621422634241
 30
0.0
 10
171.0204461215892
 20
193.6396469936359
 30
0.0
 10
170.9231888780777
 20
193.7292594937648
 30
0.0
 10
170.7449647419696
 20
193.9002317542609
 30
0.0
 10
170.6638210656971
 20
193.981750656269
 30
0.0
 10
170.4442589138925
 20
194.2120561423245
 30
0.0
 10
170.3293048892384
 20
194.3456400547842
 30
0.0
 10
170.2305887555632
 20
194.4892380262554
 30
0.0
 10
170.2131335652053
 20
194.5167803616529
 30
0.0
 10
170.1832168976006
 20
194.5690824195547
 30
0.0
 10
170.1707037575382
 20
194.5939139172135
 30
0.0
 10
170.1405705932025
 20
194.6646195406098
 30
0.0
 10
170.1303406849371
 20
194.7067110400702
 30
0.0
 10
170.1303394929377
 20
194.7441186461641
 30
0.0
  0
SPLINE
  5
62
330
1F
100
AcDbEntity
  8
0
  6
Continuous
 62
     7
370
    40
100
AcDbSpline
210
0.0
220
0.0
230
1.0
 70
     8
 71
     3
 72
    26
 73
    22
 74
     0
 42
0.00000001
 43
0.00000001
 12
1.0
 22
0.0
 32
0.0
 13
1.0
 23
0.0
 33
0.0
 40
0.0
 40
0.0
 40
0.0
 40
0.0
 40
0.1249999999999999
 40
0.1249999999999999
 40
0.2499999999999998
 40
0.2499999999999998
 40
0.3749999999999998
 40
0.3749999999999998
 40
0.4374999999999997
 40
0.4374999999999997
 40
0.4687499999999997
 40
0.4687499999999997
 40
0.4999999999999997
 40
0.4999999999999997
 40
0.6249999999999997
 40
0.6249999999999997
 40
0.7499999999999997
 40
0.7499999999999997
 40
0.8749999999999999
 40
0.8749999999999999
 40
1.0
 40
1.0
 40
1.0
 40
1.0
 10
239.2429379447012
 20
191.2143918639984
 30
0.0
 10
236.6319210940195
 20
190.8949956268054
 30
0.0
 10
234.0172804776504
 20
190.6038573083378
 30
0.0
 10
228.7796215398377
 20
190.0937926331877
 30
0.0
 10
226.1565977454219
 20
189.8749420166953
 30
0.0
 10
220.901345957925
 20
189.5207526160062
 30
0.0
 10
218.2691203263515
 20
189.3853798600746
 30
0.0
 10
214.3135294277864
 20
189.2495557190437
 30
0.0
 10
212.9937928261687
 20
189.2154518762271
 30
0.0
 10
211.0123531988303
 20
189.1813635920079
 30
0.0
 10
210.3514933227594
 20
189.1728448324319
 30
0.0
 10
209.0306293917014
 20
189.1615323646838
 30
0.0
 10
208.3704489240111
 20
189.1587348019764
 30
0.0
 10
205.0708020209848
 20
189.159021982903
 30
0.0
 10
202.4351086952142
 20
189.2050510483334
 30
0.0
 10
197.1716108106131
 20
189.3863607038761
 30
0.0
 10
194.5438087097178
 20
189.5216837456034
 30
0.0
 10
189.29572870473
 20
189.8756470543
 30
0.0
 10
186.6754528010615
 20
190.0943222497995
 30
0.0
 10
181.4417748847869
 20
190.6040697187919
 30
0.0
 10
178.8283684478499
 20
190.8950671684543
 30
0.0
 10
176.2179364395173
 20
191.2143918640005
 30
0.0
  0
SPLINE
  5
63
330
1F
100
AcDbEntity
  8
0
  6
Continuous
 62
     7
370
    40
100
AcDbSpline
210
0.0
220
0.0
230
1.0
 70
     8
 71
     3
 72
    36
 73
    32
 74
     0
 42
0.00000001
 43
0.00000001
 12
1.0
 22
0.0
 32
0.0
 13
1.0
 23
0.0
 33
0.0
 40
0.0
 40
0.0
 40
0.0
 40
0.0
 40
0.1250000000000077
 40
0.1250000000000077
 40
0.1875000000000102
 40
0.1875000000000102
 40
0.2500000000000127
 40
0.2500000000000127
 40
0.3750000000000149
 40
0.3750000000000149
 40
0.4062500000000145
 40
0.4062500000000145
 40
0.4375000000000141
 40
0.4375000000000141
 40
0.5000000000000141
 40
0.5000000000000141
 40
0.6250000000000139
 40
0.6250000000000139
 40
0.6562500000000133
 40
0.6562500000000133
 40
0.6875000000000127
 40
0.6875000000000127
 40
0.7500000000000102
 40
0.7500000000000102
 40
0.8125000000000078
 40
0.8125000000000078
 40
0.8437500000000058
 40
0.8437500000000058
 40
0.8750000000000038
 40
0.8750000000000038
 40
1.0
 40
1.0
 40
1.0
 40
1.0
 10
245.3305348343821
 20
194.7439579391254
 30
0.0
 10
245.3304738467901
 20
194.6692374930604
 30
0.0
 10
245.2898951713786
 20
194.5765426835153
 30
0.0
 10
245.1739317959986
 20
194.4069774922988
 30
0.0
 10
245.1260318143482
 20
194.3453442853236
 30
0.0
 10
245.0120382528386
 20
194.2108799731847
 30
0.0
 10
244.9456446095265
 20
194.137664339536
 30
0.0
 10
244.7240456435277
 20
193.9050688099803
 30
0.0
 10
244.5457212969535
 20
193.7323836177383
 30
0.0
 10
244.2852779749172
 20
193.5031302829183
 30
0.0
 10
244.231290067763
 20
193.4566042870579
 30
0.0
 10
244.1194445040777
 20
193.3624010089069
 30
0.0
 10
244.0614604784272
 20
193.3146231585173
 30
0.0
 10
243.8826008454473
 20
193.1707030453941
 30
0.0
 10
243.7569820694656
 20
193.0740776971148
 30
0.0
 10
243.3606908478214
 20
192.7846412854495
 30
0.0
 10
243.0708185487795
 20
192.5922525667815
 30
0.0
 10
242.6720244999876
 20
192.3604009434702
 30
0.0
 10
242.5904241234183
 20
192.3144634734347
 30
0.0
 10
242.4233481616629
 20
192.2236636284026
 30
0.0
 10
242.3379737324834
 20
192.178865897314
 30
0.0
 10
242.0783237731461
 20
192.0476663074029
 30
0.0
 10
241.8997726750725
 20
191.9640377218581
 30
0.0
 10
241.5311796787119
 20
191.805855745443
 30
0.0
 10
241.3411402079739
 20
191.7312982237618
 30
0.0
 10
241.0467775972601
 20
191.6274058388185
 30
0.0
 10
240.9471033844769
 20
191.594100366785
 30
0.0
 10
240.7444946618584
 20
191.5303537856152
 30
0.0
 10
240.6413338787088
 20
191.4998509943279
 30
0.0
 10
240.1195950774242
 20
191.3558179653857
 30
0.0
 10
239.6886640997355
 20
191.2689159319236
 30
0.0
 10
239.2429379446681
 20
191.2143918641337
 30
0.0
  0
SPLINE
  5
64
330
1F
100
AcDbEntity
  8
0
  6
Continuous
 62
     7
370
    40
100
AcDbSpline
210
0.0
220
0.0
230
1.0
 70
     8
 71
     3
 72
    11
 73
     7
 74
     0
 42
0.00000001
 43
0.00000001
 12
1.0
 22
0.0
 32
0.0
 13
1.0
 23
0.0
 33
0.0
 40
0.0
 40
0.0
 40
0.0
 40
0.0
 40
0.0809648205885003
 40
0.3858392358941602
 40
0.6929967941678884
 40
1.0
 40
1.0
 40
1.0
 40
1.0
 10
245.3296878304422
 20
195.1204700832776
 30
0.0
 10
245.3297107286731
 20
195.1228373110907
 30
0.0
 10
245.3298198505835
 20
195.134118375681
 30
0.0
 10
245.3301574553441
 20
195.0978173213477
 30
0.0
 10
245.3304502210222
 20
194.99940849192
 30
0.0
 10
245.3304890216031
 20
194.8290923392045
 30
0.0
 10
245.3305084170179
 20
194.7439556649907
 30
0.0
  0
SPLINE
  5
65
330
1F
100
AcDbEntity
  8
0
  6
Continuous
 62
     7
370
    40
100
AcDbSpline
210
0.0
220
0.0
230
1.0
 70
     8
 71
     3
 72
     9
 73
     5
 74
     0
 42
0.00000001
 43
0.00000001
 12
1.0
 22
0.0
 32
0.0
 13
1.0
 23
0.0
 33
0.0
 40
0.0
 40
0.0
 40
0.0
 40
0.0
 40
0.7497850448607828
 40
1.0
 40
1.0
 40
1.0
 40
1.0
 10
172.5240903014771
 20
196.1197463028547
 30
0.0
 10
172.242618009854
 20
196.1203348524197
 30
0.0
 10
171.8672140276695
 20
196.1211198101473
 30
0.0
 10
171.6163779002837
 20
196.1223258855347
 30
0.0
 10
171.5536149499225
 20
196.1226276636337
 30
0.0
  0
SPLINE
  5
66
330
1F
100
AcDbEntity
  8
0
  6
Continuous
 62
     7
370
    40
100
AcDbSpline
210
0.0
220
0.0
230
1.0
 70
     8
 71
     3
 72
     9
 73
     5
 74
     0
 42
0.00000001
 43
0.00000001
 12
1.0
 22
0.0
 32
0.0
 13
1.0
 23
0.0
 33
0.0
 40
0.0
 40
0.0
 40
0.0
 40
0.0
 40
0.3668033334148778
 40
1.0
 40
1.0
 40
1.0
 40
1.0
 10
170.2770225490247
 20
196.2773725158233
 30
0.0
 10
170.2741344783198
 20
196.265579916008
 30
0.0
 10
170.2662608565675
 20
196.2334302632079
 30
0.0
 10
170.2493450821265
 20
196.0713244717661
 30
0.0
 10
170.2386340701377
 20
195.9686796249911
 30
0.0
  0
SPLINE
  5
67
330
1F
100
AcDbEntity
  8
0
  6
Continuous
 62
     7
370
    40
100
AcDbSpline
210
0.0
220
0.0
230
1.0
 70
     8
 71
     3
 72
    13
 73
     9
 74
     0
 42
0.00000001
 43
0.00000001
 12
1.0
 22
0.0
 32
0.0
 13
1.0
 23
0.0
 33
0.0
 40
0.0
 40
0.0
 40
0.0
 40
0.0
 40
0.1735502405118975
 40
0.3471872888578572
 40
0.52597886288235
 40
0.6917236332845792
 40
0.8625986956553179
 40
1.0
 40
1.0
 40
1.0
 40
1.0
 10
172.5240805407313
 20
196.1197090117028
 30
0.0
 10
172.6035729080298
 20
196.1173499668925
 30
0.0
 10
172.7625974037946
 20
196.1126306973049
 30
0.0
 10
173.1011552056533
 20
196.0739482189905
 30
0.0
 10
173.5012479715839
 20
196.011579497082
 30
0.0
 10
173.9686209229556
 20
195.9246932113773
 30
0.0
 10
174.448088638749
 20
195.8260145717612
 30
0.0
 10
174.8019666624876
 20
195.7481416179332
 30
0.0
 10
174.9596929992765
 20
195.7134330038959
 30
0.0
  0
SPLINE
  5
68
330
1F
100
AcDbEntity
  8
0
  6
Continuous
 62
     7
370
    40
100
AcDbSpline
210
0.0
220
0.0
230
1.0
 70
     8
 71
     3
 72
    16
 73
    12
 74
     0
 42
0.00000001
 43
0.00000001
 12
1.0
 22
0.0
 32
0.0
 13
1.0
 23
0.0
 33
0.0
 40
0.0
 40
0.0
 40
0.0
 40
0.0
 40
0.1667627663041181
 40
0.3321869316694983
 40
0.4109127716474236
 40
0.4929992047134432
 40
0.5782991091842262
 40
0.6666374024340345
 40
0.772125294700825
 40
0.8889286482982224
 40
1.0
 40
1.0
 40
1.0
 40
1.0
 10
240.3851696015689
 20
195.6881303899864
 30
0.0
 10
240.5835668762527
 20
195.7318277249644
 30
0.0
 10
240.978768895201
 20
195.8188716374047
 30
0.0
 10
241.4098969924741
 20
195.9077281975562
 30
0.0
 10
241.724759089327
 20
195.96795754243
 30
0.0
 10
241.9467622968725
 20
196.0077302202624
 30
0.0
 10
242.1603667265553
 20
196.0429183213928
 30
0.0
 10
242.3736119090715
 20
196.0741540090007
 30
0.0
 10
242.5847754953298
 20
196.0994595214188
 30
0.0
 10
242.7813355362348
 20
196.1165549812316
 30
0.0
 10
242.885850739241
 20
196.1186754477464
 30
0.0
 10
242.9367938435055
 20
196.1197090117031
 30
0.0
  0
SPLINE
  5
69
330
1F
100
AcDbEntity
  8
0
  6
Continuous
 62
     7
370
    40
100
AcDbSpline
210
0.0
220
0.0
230
1.0
 70
     8
 71
     3
 72
     9
 73
     5
 74
     0
 42
0.00000001
 43
0.00000001
 12
1.0
 22
0.0
 32
0.0
 13
1.0
 23
0.0
 33
0.0
 40
0.0
 40
0.0
 40
0.0
 40
0.0
 40
0.8346858418285212
 40
1.0
 40
1.0
 40
1.0
 40
1.0
 10
242.9367900437993
 20
196.1197079772054
 30
0.0
 10
243.2575944791601
 20
196.1204515720755
 30
0.0
 10
243.6419360113682
 20
196.1213424400317
 30
0.0
 10
243.8760850878724
 20
196.1224336065525
 30
0.0
 10
243.9147932453413
 20
196.1226139918273
 30
0.0
  0
SPLINE
  5
6A
330
1F
100
AcDbEntity
  8
0
  6
Continuous
 62
     7
370
    40
100
AcDbSpline
210
0.0
220
0.0
230
1.0
 70
     8
 71
     3
 72
    11
 73
     7
 74
     0
 42
0.00000001
 43
0.00000001
 12
1.0
 22
0.0
 32
0.0
 13
1.0
 23
0.0
 33
0.0
 40
0.0
 40
0.0
 40
0.0
 40
0.0
 40
0.1466449845757863
 40
0.6250802652487156
 40
0.8117672333416726
 40
1.0
 40
1.0
 40
1.0
 40
1.0
 10
245.1426882126227
 20
196.1191297057377
 30
0.0
 10
245.1460784485985
 20
196.1149752419029
 30
0.0
 10
245.1605294685849
 20
196.0972666693028
 30
0.0
 10
245.164051404852
 20
196.0934154570866
 30
0.0
 10
245.1662089848018
 20
196.1876012742052
 30
0.0
 10
245.1671803971252
 20
196.235805770243
 30
0.0
 10
245.1676681058593
 20
196.2600073921198
 30
0.0
  0
SPLINE
  5
6B
330
1F
100
AcDbEntity
  8
0
  6
Continuous
 62
     7
370
    40
100
AcDbSpline
210
0.0
220
0.0
230
1.0
 70
     8
 71
     3
 72
    11
 73
     7
 74
     0
 42
0.00000001
 43
0.00000001
 12
1.0
 22
0.0
 32
0.0
 13
1.0
 23
0.0
 33
0.0
 40
0.0
 40
0.0
 40
0.0
 40
0.0
 40
0.145795535790236
 40
0.424094104354418
 40
0.707978630440341
 40
0.9999999999999999
 40
0.9999999999999999
 40
0.9999999999999999
 40
0.9999999999999999
 10
245.1694493333462
 20
196.2834309678549
 30
0.0
 10
245.1700091961777
 20
196.2936741894781
 30
0.0
 10
245.1716377407333
 20
196.3234699570675
 30
0.0
 10
245.1792437211915
 20
196.3154007564265
 30
0.0
 10
245.1947541356597
 20
196.2321409053711
 30
0.0
 10
245.2129924673745
 20
196.0573229605926
 30
0.0
 10
245.2222404758532
 20
195.968679006704
 30
0.0
  0
SPLINE
  5
6C
330
1F
100
AcDbEntity
  8
0
  6
Continuous
 62
     7
370
    40
100
AcDbSpline
210
0.0
220
0.0
230
1.0
 70
     8
 71
     3
 72
    32
 73
    28
 74
     0
 42
0.00000001
 43
0.00000001
 12
1.0
 22
0.0
 32
0.0
 13
1.0
 23
0.0
 33
0.0
 40
0.0
 40
0.0
 40
0.0
 40
0.0
 40
0.1250000000000052
 40
0.1250000000000052
 40
0.1875000000000077
 40
0.1875000000000077
 40
0.2500000000000102
 40
0.2500000000000102
 40
0.3750000000000151
 40
0.3750000000000151
 40
0.437500000000016
 40
0.437500000000016
 40
0.5000000000000169
 40
0.5000000000000169
 40
0.6250000000000164
 40
0.6250000000000164
 40
0.656250000000016
 40
0.656250000000016
 40
0.6875000000000157
 40
0.6875000000000157
 40
0.7500000000000122
 40
0.7500000000000122
 40
0.8125000000000089
 40
0.8125000000000089
 40
0.8750000000000054
 40
0.8750000000000054
 40
1.0
 40
1.0
 40
1.0
 40
1.0
 10
245.2222404752991
 20
195.9686796322205
 30
0.0
 10
245.2282444738431
 20
195.9007341380851
 30
0.0
 10
245.193374435457
 20
195.8162205462241
 30
0.0
 10
245.0846755669443
 20
195.6624358688231
 30
0.0
 10
245.0389777576064
 20
195.6066503172176
 30
0.0
 10
244.9287482109269
 20
195.4854216223908
 30
0.0
 10
244.8639046885778
 20
195.4197254349278
 30
0.0
 10
244.6455866470187
 20
195.2115436464502
 30
0.0
 10
244.4679960747217
 20
195.0561053895804
 30
0.0
 10
244.1548170635816
 20
194.8057388380822
 30
0.0
 10
244.0422697299784
 20
194.7192643120681
 30
0.0
 10
243.8019239458239
 20
194.5429575292536
 30
0.0
 10
243.6751800677024
 20
194.4538883626039
 30
0.0
 10
243.2751237397884
 20
194.1862873851505
 30
0.0
 10
242.9822254717781
 20
194.0073343803127
 30
0.0
 10
242.5795253620771
 20
193.790652474203
 30
0.0
 10
242.497137063002
 20
193.7476691194419
 30
0.0
 10
242.3284832793522
 20
193.6626173609223
 30
0.0
 10
242.2423536242046
 20
193.6206261188068
 30
0.0
 10
241.9804934760158
 20
193.4975346763049
 30
0.0
 10
241.8005501038766
 20
193.418929555364
 30
0.0
 10
241.4294046243115
 20
193.2700561915011
 30
0.0
 10
241.2382042089189
 20
193.1997848315258
 30
0.0
 10
240.8437024213606
 20
193.0691216556123
 30
0.0
 10
240.639961226194
 20
193.008611011824
 30
0.0
 10
240.0115385480882
 20
192.8452968992736
 30
0.0
 10
239.5796033552306
 20
192.763115434898
 30
0.0
 10
239.1336003369237
 20
192.7115545768397
 30
0.0
  0
SPLINE
  5
6D
330
1F
100
AcDbEntity
  8
0
  6
Continuous
 62
     7
370
    40
100
AcDbSpline
210
0.0
220
0.0
230
1.0
 70
     8
 71
     3
 72
    37
 73
    33
 74
     0
 42
0.00000001
 43
0.00000001
 12
1.0
 22
0.0
 32
0.0
 13
1.0
 23
0.0
 33
0.0
 40
0.0
 40
0.0
 40
0.0
 40
0.0
 40
0.01176572045125
 40
0.0234497012938995
 40
0.0350519866664778
 40
0.0465726216465223
 40
0.0580116522768611
 40
0.0693691255928039
 40
0.0806450896502758
 40
0.0918395935549312
 40
0.1029526874922915
 40
0.1139844227589449
 40
0.1249348517948559
 40
0.1882332175681767
 40
0.2498671238683327
 40
0.3128513169830072
 40
0.3749478540094267
 40
0.4375824569354579
 40
0.4999471412316232
 40
0.5000000539414889
 40
0.5623312815066059
 40
0.6249356696092674
 40
0.6870245508677192
 40
0.7500055529476248
 40
0.8116773254327606
 40
0.8750204723428133
 40
0.895164555191386
 40
0.9155825657678055
 40
0.9362748188840633
 40
0.957241616998427
 40
0.9784832508408328
 40
1.0
 40
1.0
 40
1.0
 40
1.0
 10
239.1336006922585
 20
192.7115515160699
 30
0.0
 10
238.8889871840883
 20
192.6834093510395
 30
0.0
 10
238.4014595632502
 20
192.6273205321302
 30
0.0
 10
237.6723255148009
 20
192.5452652869681
 30
0.0
 10
236.9480114209449
 20
192.4651081910716
 30
0.0
 10
236.2284954635584
 20
192.3869747147915
 30
0.0
 10
235.5137912595928
 20
192.310831589893
 30
0.0
 10
234.8039028297599
 20
192.2366876342105
 30
0.0
 10
234.0988365538644
 20
192.1645405101985
 30
0.0
 10
233.398597955049
 20
192.0943908291709
 30
0.0
 10
232.7031927367345
 20
192.0262384515322
 30
0.0
 10
232.0126258403619
 20
191.9600833229816
 30
0.0
 10
230.2325247525546
 20
191.7935333855887
 30
0.0
 10
227.3927232844322
 20
191.5497166292875
 30
0.0
 10
223.4584998253099
 20
191.2669181103232
 30
0.0
 10
219.5434732059629
 20
191.0443785486814
 30
0.0
 10
215.6027991294338
 20
190.8822276098541
 30
0.0
 10
211.6719295401197
 20
190.7844999079591
 30
0.0
 10
209.0434635450428
 20
190.7625435750353
 30
0.0
 10
206.4214504559897
 20
190.7625251741911
 30
0.0
 10
203.7943223935529
 20
190.7844226988388
 30
0.0
 10
199.8649476945702
 20
190.8820066769174
 30
0.0
 10
195.9251278891383
 20
191.0440008227961
 30
0.0
 10
192.0095244811464
 20
191.2664518189551
 30
0.0
 10
188.0736242771673
 20
191.5492711416632
 30
0.0
 10
185.039956488237
 20
191.8096917936486
 30
0.0
 10
182.8714099168022
 20
192.0146335132902
 30
0.0
 10
181.5938571871931
 20
192.1405567835665
 30
0.0
 10
180.3000370538212
 20
192.2731769020056
 30
0.0
 10
178.9900078817267
 20
192.4126031386654
 30
0.0
 10
177.6637139890442
 20
192.5584209009189
 30
0.0
 10
176.7746605688533
 20
192.6602894972451
 30
0.0
 10
176.3272736919771
 20
192.7115515160699
 30
0.0
  0
SPLINE
  5
6E
330
1F
100
AcDbEntity
  8
0
  6
Continuous
 62
     7
370
    40
100
AcDbSpline
210
0.0
220
0.0
230
1.0
 70
     8
 71
     3
 72
    38
 73
    34
 74
     0
 42
0.00000001
 43
0.00000001
 12
1.0
 22
0.0
 32
0.0
 13
1.0
 23
0.0
 33
0.0
 40
0.0
 40
0.0
 40
0.0
 40
0.0
 40
0.0101694865385062
 40
0.0203930076211962
 40
0.03067130443172
 40
0.0410050830867681
 40
0.0513950145191996
 40
0.06184173437608
 40
0.0723458429366461
 40
0.0829079050528728
 40
0.0935284501154826
 40
0.1042079720485353
 40
0.114946929335867
 40
0.1257457450828537
 40
0.186209285535876
 40
0.2505617776894464
 40
0.2810742673161227
 40
0.3130440723614221
 40
0.3757860642980174
 40
0.4380543850286647
 40
0.5002766613319407
 40
0.5629018675838005
 40
0.6255009013857572
 40
0.6910195690838735
 40
0.7501098991106598
 40
0.8130204163703063
 40
0.8751984108080213
 40
0.895963496867653
 40
0.9167597861016775
 40
0.9375745732595113
 40
0.9583949349439697
 40
0.9792077965632386
 40
1.0
 40
1.0
 40
1.0
 40
1.0
 10
176.3272736966044
 20
192.7115515160699
 30
0.0
 10
176.2913863736274
 20
192.7158236579571
 30
0.0
 10
176.2194210439913
 20
192.7243906413279
 30
0.0
 10
176.1116082652038
 20
192.7388434660737
 30
0.0
 10
176.0035802506645
 20
192.7545090433775
 30
0.0
 10
175.8954014026018
 20
192.7715020223385
 30
0.0
 10
175.7871017392304
 20
192.7897916383593
 30
0.0
 10
175.6787216990841
 20
192.8093862842039
 30
0.0
 10
175.5703000013025
 20
192.8302836504812
 30
0.0
 10
175.4618769447334
 20
192.8524841674222
 30
0.0
 10
175.3534933089375
 20
192.8759874343797
 30
0.0
 10
175.2451912868031
 20
192.9007929174529
 30
0.0
 10
175.1370116810565
 20
192.9269007291635
 30
0.0
 10
174.8636280554426
 20
192.9962720395706
 30
0.0
 10
174.4223841931629
 20
193.1268170170864
 30
0.0
 10
173.9435412652483
 20
193.3020158992482
 30
0.0
 10
173.5712263609966
 20
193.4578643889575
 30
0.0
 10
173.215984442595
 20
193.6187574501459
 30
0.0
 10
172.7947635747178
 20
193.8318551551193
 30
0.0
 10
172.3322548937598
 20
194.0968185891054
 30
0.0
 10
171.910819061043
 20
194.3658987701543
 30
0.0
 10
171.5307589036776
 20
194.6330916032863
 30
0.0
 10
171.1885222643063
 20
194.8961345390728
 30
0.0
 10
170.8990174294763
 20
195.1380871145406
 30
0.0
 10
170.6570518050618
 20
195.3590442856605
 30
0.0
 10
170.4680712205417
 20
195.5501896316887
 30
0.0
 10
170.3609043327317
 20
195.6811161171422
 30
0.0
 10
170.3057208665298
 20
195.7641239150105
 30
0.0
 10
170.2789597665609
 20
195.8110373518418
 30
0.0
 10
170.2586493752457
 20
195.8550224504407
 30
0.0
 10
170.2450446619092
 20
195.8959949001875
 30
0.0
 10
170.2376000681126
 20
195.934209722177
 30
0.0
 10
170.238289371476
 20
195.9571930517502
 30
0.0
 10
170.2386338520276
 20
195.9686790105751
 30
0.0
  0
LINE
  5
6F
330
1F
100
AcDbEntity
  8
0
  6
Continuous
 62
     7
370
    40
100
AcDbLine
 10
170.8304371921
 20
193.829384062
 30
0.0
 11
170.8304371921
 21
192.7113696429
 31
0.0
  0
LINE
  5
70
330
1F
100
AcDbEntity
  8
0
  6
Continuous
 62
     7
370
    40
100
AcDbLine
 10
170.0304371921
 20
192.7113696429
 30
0.0
 11
170.0304371921
 21
194.4050644899
 31
0.0
  0
LINE
  5
71
330
1F
100
AcDbEntity
  8
0
  6
Continuous
 62
     7
370
    40
100
AcDbLine
 10
170.1149773302
 20
194.9388299149
 30
0.0
 11
170.0304371921
 21
194.4050644899
 31
0.0
  0
LINE
  5
72
330
1F
100
AcDbEntity
  8
0
  6
Continuous
 62
     7
370
    40
100
AcDbLine
 10
170.0304371921
 20
190.7865263611
 30
0.0
 11
170.0304371921
 21
192.7113696429
 31
0.0
  0
LINE
  5
73
330
1F
100
AcDbEntity
  8
0
  6
Continuous
 62
     7
370
    40
100
AcDbLine
 10
170.8304371921
 20
190.7865263611
 30
0.0
 11
170.8304371921
 21
192.7113696429
 31
0.0
  0
LINE
  5
74
330
1F
100
AcDbEntity
  8
0
  6
Continuous
 62
     7
370
    40
100
AcDbLine
 10
170.0304371921
 20
184.7739889087
 30
0.0
 11
170.0304371921
 21
190.7865263611
 31
0.0
  0
LINE
  5
75
330
1F
100
AcDbEntity
  8
0
  6
Continuous
 62
     7
370
    40
100
AcDbLine
 10
170.8304371921
 20
184.7739889087
 30
0.0
 11
170.8304371921
 21
190.7865263611
 31
0.0
  0
LINE
  5
76
330
1F
100
AcDbEntity
  8
0
  6
Continuous
 62
     7
370
    40
100
AcDbLine
 10
186.4304371921
 20
194.8437214978
 30
0.0
 11
186.4304371921
 21
196.9050644899
 31
0.0
  0
LINE
  5
77
330
1F
100
AcDbEntity
  8
0
  6
Continuous
 62
     7
370
    40
100
AcDbLine
 10
186.4304371921
 20
184.7050644899
 30
0.0
 11
186.4304371921
 21
190.1364171181
 31
0.0
  0
LINE
  5
78
330
1F
100
AcDbEntity
  8
0
  6
Continuous
 62
     7
370
    40
100
AcDbLine
 10
170.0304371921
 20
194.4050644899
 30
0.0
 11
170.0304371921
 21
196.9050644899
 31
0.0
  0
LINE
  5
79
330
1F
100
AcDbEntity
  8
0
  6
Continuous
 62
     7
370
    40
100
AcDbLine
 10
170.0304371921
 20
184.7050644899
 30
0.0
 11
170.0304371921
 21
184.7739889087
 31
0.0
  0
LINE
  5
7A
330
1F
100
AcDbEntity
  8
0
  6
Continuous
 62
     7
370
    40
100
AcDbLine
 10
245.3413980718
 20
194.9672353708
 30
0.0
 11
245.4304371921
 21
194.4050644899
 31
0.0
  0
LINE
  5
7B
330
1F
100
AcDbEntity
  8
0
  6
Continuous
 62
     7
370
    40
100
AcDbLine
 10
245.4304371921
 20
194.4050644899
 30
0.0
 11
245.4304371921
 21
192.7113696429
 31
0.0
  0
LINE
  5
7C
330
1F
100
AcDbEntity
  8
0
  6
Continuous
 62
     7
370
    40
100
AcDbLine
 10
244.6304371921
 20
192.7113696429
 30
0.0
 11
244.6304371921
 21
193.8207833204
 31
0.0
  0
LINE
  5
7D
330
1F
100
AcDbEntity
  8
0
  6
Continuous
 62
     7
370
    40
100
AcDbLine
 10
245.4304371921
 20
192.7113696429
 30
0.0
 11
245.4304371921
 21
190.7865263611
 31
0.0
  0
LINE
  5
7E
330
1F
100
AcDbEntity
  8
0
  6
Continuous
 62
     7
370
    40
100
AcDbLine
 10
244.6304371921
 20
192.7113696429
 30
0.0
 11
244.6304371921
 21
190.7865263611
 31
0.0
  0
LINE
  5
7F
330
1F
100
AcDbEntity
  8
0
  6
Continuous
 62
     7
370
    40
100
AcDbLine
 10
245.4304371921
 20
190.7865263611
 30
0.0
 11
245.4304371921
 21
184.7739889087
 31
0.0
  0
LINE
  5
80
330
1F
100
AcDbEntity
  8
0
  6
Continuous
 62
     7
370
    40
100
AcDbLine
 10
244.6304371921
 20
190.7865263611
 30
0.0
 11
244.6304371921
 21
184.7739889087
 31
0.0
  0
LINE
  5
81
330
1F
100
AcDbEntity
  8
0
  6
Continuous
 62
     7
370
    40
100
AcDbLine
 10
229.0304371921
 20
196.9050644899
 30
0.0
 11
229.0304371921
 21
194.8396865064
 31
0.0
  0
LINE
  5
82
330
1F
100
AcDbEntity
  8
0
  6
Continuous
 62
     7
370
    40
100
AcDbLine
 10
229.0304371921
 20
190.148646872
 30
0.0
 11
229.0304371921
 21
184.7050644899
 31
0.0
  0
LINE
  5
83
330
1F
100
AcDbEntity
  8
0
  6
Continuous
 62
     7
370
    40
100
AcDbLine
 10
245.4304371921
 20
184.7739889087
 30
0.0
 11
245.4304371921
 21
184.7050644899
 31
0.0
  0
LINE
  5
84
330
1F
100
AcDbEntity
  8
0
  6
Continuous
 62
     7
370
    40
100
AcDbLine
 10
245.4304371921
 20
196.9050644899
 30
0.0
 11
245.4304371921
 21
194.4050644899
 31
0.0
  0
LINE
  5
85
330
1F
100
AcDbEntity
  8
0
  6
Continuous
 62
     7
370
    40
100
AcDbLine
 10
249.1304371921
 20
197.2050644899
 30
0.0
 11
249.1304371921
 21
188.0478318292
 31
0.0
  0
LINE
  5
86
330
1F
100
AcDbEntity
  8
0
  6
Continuous
 62
     7
370
    40
100
AcDbLine
 10
245.7304371921
 20
197.2050644899
 30
0.0
 11
245.7304371921
 21
188.0478318292
 31
0.0
  0
LINE
  5
87
330
1F
100
AcDbEntity
  8
0
  6
Continuous
 62
     7
370
    40
100
AcDbLine
 10
228.3304371921
 20
196.8050644899
 30
0.0
 11
228.3304371921
 21
194.7973217786
 31
0.0
  0
LINE
  5
88
330
1F
100
AcDbEntity
  8
0
  6
Continuous
 62
     7
370
    40
100
AcDbLine
 10
228.3304371921
 20
190.0884008193
 30
0.0
 11
228.3304371921
 21
184.8050644899
 31
0.0
  0
LINE
  5
89
330
1F
100
AcDbEntity
  8
0
  6
Continuous
 62
     7
370
    40
100
AcDbLine
 10
239.3304371921
 20
179.2050644899
 30
0.0
 11
239.3304371921
 21
180.2050644899
 31
0.0
  0
LINE
  5
8A
330
1F
100
AcDbEntity
  8
0
  6
Continuous
 62
     7
370
    40
100
AcDbLine
 10
239.3304371921
 20
180.2050644899
 30
0.0
 11
249.1304371921
 21
180.2050644899
 31
0.0
  0
LINE
  5
8B
330
1F
100
AcDbEntity
  8
0
  6
Continuous
 62
     7
370
    40
100
AcDbLine
 10
249.1304371921
 20
180.2050644899
 30
0.0
 11
249.1304371921
 21
179.2050644899
 31
0.0
  0
CIRCLE
  5
8C
330
1F
100
AcDbEntity
  8
0
  6
Continuous
 62
     7
370
    40
100
AcDbCircle
 10
245.2304371921
 20
173.6050644899
 30
0.0
 40
1.100000000000023
  0
ARC
  5
8D
330
1F
100
AcDbEntity
  8
0
  6
Continuous
 62
     7
370
    40
100
AcDbCircle
 10
247.1304371921
 20
171.2050644899
 30
0.0
 40
2.0
100
AcDbArc
 50
270.0
 51
0.0
  0
LINE
  5
8E
330
1F
100
AcDbEntity
  8
0
  6
Continuous
 62
     7
370
    40
100
AcDbLine
 10
239.3304371921
 20
171.2050644899
 30
0.0
 11
239.3304371921
 21
179.2050644899
 31
0.0
  0
ARC
  5
8F
330
1F
100
AcDbEntity
  8
0
  6
Continuous
 62
     7
370
    40
100
AcDbCircle
 10
241.3304371921
 20
171.2050644899
 30
0.0
 40
2.0
100
AcDbArc
 50
180.0
 51
270.0
  0
LINE
  5
90
330
1F
100
AcDbEntity
  8
0
  6
Continuous
 62
     7
370
    40
100
AcDbLine
 10
247.1304371921
 20
169.2050644899
 30
0.0
 11
241.3304371921
 21
169.2050644899
 31
0.0
  0
LINE
  5
91
330
1F
100
AcDbEntity
  8
0
  6
Continuous
 62
     7
370
    40
100
AcDbLine
 10
249.1304371921
 20
171.2050644899
 30
0.0
 11
249.1304371921
 21
179.2050644899
 31
0.0
  0
LINE
  5
92
330
1F
100
AcDbEntity
  8
0
  6
Continuous
 62
     7
370
    40
100
AcDbLine
 10
249.1304371921
 20
188.0478318292
 30
0.0
 11
249.1304371921
 21
183.7396557968
 31
0.0
  0
LINE
  5
93
330
1F
100
AcDbEntity
  8
0
  6
Continuous
 62
     7
370
    40
100
AcDbLine
 10
245.7304371921
 20
183.7396557968
 30
0.0
 11
245.7304371921
 21
188.0478318292
 31
0.0
  0
LINE
  5
94
330
1F
100
AcDbEntity
  8
0
  6
Continuous
 62
     7
370
    40
100
AcDbLine
 10
249.1304371921
 20
183.7396557968
 30
0.0
 11
249.1304371921
 21
180.2050644899
 31
0.0
  0
LINE
  5
95
330
1F
100
AcDbEntity
  8
0
  6
Continuous
 62
     7
370
    40
100
AcDbLine
 10
245.7304371921
 20
183.7396557968
 30
0.0
 11
245.7304371921
 21
180.2050644899
 31
0.0
  0
LINE
  5
96
330
1F
100
AcDbEntity
  8
0
  6
Continuous
 62
     7
370
    40
100
AcDbLine
 10
166.3304371921
 20
197.2050644899
 30
0.0
 11
166.3304371921
 21
188.0478318292
 31
0.0
  0
LINE
  5
97
330
1F
100
AcDbEntity
  8
0
  6
Continuous
 62
     7
370
    40
100
AcDbLine
 10
169.7304371921
 20
197.2050644899
 30
0.0
 11
169.7304371921
 21
188.0478318292
 31
0.0
  0
LINE
  5
98
330
1F
100
AcDbEntity
  8
0
  6
Continuous
 62
     7
370
    40
100
AcDbLine
 10
187.1304371921
 20
196.8050644899
 30
0.0
 11
187.1304371921
 21
194.7972022467
 31
0.0
  0
LINE
  5
99
330
1F
100
AcDbEntity
  8
0
  6
Continuous
 62
     7
370
    40
100
AcDbLine
 10
187.1304371921
 20
190.0714352159
 30
0.0
 11
187.1304371921
 21
184.8050644899
 31
0.0
  0
CIRCLE
  5
9A
330
1F
100
AcDbEntity
  8
0
  6
Continuous
 62
     7
370
    40
100
AcDbCircle
 10
170.2304371921
 20
173.6050644899
 30
0.0
 40
1.099999999999994
  0
ARC
  5
9B
330
1F
100
AcDbEntity
  8
0
  6
Continuous
 62
     7
370
    40
100
AcDbCircle
 10
174.1304371921
 20
171.2050644899
 30
0.0
 40
2.0
100
AcDbArc
 50
270.0
 51
0.0
  0
LINE
  5
9C
330
1F
100
AcDbEntity
  8
0
  6
Continuous
 62
     7
370
    40
100
AcDbLine
 10
174.1304371921
 20
169.2050644899
 30
0.0
 11
168.3304371921
 21
169.2050644899
 31
0.0
  0
ARC
  5
9D
330
1F
100
AcDbEntity
  8
0
  6
Continuous
 62
     7
370
    40
100
AcDbCircle
 10
168.3304371921
 20
171.2050644899
 30
0.0
 40
2.0
100
AcDbArc
 50
180.0
 51
270.0
  0
LINE
  5
9E
330
1F
100
AcDbEntity
  8
0
  6
Continuous
 62
     7
370
    40
100
AcDbLine
 10
176.1304371921
 20
179.2050644899
 30
0.0
 11
176.1304371921
 21
171.2050644899
 31
0.0
  0
LINE
  5
9F
330
1F
100
AcDbEntity
  8
0
  6
Continuous
 62
     7
370
    40
100
AcDbLine
 10
166.3304371921
 20
171.2050644899
 30
0.0
 11
166.3304371921
 21
179.2050644899
 31
0.0
  0
LINE
  5
A0
330
1F
100
AcDbEntity
  8
0
  6
Continuous
 62
     7
370
    40
100
AcDbLine
 10
166.3304371921
 20
180.2050644899
 30
0.0
 11
176.1304371921
 21
180.2050644899
 31
0.0
  0
LINE
  5
A1
330
1F
100
AcDbEntity
  8
0
  6
Continuous
 62
     7
370
    40
100
AcDbLine
 10
176.1304371921
 20
180.2050644899
 30
0.0
 11
176.1304371921
 21
179.2050644899
 31
0.0
  0
LINE
  5
A2
330
1F
100
AcDbEntity
  8
0
  6
Continuous
 62
     7
370
    40
100
AcDbLine
 10
166.3304371921
 20
179.2050644899
 30
0.0
 11
166.3304371921
 21
180.2050644899
 31
0.0
  0
LINE
  5
A3
330
1F
100
AcDbEntity
  8
0
  6
Continuous
 62
     7
370
    40
100
AcDbLine
 10
166.3304371921
 20
183.7396557968
 30
0.0
 11
166.3304371921
 21
188.0478318292
 31
0.0
  0
LINE
  5
A4
330
1F
100
AcDbEntity
  8
0
  6
Continuous
 62
     7
370
    40
100
AcDbLine
 10
169.7304371921
 20
188.0478318292
 30
0.0
 11
169.7304371921
 21
183.7396557968
 31
0.0
  0
LINE
  5
A5
330
1F
100
AcDbEntity
  8
0
  6
Continuous
 62
     7
370
    40
100
AcDbLine
 10
166.3304371921
 20
183.7396557968
 30
0.0
 11
166.3304371921
 21
180.2050644899
 31
0.0
  0
LINE
  5
A6
330
1F
100
AcDbEntity
  8
0
  6
Continuous
 62
     7
370
    40
100
AcDbLine
 10
169.7304371921
 20
183.7396557968
 30
0.0
 11
169.7304371921
 21
180.2050644899
 31
0.0
  0
SPLINE
  5
A7
330
1F
100
AcDbEntity
  8
0
  6
Continuous
 62
     7
370
    40
100
AcDbSpline
210
0.0
220
0.0
230
1.0
 70
     8
 71
     3
 72
    32
 73
    28
 74
     0
 42
0.00000001
 43
0.00000001
 12
1.0
 22
0.0
 32
0.0
 13
1.0
 23
0.0
 33
0.0
 40
0.0
 40
0.0
 40
0.0
 40
0.0
 40
0.0141667493857666
 40
0.0969385655235031
 40
0.1721045332982082
 40
0.2395647897636679
 40
0.2909423422480155
 40
0.3366878333189792
 40
0.3773468916336952
 40
0.4166832022085416
 40
0.4554819477302482
 40
0.493803796103787
 40
0.5317047657985882
 40
0.569236534850922
 40
0.6187862000864147
 40
0.6683647892193137
 40
0.7184739940272864
 40
0.7333834040517623
 40
0.7484712035029076
 40
0.7667178092928028
 40
0.7888182758861041
 40
0.8148929216293189
 40
0.8453571756309042
 40
0.8807473933551273
 40
0.9215092707700355
 40
0.9677556183127127
 40
1.0
 40
1.0
 40
1.0
 40
1.0
 10
327.0756555354893
 20
191.6495389186013
 30
0.0
 10
327.2288976889776
 20
191.6626851152432
 30
0.0
 10
328.2774850630024
 20
191.7526403625521
 30
0.0
 10
330.1410212282375
 20
191.889855283521
 30
0.0
 10
332.5830090171092
 20
192.0479449289582
 30
0.0
 10
334.6858687094211
 20
192.1677189150763
 30
0.0
 10
336.4702305437518
 20
192.2618024266261
 30
0.0
 10
337.9642116560599
 20
192.3368860999377
 30
0.0
 10
339.327720712135
 20
192.403530544614
 30
0.0
 10
340.6158989498007
 20
192.4665259902165
 30
0.0
 10
341.8786383778717
 20
192.5302172602495
 30
0.0
 10
343.1256244799335
 20
192.5967725208175
 30
0.0
 10
344.3586000130709
 20
192.6677306021353
 30
0.0
 10
345.7127827635667
 20
192.7533558863526
 30
0.0
 10
347.19297368998
 20
192.8569197243452
 30
0.0
 10
348.807178808904
 20
192.9928759338208
 30
0.0
 10
350.0481329605053
 20
193.0945810285667
 30
0.0
 10
350.9180396083557
 20
193.1038706390495
 30
0.0
 10
351.4417193252569
 20
193.0871613837169
 30
0.0
 10
352.0416087799986
 20
193.0323736224522
 30
0.0
 10
352.7518458736113
 20
192.8987262245476
 30
0.0
 10
353.5665098957834
 20
192.6354044798021
 30
0.0
 10
354.4729075911427
 20
192.2119152449375
 30
0.0
 10
355.4606996776116
 20
191.6044292981525
 30
0.0
 10
356.5246319165336
 20
190.8060561791789
 30
0.0
 10
357.5101758213356
 20
189.9657962430052
 30
0.0
 10
358.1453174320106
 20
189.3976921057424
 30
0.0
 10
358.4062367624971
 20
189.1643121025275
 30
0.0
  0
LINE
  5
A8
330
1F
100
AcDbEntity
  8
0
  6
Continuous
 62
     7
370
    40
100
AcDbLine
 10
358.4142199383
 20
189.1669870215
 30
0.0
 11
358.4142199383
 21
190.7725726613
 31
0.0
  0
SPLINE
  5
A9
330
1F
100
AcDbEntity
  8
0
  6
Continuous
 62
     7
370
    40
100
AcDbSpline
210
0.0
220
0.0
230
1.0
 70
     8
 71
     3
 72
    14
 73
    10
 74
     0
 42
0.00000001
 43
0.00000001
 12
1.0
 22
0.0
 32
0.0
 13
1.0
 23
0.0
 33
0.0
 40
0.0
 40
0.0
 40
0.0
 40
0.0
 40
0.1250000000000004
 40
0.1250000000000004
 40
0.2500000000000007
 40
0.2500000000000007
 40
0.5000000000000014
 40
0.5000000000000014
 40
1.0
 40
1.0
 40
1.0
 40
1.0
 10
350.0762169608064
 20
194.7441163664832
 30
0.0
 10
349.594859198484
 20
194.8250713062142
 30
0.0
 10
349.1113451798357
 20
194.8873205642563
 30
0.0
 10
348.1415492346526
 20
194.9878072808399
 30
0.0
 10
347.654902589863
 20
195.0264383727109
 30
0.0
 10
346.1953002688525
 20
195.1128673813514
 30
0.0
 10
345.2225066212877
 20
195.1308442338211
 30
0.0
 10
342.3046107760866
 20
195.1147358433586
 30
0.0
 10
340.3599947010541
 20
195.0104637113393
 30
0.0
 10
338.4150141793935
 20
194.9588129062761
 30
0.0
  0
SPLINE
  5
AA
330
1F
100
AcDbEntity
  8
0
  6
Continuous
 62
     7
370
    40
100
AcDbSpline
210
0.0
220
0.0
230
1.0
 70
     8
 71
     3
 72
    22
 73
    18
 74
     0
 42
0.00000001
 43
0.00000001
 12
1.0
 22
0.0
 32
0.0
 13
1.0
 23
0.0
 33
0.0
 40
0.0
 40
0.0
 40
0.0
 40
0.0
 40
0.037957430688278
 40
0.0773973701130239
 40
0.1183203953527565
 40
0.1607270229395832
 40
0.2046177170258687
 40
0.2499928962215033
 40
0.3098850783978163
 40
0.3749900638688661
 40
0.499992521601561
 40
0.6249968801034098
 40
0.6874936226202463
 40
0.7499997965301135
 40
0.8409257276912196
 40
0.9242587090615347
 40
1.0
 40
1.0
 40
1.0
 40
1.0
 10
338.4150140552183
 20
194.9588175182977
 30
0.0
 10
338.2885212556805
 20
194.9561687726263
 30
0.0
 10
338.0305952094509
 20
194.9507678288494
 30
0.0
 10
337.6362553364949
 20
194.9445356312194
 30
0.0
 10
337.2270687516511
 20
194.9394424765642
 30
0.0
 10
336.8030317947233
 20
194.9356521828598
 30
0.0
 10
336.3641454352707
 20
194.9331166316344
 30
0.0
 10
335.8669704822637
 20
194.9317368994632
 30
0.0
 10
335.2990815591857
 20
194.9319326849897
 30
0.0
 10
334.4657817179522
 20
194.9345594542652
 30
0.0
 10
333.4154660632398
 20
194.9413761082231
 30
0.0
 10
332.3738557624481
 20
194.9494811305802
 30
0.0
 10
331.5405489690973
 20
194.9555173635969
 30
0.0
 10
330.8208228117732
 20
194.9596619008978
 30
0.0
 10
330.0316380334224
 20
194.9625215699597
 30
0.0
 10
329.1983293179196
 20
194.96285993703
 30
0.0
 10
328.6681065856587
 20
194.9600955267877
 30
0.0
 10
328.4156474441301
 20
194.9587792862832
 30
0.0
  0
SPLINE
  5
AB
330
1F
100
AcDbEntity
  8
0
  6
Continuous
 62
     7
370
    40
100
AcDbSpline
210
0.0
220
0.0
230
1.0
 70
     8
 71
     3
 72
     8
 73
     4
 74
     0
 42
0.00000001
 43
0.00000001
 12
1.0
 22
0.0
 32
0.0
 13
1.0
 23
0.0
 33
0.0
 40
0.0
 40
0.0
 40
0.0
 40
0.0
 40
1.0
 40
1.0
 40
1.0
 40
1.0
 10
328.4156474561478
 20
194.9587807068021
 30
0.0
 10
325.0818761956918
 20
194.9823341396294
 30
0.0
 10
321.7480075527528
 20
194.9649158556871
 30
0.0
 10
318.4142281999459
 20
194.9588131070844
 30
0.0
  0
SPLINE
  5
AC
330
1F
100
AcDbEntity
  8
0
  6
Continuous
 62
     7
370
    40
100
AcDbSpline
210
0.0
220
0.0
230
1.0
 70
     8
 71
     3
 72
    23
 73
    19
 74
     0
 42
0.00000001
 43
0.00000001
 12
1.0
 22
0.0
 32
0.0
 13
1.0
 23
0.0
 33
0.0
 40
0.0
 40
0.0
 40
0.0
 40
0.0
 40
0.0383734927513583
 40
0.0800453041169342
 40
0.1250157525781887
 40
0.1745923034476585
 40
0.2500303973450315
 40
0.3196650121092703
 40
0.3750443226354618
 40
0.4405503011080144
 40
0.5000444921191433
 40
0.6314135731894871
 40
0.7500493764620317
 40
0.802207401468279
 40
0.8532707427469994
 40
0.9032497831159039
 40
0.9521555959963908
 40
1.0
 40
1.0
 40
1.0
 40
1.0
 10
318.4142274753459
 20
194.9587964532006
 30
0.0
 10
318.3104233768774
 20
194.9630989125656
 30
0.0
 10
318.0938929014178
 20
194.9720736407862
 30
0.0
 10
317.7557706485351
 20
194.987430167595
 30
0.0
 10
317.3873863204521
 20
195.0049707139205
 30
0.0
 10
316.9277431715914
 20
195.0280312603094
 30
0.0
 10
316.4014355637773
 20
195.054979115139
 30
0.0
 10
315.8594235735139
 20
195.0824549065211
 30
0.0
 10
315.3442008259037
 20
195.1072292814318
 30
0.0
 10
314.8562960765959
 20
195.1284474888147
 30
0.0
 10
314.1626805685927
 20
195.1544356728534
 30
0.0
 10
313.3249352103175
 20
195.1750994766565
 30
0.0
 10
312.5067555443025
 20
195.1768902307338
 30
0.0
 10
311.9061883949994
 20
195.1653833491955
 30
0.0
 10
311.4916217064368
 20
195.1516657292333
 30
0.0
 10
311.0861048981672
 20
195.1322067465336
 30
0.0
 10
310.6895837328127
 20
195.1076164863933
 30
0.0
 10
310.4285214589188
 20
195.0860802669091
 30
0.0
 10
310.2994223281412
 20
195.0754302898971
 30
0.0
  0
SPLINE
  5
AD
330
1F
100
AcDbEntity
  8
0
  6
Continuous
 62
     7
370
    40
100
AcDbSpline
210
0.0
220
0.0
230
1.0
 70
     8
 71
     3
 72
    48
 73
    44
 74
     0
 42
0.00000001
 43
0.00000001
 12
1.0
 22
0.0
 32
0.0
 13
1.0
 23
0.0
 33
0.0
 40
0.0
 40
0.0
 40
0.0
 40
0.0
 40
0.0156249999999996
 40
0.0156249999999996
 40
0.0312499999999992
 40
0.0312499999999992
 40
0.0624999999999983
 40
0.0624999999999983
 40
0.1249999999999972
 40
0.1249999999999972
 40
0.1874999999999961
 40
0.1874999999999961
 40
0.2031249999999957
 40
0.2031249999999957
 40
0.2187499999999952
 40
0.2187499999999952
 40
0.249999999999995
 40
0.249999999999995
 40
0.3749999999999952
 40
0.3749999999999952
 40
0.4062499999999952
 40
0.4062499999999952
 40
0.4374999999999952
 40
0.4374999999999952
 40
0.4999999999999957
 40
0.4999999999999957
 40
0.5624999999999961
 40
0.5624999999999961
 40
0.6249999999999964
 40
0.6249999999999964
 40
0.7499999999999973
 40
0.7499999999999973
 40
0.8124999999999979
 40
0.8124999999999979
 40
0.8437499999999981
 40
0.8437499999999981
 40
0.8749999999999983
 40
0.8749999999999983
 40
0.937499999999999
 40
0.937499999999999
 40
0.9687499999999996
 40
0.9687499999999996
 40
1.0
 40
1.0
 40
1.0
 40
1.0
 10
349.9885648239219
 20
195.9686796249911
 30
0.0
 10
349.6816014759698
 20
196.0155327146349
 30
0.0
 10
349.3754220559289
 20
196.0554683017674
 30
0.0
 10
348.7670435828048
 20
196.1246212269666
 30
0.0
 10
348.4653914131968
 20
196.1539005522486
 30
0.0
 10
347.5645852920045
 20
196.2298635150115
 30
0.0
 10
346.9694919604097
 20
196.2640154001625
 30
0.0
 10
345.1989553756724
 20
196.3286926724296
 30
0.0
 10
344.0383199621044
 20
196.3215710573091
 30
0.0
 10
341.7457248161275
 20
196.2672089373183
 30
0.0
 10
340.6136736266497
 20
196.2198493465262
 30
0.0
 10
339.2089108782899
 20
196.171633392501
 30
0.0
 10
338.9284786561429
 20
196.1625163886056
 30
0.0
 10
338.3684467644006
 20
196.1463023104895
 30
0.0
 10
338.0887204202027
 20
196.1391543432834
 30
0.0
 10
337.2477112037148
 20
196.1209680020903
 30
0.0
 10
336.6854081827211
 20
196.1128724916483
 30
0.0
 10
333.8672625949365
 20
196.0877717093471
 30
0.0
 10
331.5912970056499
 20
196.1171437402766
 30
0.0
 10
328.7395054190312
 20
196.139708882096
 30
0.0
 10
328.1686484481675
 20
196.1433603016295
 30
0.0
 10
327.0283995002675
 20
196.1481615333859
 30
0.0
 10
326.4587868140434
 20
196.1494719827828
 30
0.0
 10
324.7510829733217
 20
196.1509389104933
 30
0.0
 10
323.6141250426026
 20
196.14863017299
 30
0.0
 10
321.341087272432
 20
196.1417885305226
 30
0.0
 10
320.2050044711007
 20
196.1372531538608
 30
0.0
 10
317.9315974652044
 20
196.1303344660724
 30
0.0
 10
316.7940883834718
 20
196.1283109652375
 30
0.0
 10
313.3808117282827
 20
196.1254080908542
 30
0.0
 10
311.1043951754269
 20
196.1273579870534
 30
0.0
 10
307.6954411171311
 20
196.1278222724982
 30
0.0
 10
306.559801000322
 20
196.1274642504933
 30
0.0
 10
304.8564291428341
 20
196.126670720624
 30
0.0
 10
304.2886800579495
 20
196.1263665741355
 30
0.0
 10
303.1531981342573
 20
196.1257738271851
 30
0.0
 10
302.5857824360798
 20
196.1254869012655
 30
0.0
 10
300.8864625658517
 20
196.1245296490344
 30
0.0
 10
299.7567748657006
 20
196.123780260092
 30
0.0
 10
298.0674299032274
 20
196.1218863157491
 30
0.0
 10
297.5031060156321
 20
196.1212285586395
 30
0.0
 10
296.3689389973903
 20
196.1202822805437
 30
0.0
 10
295.7995454928304
 20
196.1199427780544
 30
0.0
 10
295.2277290205819
 20
196.1197463028547
 30
0.0
  0
SPLINE
  5
AE
330
1F
100
AcDbEntity
  8
0
  6
Continuous
 62
     7
370
    40
100
AcDbSpline
210
0.0
220
0.0
230
1.0
 70
     8
 71
     3
 72
    14
 73
    10
 74
     0
 42
0.00000001
 43
0.00000001
 12
1.0
 22
0.0
 32
0.0
 13
1.0
 23
0.0
 33
0.0
 40
0.0
 40
0.0
 40
0.0
 40
0.0
 40
0.1332175797069663
 40
0.2696346870636584
 40
0.4092597868503436
 40
0.552101030735173
 40
0.6981663308549605
 40
0.8474634343739339
 40
1.0
 40
1.0
 40
1.0
 40
1.0
 10
310.2994223281412
 20
195.0754302898971
 30
0.0
 10
310.2173363309592
 20
195.0684387018291
 30
0.0
 10
310.0511928519143
 20
195.0542876065687
 30
0.0
 10
309.7988306172158
 20
195.035127970436
 30
0.0
 10
309.5404274727302
 20
195.0171401266683
 30
0.0
 10
309.2759700379361
 20
195.0004922118727
 30
0.0
 10
309.0054646330677
 20
194.9851669467402
 30
0.0
 10
308.7289149002729
 20
194.9710432799087
 30
0.0
 10
308.5425200140245
 20
194.9628531645319
 30
0.0
 10
308.4483223193831
 20
194.9587141561992
 30
0.0
  0
SPLINE
  5
AF
330
1F
100
AcDbEntity
  8
0
  6
Continuous
 62
     7
370
    40
100
AcDbSpline
210
0.0
220
0.0
230
1.0
 70
     8
 71
     3
 72
     8
 73
     4
 74
     0
 42
0.00000001
 43
0.00000001
 12
1.0
 22
0.0
 32
0.0
 13
1.0
 23
0.0
 33
0.0
 40
0.0
 40
0.0
 40
0.0
 40
0.0
 40
1.0
 40
1.0
 40
1.0
 40
1.0
 10
318.4142278474829
 20
194.9587914010904
 30
0.0
 10
315.7092995830841
 20
194.9486396098176
 30
0.0
 10
313.0043721226255
 20
194.9375875899071
 30
0.0
 10
310.2994223281412
 20
194.9515445544717
 30
0.0
  0
SPLINE
  5
B0
330
1F
100
AcDbEntity
  8
0
  6
Continuous
 62
     7
370
    40
100
AcDbSpline
210
0.0
220
0.0
230
1.0
 70
     8
 71
     3
 72
    10
 73
     6
 74
     0
 42
0.00000001
 43
0.00000001
 12
1.0
 22
0.0
 32
0.0
 13
1.0
 23
0.0
 33
0.0
 40
0.0
 40
0.0
 40
0.0
 40
0.0
 40
0.5
 40
0.5
 40
1.0
 40
1.0
 40
1.0
 40
1.0
 10
338.4150141885819
 20
194.9588125269277
 30
0.0
 10
336.7484532076265
 20
194.9144161481998
 30
0.0
 10
335.0818921043175
 20
194.9084690053139
 30
0.0
 10
331.7487698092505
 20
194.9243694969686
 30
0.0
 10
330.0822086171411
 20
194.9463275603232
 30
0.0
 10
328.4156474552785
 20
194.9587807068088
 30
0.0
  0
SPLINE
  5
B1
330
1F
100
AcDbEntity
  8
0
  6
Continuous
 62
     7
370
    40
100
AcDbSpline
210
0.0
220
0.0
230
1.0
 70
     8
 71
     3
 72
    32
 73
    28
 74
     0
 42
0.00000001
 43
0.00000001
 12
1.0
 22
0.0
 32
0.0
 13
1.0
 23
0.0
 33
0.0
 40
0.0
 40
0.0
 40
0.0
 40
0.0
 40
0.1250000000000009
 40
0.1250000000000009
 40
0.1875000000000014
 40
0.1875000000000014
 40
0.2500000000000019
 40
0.2500000000000019
 40
0.3750000000000028
 40
0.3750000000000028
 40
0.4375000000000037
 40
0.4375000000000037
 40
0.5000000000000044
 40
0.5000000000000044
 40
0.6250000000000061
 40
0.6250000000000061
 40
0.6875000000000066
 40
0.6875000000000066
 40
0.750000000000007
 40
0.750000000000007
 40
0.875000000000008
 40
0.875000000000008
 40
0.906250000000006
 40
0.906250000000006
 40
0.937500000000004
 40
0.937500000000004
 40
1.0
 40
1.0
 40
1.0
 40
1.0
 10
356.9226686910473
 20
191.2143918641186
 30
0.0
 10
356.8803184582388
 20
191.2689948709698
 30
0.0
 10
356.7965018956957
 20
191.3554858506988
 30
0.0
 10
356.614957327293
 20
191.5248265574856
 30
0.0
 10
356.5450530725312
 20
191.5879181530756
 30
0.0
 10
356.3865998902581
 20
191.7263730762448
 30
0.0
 10
356.2975939555505
 20
191.802098335575
 30
0.0
 10
356.0086721564354
 20
192.0408464931861
 30
0.0
 10
355.7858903841368
 20
192.2165459113213
 30
0.0
 10
355.4078585167818
 20
192.4954953985658
 30
0.0
 10
355.2740861187302
 20
192.5912999841773
 30
0.0
 10
354.9957765837517
 20
192.7834796648723
 30
0.0
 10
354.8508127474711
 20
192.8801865631347
 30
0.0
 10
354.3982046670204
 20
193.1697593268421
 30
0.0
 10
354.073080720777
 20
193.3621422634241
 30
0.0
 10
353.5451643334181
 20
193.6396469936359
 30
0.0
 10
353.3643245048912
 20
193.7292594937648
 30
0.0
 10
352.9943967827782
 20
193.9002317542609
 30
0.0
 10
352.8050121317725
 20
193.981750656269
 30
0.0
 10
352.2227064817837
 20
194.2120561423245
 30
0.0
 10
351.8154153331495
 20
194.3456400547842
 30
0.0
 10
351.2809688169111
 20
194.4892380262554
 30
0.0
 10
351.172822144622
 20
194.5167803616529
 30
0.0
 10
350.9560755129378
 20
194.5690824195547
 30
0.0
 10
350.8472164331498
 20
194.5939139172135
 30
0.0
 10
350.5192119563518
 20
194.6646195406098
 30
0.0
 10
350.298642005046
 20
194.7067110400702
 30
0.0
 10
350.076217344344
 20
194.7441186461641
 30
0.0
  0
SPLINE
  5
B2
330
1F
100
AcDbEntity
  8
0
  6
Continuous
 62
     7
370
    40
100
AcDbSpline
210
0.0
220
0.0
230
1.0
 70
     8
 71
     3
 72
    15
 73
    11
 74
     0
 42
0.00000001
 43
0.00000001
 12
1.0
 22
0.0
 32
0.0
 13
1.0
 23
0.0
 33
0.0
 40
0.0
 40
0.0
 40
0.0
 40
0.0
 40
0.0376946921942714
 40
0.1744058357151169
 40
0.3114005160154992
 40
0.4483956674962128
 40
0.5861826898609064
 40
0.723970661670095
 40
0.8619847426801097
 40
1.0
 40
1.0
 40
1.0
 40
1.0
 10
358.4086137785796
 20
189.1669870715321
 30
0.0
 10
358.4102604749019
 20
189.1645916584208
 30
0.0
 10
358.4178794109256
 20
189.1535085588852
 30
0.0
 10
358.3751965042877
 20
189.2156443847302
 30
0.0
 10
358.2788523877042
 20
189.3556546444334
 30
0.0
 10
358.1216488878331
 20
189.5818480202279
 30
0.0
 10
357.9093001326174
 20
189.8839472522627
 30
0.0
 10
357.6387948512396
 20
190.2607414491
 30
0.0
 10
357.3161583304827
 20
190.7011082140375
 30
0.0
 10
357.0538322769314
 20
191.0432968279294
 30
0.0
 10
356.9226686911993
 20
191.2143918640005
 30
0.0
  0
SPLINE
  5
B3
330
1F
100
AcDbEntity
  8
0
  6
Continuous
 62
     7
370
    40
100
AcDbSpline
210
0.0
220
0.0
230
1.0
 70
     8
 71
     3
 72
    32
 73
    28
 74
     0
 42
0.00000001
 43
0.00000001
 12
1.0
 22
0.0
 32
0.0
 13
1.0
 23
0.0
 33
0.0
 40
0.0
 40
0.0
 40
0.0
 40
0.0
 40
0.0177585115556137
 40
0.0355798240946647
 40
0.0534622523820615
 40
0.0714040684374185
 40
0.0894035022914251
 40
0.1074587428099998
 40
0.1255679385860354
 40
0.187277949301379
 40
0.2511854211738008
 40
0.3804843896657949
 40
0.5003481358343623
 40
0.5354857596850388
 40
0.5707799324614163
 40
0.6062138772130116
 40
0.6417702915234743
 40
0.6774313990699056
 40
0.7131790045554912
 40
0.7489945516496139
 40
0.7848591835269395
 40
0.8207538055595643
 40
0.8566591496847288
 40
0.8925558399458668
 40
0.928424458687311
 40
0.9642456128732697
 40
1.0
 40
1.0
 40
1.0
 40
1.0
 10
295.2277262598428
 20
196.1197090117028
 30
0.0
 10
295.1919628810412
 20
196.1196440322507
 30
0.0
 10
295.1203096502619
 20
196.1195138435539
 30
0.0
 10
295.0132354102751
 20
196.1186936907186
 30
0.0
 10
294.906263531439
 20
196.1174212279074
 30
0.0
 10
294.7994761208566
 20
196.1156542768936
 30
0.0
 10
294.6929045184622
 20
196.1134122334847
 30
0.0
 10
294.5865925295005
 20
196.1106869027514
 30
0.0
 10
294.3956114439648
 20
196.1049839371834
 30
0.0
 10
294.1188416742655
 20
196.0933367403652
 30
0.0
 10
293.6399490568418
 20
196.0638518025233
 30
0.0
 10
293.0767445637854
 20
196.0114484162882
 30
0.0
 10
292.6014954371645
 20
195.945500058159
 30
0.0
 10
292.3009942263193
 20
195.8941315948804
 30
0.0
 10
292.1383716651502
 20
195.8638220884025
 30
0.0
 10
291.979879720793
 20
195.831737274896
 30
0.0
 10
291.825806712032
 20
195.797966794945
 30
0.0
 10
291.6764375849716
 20
195.7626047044805
 30
0.0
 10
291.5320446632431
 20
195.7257494414493
 30
0.0
 10
291.3928877002446
 20
195.6875032855591
 30
0.0
 10
291.259213062459
 20
195.6479717578094
 30
0.0
 10
291.1312474808615
 20
195.6072635362314
 30
0.0
 10
291.0092150037119
 20
195.5654881593019
 30
0.0
 10
290.8932672232771
 20
195.5227618944606
 30
0.0
 10
290.7837378471577
 20
195.4791830377681
 30
0.0
 10
290.6801889088098
 20
195.434921095539
 30
0.0
 10
290.6166312323821
 20
195.4048614796137
 30
0.0
 10
290.5848820380876
 20
195.3898456917487
 30
0.0
  0
LINE
  5
B4
330
1F
100
AcDbEntity
  8
0
  6
Continuous
 62
     7
370
    40
100
AcDbLine
 10
290.5848820368
 20
195.3898456909
 30
0.0
 11
290.1895974973
 21
195.1952151623
 31
0.0
  0
SPLINE
  5
B5
330
1F
100
AcDbEntity
  8
0
  6
Continuous
 62
     7
370
    40
100
AcDbSpline
210
0.0
220
0.0
230
1.0
 70
     8
 71
     3
 72
    14
 73
    10
 74
     0
 42
0.00000001
 43
0.00000001
 12
1.0
 22
0.0
 32
0.0
 13
1.0
 23
0.0
 33
0.0
 40
0.0
 40
0.0
 40
0.0
 40
0.0
 40
0.1195711052024919
 40
0.2662485838645126
 40
0.4124234176241156
 40
0.5587545155745005
 40
0.7057122015524636
 40
0.850946360292215
 40
1.0
 40
1.0
 40
1.0
 40
1.0
 10
358.4071019444951
 20
190.7725727477932
 30
0.0
 10
358.4058893196657
 20
190.7742993324208
 30
0.0
 10
358.403189171975
 20
190.7781439126918
 30
0.0
 10
358.3180481379366
 20
190.8977371979814
 30
0.0
 10
358.1719217648463
 20
191.1010221045661
 30
0.0
 10
357.9603680711739
 20
191.390704134796
 30
0.0
 10
357.6854940296865
 20
191.7579334867134
 30
0.0
 10
357.3502779324693
 20
192.194762216897
 30
0.0
 10
357.0733069451571
 20
192.5378043330313
 30
0.0
 10
356.9330240860983
 20
192.7115515160699
 30
0.0
  0
SPLINE
  5
B6
330
1F
100
AcDbEntity
  8
0
  6
Continuous
 62
     7
370
    40
100
AcDbSpline
210
0.0
220
0.0
230
1.0
 70
     8
 71
     3
 72
    38
 73
    34
 74
     0
 42
0.00000001
 43
0.00000001
 12
1.0
 22
0.0
 32
0.0
 13
1.0
 23
0.0
 33
0.0
 40
0.0
 40
0.0
 40
0.0
 40
0.0
 40
0.0101694865385062
 40
0.0203930076211962
 40
0.03067130443172
 40
0.0410050830867681
 40
0.0513950145191996
 40
0.06184173437608
 40
0.0723458429366461
 40
0.0829079050528728
 40
0.0935284501154826
 40
0.1042079720485353
 40
0.114946929335867
 40
0.1257457450828537
 40
0.186209285535876
 40
0.2505617776894464
 40
0.2810742673161227
 40
0.3130440723614221
 40
0.3757860642980174
 40
0.4380543850286647
 40
0.5002766613319407
 40
0.5629018675838005
 40
0.6255009013857572
 40
0.6910195690838735
 40
0.7501098991106598
 40
0.8130204163703063
 40
0.8751984108080213
 40
0.895963496867653
 40
0.9167597861016775
 40
0.9375745732595113
 40
0.9583949349439697
 40
0.9792077965632386
 40
1.0
 40
1.0
 40
1.0
 40
1.0
 10
356.9330240371564
 20
192.7115515160699
 30
0.0
 10
356.9294675141949
 20
192.7158236579571
 30
0.0
 10
356.9223355710448
 20
192.7243906413279
 30
0.0
 10
356.909479198802
 20
192.7388434660737
 30
0.0
 10
356.8949859650918
 20
192.7545090433775
 30
0.0
 10
356.8786826717829
 20
192.7715020223385
 30
0.0
 10
356.8605924447924
 20
192.7897916383593
 30
0.0
 10
356.8406865141891
 20
192.8093862842039
 30
0.0
 10
356.8189513089192
 20
192.8302836504812
 30
0.0
 10
356.7953704048949
 20
192.8524841674222
 30
0.0
 10
356.7699293761959
 20
192.8759874343797
 30
0.0
 10
356.7426148261941
 20
192.9007929174529
 30
0.0
 10
356.713413607703
 20
192.9269007291635
 30
0.0
 10
356.6347038617909
 20
192.9962720395706
 30
0.0
 10
356.4806686031562
 20
193.1268170170864
 30
0.0
 10
356.2596678081936
 20
193.3020158992482
 30
0.0
 10
356.0538766595192
 20
193.4578643889575
 30
0.0
 10
355.8347614912561
 20
193.6187574501459
 30
0.0
 10
355.5308887193386
 20
193.8318551551193
 30
0.0
 10
355.1259514327535
 20
194.0968185891054
 30
0.0
 10
354.681530774305
 20
194.3658987701543
 30
0.0
 10
354.1985486935085
 20
194.6330916032863
 30
0.0
 10
353.6705807166392
 20
194.8961345390728
 30
0.0
 10
353.1175129919001
 20
195.1380871145406
 30
0.0
 10
352.5325701931317
 20
195.3590442856605
 30
0.0
 10
351.9312164043877
 20
195.5501896316887
 30
0.0
 10
351.4376840184491
 20
195.6811161171422
 30
0.0
 10
351.0808585051537
 20
195.7641239150105
 30
0.0
 10
350.8647239485148
 20
195.8110373518418
 30
0.0
 10
350.6470725684415
 20
195.8550224504407
 30
0.0
 10
350.4282646241635
 20
195.8959949001875
 30
0.0
 10
350.2087144812325
 20
195.934209722177
 30
0.0
 10
350.0619237834263
 20
195.9571930517502
 30
0.0
 10
349.9885648775501
 20
195.9686790105751
 30
0.0
  0
LINE
  5
B7
330
1F
100
AcDbEntity
  8
0
  6
Continuous
 62
     7
370
    40
100
AcDbLine
 10
310.2994223281
 20
195.0754302899
 30
0.0
 11
310.2994223281
 21
195.0364396413
 31
0.0
  0
ARC
  5
B8
330
1F
100
AcDbEntity
  8
0
  6
Continuous
 62
     7
370
    40
100
AcDbCircle
 10
325.3872540496
 20
192.7113696429
 30
0.0
 40
2.000000000000024
100
AcDbArc
 50
285.7570898053
 51
0.0
  0
ARC
  5
B9
330
1F
100
AcDbEntity
  8
0
  6
Continuous
 62
     7
370
    40
100
AcDbCircle
 10
282.4808463462
 20
344.7739889087
 30
0.0
 40
160.0000000000001
100
AcDbArc
 50
270.6306446184
 51
285.7570898053
  0
LINE
  5
BA
330
1F
100
AcDbEntity
  8
0
  6
Continuous
 62
     7
370
    40
100
AcDbLine
 10
327.3872540496
 20
194.4050644899
 30
0.0
 11
284.6787566718
 21
194.4050644899
 31
0.0
  0
LINE
  5
BB
330
1F
100
AcDbEntity
  8
0
  6
Continuous
 62
     7
370
    40
100
AcDbLine
 10
327.3872540496
 20
192.7113696429
 30
0.0
 11
327.3872540496
 21
194.4050644899
 31
0.0
  0
LINE
  5
BC
330
1F
100
AcDbEntity
  8
0
  6
Continuous
 62
     7
370
    40
100
AcDbLine
 10
284.1872540496
 20
195.0382665876
 30
0.0
 11
284.1872540496
 21
195.1952151623
 31
0.0
  0
LINE
  5
BD
330
1F
100
AcDbEntity
  8
0
  6
Continuous
 62
     7
370
    40
100
AcDbLine
 10
284.1872540496
 20
195.1952151623
 30
0.0
 11
310.422524599
 21
195.1952151623
 31
0.0
  0
LINE
  5
BE
330
1F
100
AcDbEntity
  8
0
  6
Continuous
 62
     7
370
    40
100
AcDbLine
 10
315.8678284189
 20
195.1952151623
 30
0.0
 11
327.3872540496
 21
195.1952151623
 31
0.0
  0
LINE
  5
BF
330
1F
100
AcDbEntity
  8
0
  6
Continuous
 62
     7
370
    40
100
AcDbLine
 10
327.3872540496
 20
195.1952151623
 30
0.0
 11
327.3872540496
 21
194.4050644899
 31
0.0
  0
LINE
  5
C0
330
1F
100
AcDbEntity
  8
0
  6
Continuous
 62
     7
370
    40
100
AcDbLine
 10
284.4872540496
 20
171.2050644899
 30
0.0
 11
284.4872540496
 21
179.0050644899
 31
0.0
  0
ARC
  5
C1
330
1F
100
AcDbEntity
  8
0
  6
Continuous
 62
     7
370
    40
100
AcDbCircle
 10
284.0872540496
 20
179.0050644899
 30
0.0
 40
0.4000000000000057
100
AcDbArc
 50
0.0
 51
90.0
  0
LINE
  5
C2
330
1F
100
AcDbEntity
  8
0
  6
Continuous
 62
     7
370
    40
100
AcDbLine
 10
284.0872540496
 20
179.4050644899
 30
0.0
 11
274.6872540496
 21
179.4050644899
 31
0.0
  0
ARC
  5
C3
330
1F
100
AcDbEntity
  8
0
  6
Continuous
 62
     7
370
    40
100
AcDbCircle
 10
274.6872540496
 20
179.0050644899
 30
0.0
 40
0.4000000000000341
100
AcDbArc
 50
90.0
 51
180.0
  0
LINE
  5
C4
330
1F
100
AcDbEntity
  8
0
  6
Continuous
 62
     7
370
    40
100
AcDbLine
 10
274.2872540496
 20
179.0050644899
 30
0.0
 11
274.2872540496
 21
171.2050644899
 31
0.0
  0
LINE
  5
C5
330
1F
100
AcDbEntity
  8
0
  6
Continuous
 62
     7
370
    40
100
AcDbLine
 10
273.4872540496
 20
176.2050644899
 30
0.0
 11
273.4872540496
 21
171.2050644899
 31
0.0
  0
LINE
  5
C6
330
1F
100
AcDbEntity
  8
0
  6
Continuous
 62
     7
370
    40
100
AcDbLine
 10
273.4872540496
 20
176.2050644899
 30
0.0
 11
271.5393523488
 21
176.2050644899
 31
0.0
  0
ARC
  5
C7
330
1F
100
AcDbEntity
  8
0
  6
Continuous
 62
     7
370
    40
100
AcDbCircle
 10
295.0963449587
 20
182.2050644899
 30
0.0
 40
24.30909090909085
100
AcDbArc
 50
151.3013359141
 51
194.2894890274
  0
ARC
  5
C8
330
1F
100
AcDbEntity
  8
0
  6
Continuous
 62
     7
370
    40
100
AcDbCircle
 10
279.3872540496
 20
190.8050644899
 30
0.0
 40
6.399999999999999
100
AcDbArc
 50
334.4805415091
 51
151.3013359141
  0
ARC
  5
C9
330
1F
100
AcDbEntity
  8
0
  6
Continuous
 62
     7
370
    40
100
AcDbCircle
 10
294.1872540496
 20
183.7396557968
 30
0.0
 40
10.0
100
AcDbArc
 50
154.4805415091
 51
180.0
  0
LINE
  5
CA
330
1F
100
AcDbEntity
  8
0
  6
Continuous
 62
     7
370
    40
100
AcDbLine
 10
284.1872540496
 20
183.7396557968
 30
0.0
 11
284.1872540496
 21
180.2050644899
 31
0.0
  0
LINE
  5
CB
330
1F
100
AcDbEntity
  8
0
  6
Continuous
 62
     7
370
    40
100
AcDbLine
 10
284.2872540496
 20
180.2050644899
 30
0.0
 11
284.1872540496
 21
180.2050644899
 31
0.0
  0
ARC
  5
CC
330
1F
100
AcDbEntity
  8
0
  6
Continuous
 62
     7
370
    40
100
AcDbCircle
 10
284.2872540496
 20
179.2050644899
 30
0.0
 40
1.0
100
AcDbArc
 50
0.0
 51
90.0
  0
LINE
  5
CD
330
1F
100
AcDbEntity
  8
0
  6
Continuous
 62
     7
370
    40
100
AcDbLine
 10
285.2872540496
 20
171.2050644899
 30
0.0
 11
285.2872540496
 21
179.2050644899
 31
0.0
  0
LINE
  5
CE
330
1F
100
AcDbEntity
  8
0
  6
Continuous
 62
     7
370
    40
100
AcDbLine
 10
274.2872540496
 20
171.2050644899
 30
0.0
 11
274.2872540496
 21
169.2050644899
 31
0.0
  0
LINE
  5
CF
330
1F
100
AcDbEntity
  8
0
  6
Continuous
 62
     7
370
    40
100
AcDbLine
 10
274.2872540496
 20
169.2050644899
 30
0.0
 11
273.4872540496
 21
169.2050644899
 31
0.0
  0
LINE
  5
D0
330
1F
100
AcDbEntity
  8
0
  6
Continuous
 62
     7
370
    40
100
AcDbLine
 10
273.4872540496
 20
169.2050644899
 30
0.0
 11
273.4872540496
 21
171.2050644899
 31
0.0
  0
LINE
  5
D1
330
1F
100
AcDbEntity
  8
0
  6
Continuous
 62
     7
370
    40
100
AcDbLine
 10
285.2872540496
 20
171.2050644899
 30
0.0
 11
285.2872540496
 21
169.2050644899
 31
0.0
  0
LINE
  5
D2
330
1F
100
AcDbEntity
  8
0
  6
Continuous
 62
     7
370
    40
100
AcDbLine
 10
285.2872540496
 20
169.2050644899
 30
0.0
 11
284.4872540496
 21
169.2050644899
 31
0.0
  0
LINE
  5
D3
330
1F
100
AcDbEntity
  8
0
  6
Continuous
 62
     7
370
    40
100
AcDbLine
 10
284.4872540496
 20
169.2050644899
 30
0.0
 11
284.4872540496
 21
171.2050644899
 31
0.0
  0
SPLINE
  5
D4
330
1F
100
AcDbEntity
  8
0
  6
Continuous
 62
     7
370
    40
100
AcDbSpline
210
0.0
220
0.0
230
1.0
 70
     8
 71
     3
 72
    32
 73
    28
 74
     0
 42
0.00000001
 43
0.00000001
 12
1.0
 22
0.0
 32
0.0
 13
1.0
 23
0.0
 33
0.0
 40
0.0
 40
0.0
 40
0.0
 40
0.0
 40
0.0141667386645744
 40
0.0969384921617884
 40
0.1721044030519678
 40
0.2395646084644734
 40
0.2909421220670266
 40
0.3366875785184592
 40
0.3773466060629834
 40
0.4166828868686744
 40
0.4554816030280472
 40
0.4938034224001611
 40
0.5317043634120524
 40
0.569236104060882
 40
0.6187857317978992
 40
0.6683642834104333
 40
0.7184734502964789
 40
0.7333828490377273
 40
0.7484706370706424
 40
0.7667172290517682
 40
0.7888176789197536
 40
0.8148923049300507
 40
0.8453565358767261
 40
0.8807467268181404
 40
0.9215085733850447
 40
0.9677548859291497
 40
1.0
 40
1.0
 40
1.0
 40
1.0
 10
390.7027081923403
 20
238.4934659757113
 30
0.0
 10
390.6895619956984
 20
238.6467081291996
 30
0.0
 10
390.5996067483895
 20
239.6952955032243
 30
0.0
 10
390.4623918274206
 20
241.5588316684595
 30
0.0
 10
390.3043021819834
 20
244.0008194573312
 30
0.0
 10
390.1845281958654
 20
246.103679149643
 30
0.0
 10
390.0904446843155
 20
247.8880409839737
 30
0.0
 10
390.0153610110039
 20
249.3820220962819
 30
0.0
 10
389.9487165663276
 20
250.7455311523569
 30
0.0
 10
389.8857211207251
 20
252.0337093900226
 30
0.0
 10
389.8220298506922
 20
253.2964488180937
 30
0.0
 10
389.755474590124
 20
254.5434349201555
 30
0.0
 10
389.6845165088063
 20
255.7764104532929
 30
0.0
 10
389.598891224589
 20
257.1305932037886
 30
0.0
 10
389.4953273865963
 20
258.610784130202
 30
0.0
 10
389.3593711771209
 20
260.2249892491259
 30
0.0
 10
389.2576660823746
 20
261.4659434007274
 30
0.0
 10
389.2483764718924
 20
262.3358500485774
 30
0.0
 10
389.2650857272237
 20
262.8595297654798
 30
0.0
 10
389.3198734884949
 20
263.4594192202156
 30
0.0
 10
389.4535208863673
 20
264.1696563138573
 30
0.0
 10
389.716842631267
 20
264.9843203358908
 30
0.0
 10
390.1403318654035
 20
265.8907180319046
 30
0.0
 10
390.7478178155929
 20
266.8785101153132
 30
0.0
 10
391.5461909188855
 20
267.9424423683307
 30
0.0
 10
392.3864562481636
 20
268.9279924728624
 30
0.0
 10
392.954565889618
 20
269.5631401834116
 30
0.0
 10
393.1879513813012
 20
269.8240656279059
 30
0.0
  0
LINE
  5
D5
330
1F
100
AcDbEntity
  8
0
  6
Continuous
 62
     7
370
    40
100
AcDbLine
 10
393.1852921121
 20
269.8320303785
 30
0.0
 11
391.5796744497
 21
269.8320303785
 31
0.0
  0
SPLINE
  5
D6
330
1F
100
AcDbEntity
  8
0
  6
Continuous
 62
     7
370
    40
100
AcDbSpline
210
0.0
220
0.0
230
1.0
 70
     8
 71
     3
 72
    12
 73
     8
 74
     0
 42
0.00000001
 43
0.00000001
 12
1.0
 22
0.0
 32
0.0
 13
1.0
 23
0.0
 33
0.0
 40
0.0
 40
0.0
 40
0.0
 40
0.0
 40
0.1040730784420033
 40
0.2083942392221269
 40
0.4058881035211866
 40
0.6034477086272172
 40
1.0
 40
1.0
 40
1.0
 40
1.0
 10
387.6081307444584
 20
261.4940274010283
 30
0.0
 10
387.5484100328341
 20
261.0930893247915
 30
0.0
 10
387.4288262514079
 20
260.2902574433546
 30
0.0
 10
387.2913918734439
 20
258.7149506878897
 30
0.0
 10
387.2119609362263
 20
256.7709406566196
 30
0.0
 10
387.2454009397956
 20
253.687828837321
 30
0.0
 10
387.3341780701414
 20
251.3759416258919
 30
0.0
 10
387.3934342046655
 20
249.8328246196154
 30
0.0
  0
SPLINE
  5
D7
330
1F
100
AcDbEntity
  8
0
  6
Continuous
 62
     7
370
    40
100
AcDbSpline
210
0.0
220
0.0
230
1.0
 70
     8
 71
     3
 72
    14
 73
    10
 74
     0
 42
0.00000001
 43
0.00000001
 12
1.0
 22
0.0
 32
0.0
 13
1.0
 23
0.0
 33
0.0
 40
0.0
 40
0.0
 40
0.0
 40
0.0
 40
0.1363123558817934
 40
0.2835778632481865
 40
0.4234689050174666
 40
0.5714231312309558
 40
0.7142806145279648
 40
0.8655098524479785
 40
1.0
 40
1.0
 40
1.0
 40
1.0
 10
387.3934295926439
 20
249.8328244954401
 30
0.0
 10
387.4014933071213
 20
249.3785325126587
 30
0.0
 10
387.4182686823728
 20
248.433444674256
 30
0.0
 10
387.4218699958744
 20
247.021894299877
 30
0.0
 10
387.4163459932405
 20
245.5715912393082
 30
0.0
 10
387.4054984227994
 20
244.1360055551823
 30
0.0
 10
387.3943576252532
 20
242.6626351172437
 30
0.0
 10
387.3877705701644
 20
241.2340989543826
 30
0.0
 10
387.3916443900684
 20
240.2817400135559
 30
0.0
 10
387.3934678246584
 20
239.833457884352
 30
0.0
  0
SPLINE
  5
D8
330
1F
100
AcDbEntity
  8
0
  6
Continuous
 62
     7
370
    40
100
AcDbSpline
210
0.0
220
0.0
230
1.0
 70
     8
 71
     3
 72
     9
 73
     5
 74
     0
 42
0.00000001
 43
0.00000001
 12
1.0
 22
0.0
 32
0.0
 13
1.0
 23
0.0
 33
0.0
 40
0.0
 40
0.0
 40
0.0
 40
0.0
 40
0.2430277457223852
 40
1.0
 40
1.0
 40
1.0
 40
1.0
 10
387.3934664041395
 20
239.8334578963697
 30
0.0
 10
387.3893323811997
 20
239.0232594349135
 30
0.0
 10
387.3723218833754
 20
235.6894900373168
 30
0.0
 10
387.384338077957
 20
232.3556574267629
 30
0.0
 10
387.3934340038572
 20
229.8320386401678
 30
0.0
  0
SPLINE
  5
D9
330
1F
100
AcDbEntity
  8
0
  6
Continuous
 62
     7
370
    40
100
AcDbSpline
210
0.0
220
0.0
230
1.0
 70
     8
 71
     3
 72
    12
 73
     8
 74
     0
 42
0.00000001
 43
0.00000001
 12
1.0
 22
0.0
 32
0.0
 13
1.0
 23
0.0
 33
0.0
 40
0.0
 40
0.0
 40
0.0
 40
0.0
 40
0.1876186936952552
 40
0.4019852923601763
 40
0.6061826128837746
 40
0.8022270275604121
 40
1.0
 40
1.0
 40
1.0
 40
1.0
 10
387.3934506577411
 20
229.8320379155678
 30
0.0
 10
387.3704421537777
 20
229.3246214910803
 30
0.0
 10
387.3211449328541
 20
228.2374486954034
 30
0.0
 10
387.2322836354779
 20
226.5986577851414
 30
0.0
 10
387.176036590728
 20
224.9357065371849
 30
0.0
 10
387.1689383384195
 20
223.3156938083563
 30
0.0
 10
387.2407522574044
 20
222.251609953694
 30
0.0
 10
387.2768168210445
 20
221.7172327683631
 30
0.0
  0
SPLINE
  5
DA
330
1F
100
AcDbEntity
  8
0
  6
Continuous
 62
     7
370
    40
100
AcDbSpline
210
0.0
220
0.0
230
1.0
 70
     8
 71
     3
 72
    24
 73
    20
 74
     0
 42
0.00000001
 43
0.00000001
 12
1.0
 22
0.0
 32
0.0
 13
1.0
 23
0.0
 33
0.0
 40
0.0
 40
0.0
 40
0.0
 40
0.0
 40
0.0515465301190131
 40
0.1018714901774702
 40
0.1517523141950492
 40
0.2015181559477928
 40
0.2511731375322936
 40
0.3339091202349911
 40
0.4166699097492493
 40
0.4993482403163026
 40
0.5821144181003528
 40
0.665052216083424
 40
0.747487986271168
 40
0.7883531110776716
 40
0.829260164073429
 40
0.8706615531381471
 40
0.9127324635448891
 40
0.9557021048369285
 40
1.0
 40
1.0
 40
1.0
 40
1.0
 10
386.2325008080869
 20
206.6455394608039
 30
0.0
 10
386.2319143634937
 20
207.5510397402471
 30
0.0
 10
386.2307553721033
 20
209.3405813953306
 30
0.0
 10
386.2276147262336
 20
212.0649662518048
 30
0.0
 10
386.2264181480332
 20
214.7947439506797
 30
0.0
 10
386.2248476198199
 20
217.5200839647792
 30
0.0
 10
386.2241752712287
 20
220.8546177079747
 30
0.0
 10
386.226641560585
 20
224.7992451971524
 30
0.0
 10
386.224151321591
 20
229.3475486840476
 30
0.0
 10
386.205650665292
 20
233.8970772123765
 30
0.0
 10
386.1954360964645
 20
238.4495472591364
 30
0.0
 10
386.2392281738712
 20
242.9974145832118
 30
0.0
 10
386.2623698515849
 20
246.7776987019988
 30
0.0
 10
386.2133427486672
 20
249.7873211352777
 30
0.0
 10
386.1299152497212
 20
252.0434598350875
 30
0.0
 10
386.0476654219989
 20
254.3219026484529
 30
0.0
 10
386.0240806977414
 20
256.639328493634
 30
0.0
 10
386.0929870179314
 20
259.0114501650971
 30
0.0
 10
386.2857294524305
 20
260.60000736297
 30
0.0
 10
386.3835674859506
 20
261.4063752641437
 30
0.0
  0
SPLINE
  5
DB
330
1F
100
AcDbEntity
  8
0
  6
Continuous
 62
     7
370
    40
100
AcDbSpline
210
0.0
220
0.0
230
1.0
 70
     8
 71
     3
 72
     9
 73
     5
 74
     0
 42
0.00000001
 43
0.00000001
 12
1.0
 22
0.0
 32
0.0
 13
1.0
 23
0.0
 33
0.0
 40
0.0
 40
0.0
 40
0.0
 40
0.0
 40
0.4802767207207219
 40
1.0
 40
1.0
 40
1.0
 40
1.0
 10
387.2768168210445
 20
221.7172327683631
 30
0.0
 10
387.3005276057593
 20
221.4211516918361
 30
0.0
 10
387.3498966126085
 20
220.8046715174843
 30
0.0
 10
387.3786099597875
 20
220.1870993774271
 30
0.0
 10
387.3935329547424
 20
219.8661327596051
 30
0.0
  0
LINE
  5
DC
330
1F
100
AcDbEntity
  8
0
  6
Continuous
 62
     7
370
    40
100
AcDbLine
 10
387.3934557099
 20
229.8320382877
 30
0.0
 11
387.4007025565
 21
221.7172327684
 31
0.0
  0
SPLINE
  5
DD
330
1F
100
AcDbEntity
  8
0
  6
Continuous
 62
     7
370
    40
100
AcDbSpline
210
0.0
220
0.0
230
1.0
 70
     8
 71
     3
 72
     9
 73
     5
 74
     0
 42
0.00000001
 43
0.00000001
 12
1.0
 22
0.0
 32
0.0
 13
1.0
 23
0.0
 33
0.0
 40
0.0
 40
0.0
 40
0.0
 40
0.0
 40
0.4998871088558516
 40
1.0
 40
1.0
 40
1.0
 40
1.0
 10
387.3934345840139
 20
249.8328246288038
 30
0.0
 10
387.4146280734477
 20
248.1666398945493
 30
0.0
 10
387.4570246247056
 20
244.8335178661216
 30
0.0
 10
387.4146556663772
 20
241.5003954057129
 30
0.0
 10
387.3934664041328
 20
239.8334578955003
 30
0.0
  0
SPLINE
  5
DE
330
1F
100
AcDbEntity
  8
0
  6
Continuous
 62
     7
370
    40
100
AcDbSpline
210
0.0
220
0.0
230
1.0
 70
     8
 71
     3
 72
    17
 73
    13
 74
     0
 42
0.00000001
 43
0.00000001
 12
1.0
 22
0.0
 32
0.0
 13
1.0
 23
0.0
 33
0.0
 40
0.0
 40
0.0
 40
0.0
 40
0.0
 40
0.1063833624200986
 40
0.2170761504153678
 40
0.3092444268375692
 40
0.4032537991720372
 40
0.5148600922365546
 40
0.6289956204103758
 40
0.7541968601946516
 40
0.8191936688834203
 40
0.8841872879568312
 40
1.0
 40
1.0
 40
1.0
 40
1.0
 10
391.1378552468231
 20
268.3404791312691
 30
0.0
 10
391.078034807459
 20
268.2870887574744
 30
0.0
 10
390.9559706951966
 20
268.178145248368
 30
0.0
 10
390.6241843799496
 20
267.8079549988333
 30
0.0
 10
390.2373509124524
 20
267.3362975814217
 30
0.0
 10
389.7990813810326
 20
266.7556072687017
 30
0.0
 10
389.3011417810369
 20
266.0217619988489
 30
0.0
 10
388.762264316165
 20
265.0945516285885
 30
0.0
 10
388.3397288533617
 20
264.1847797408734
 30
0.0
 10
388.0488187378005
 20
263.3611235739798
 30
0.0
 10
387.8073641750061
 20
262.5357026852
 30
0.0
 10
387.6859185745817
 20
261.9007420468217
 30
0.0
 10
387.6081284647776
 20
261.494027784566
 30
0.0
  0
SPLINE
  5
DF
330
1F
100
AcDbEntity
  8
0
  6
Continuous
 62
     7
370
    40
100
AcDbSpline
210
0.0
220
0.0
230
1.0
 70
     8
 71
     3
 72
    15
 73
    11
 74
     0
 42
0.00000001
 43
0.00000001
 12
1.0
 22
0.0
 32
0.0
 13
1.0
 23
0.0
 33
0.0
 40
0.0
 40
0.0
 40
0.0
 40
0.0
 40
0.0376943257968457
 40
0.1745946580243809
 40
0.3115663480941729
 40
0.4489225591364666
 40
0.5863455298978427
 40
0.7241390278785831
 40
0.8619890304851633
 40
1.0
 40
1.0
 40
1.0
 40
1.0
 10
393.1852920619834
 20
269.8264287374506
 30
0.0
 10
393.1876925482799
 20
269.8280759227148
 30
0.0
 10
393.1988112531552
 20
269.835705446306
 30
0.0
 10
393.1364762963141
 20
269.7929503340969
 30
0.0
 10
392.9963427101408
 20
269.6964244717278
 30
0.0
 10
392.7697885859644
 20
269.5390713700144
 30
0.0
 10
392.4676929414857
 20
269.3265921636755
 30
0.0
 10
392.0911084501542
 20
269.0563506959543
 30
0.0
 10
391.6509994702163
 20
268.7338094271875
 30
0.0
 10
391.3089698469673
 20
268.4716402225637
 30
0.0
 10
391.1378552469411
 20
268.3404791314213
 30
0.0
  0
SPLINE
  5
E0
330
1F
100
AcDbEntity
  8
0
  6
Continuous
 62
     7
370
    40
100
AcDbSpline
210
0.0
220
0.0
230
1.0
 70
     8
 71
     3
 72
    15
 73
    11
 74
     0
 42
0.00000001
 43
0.00000001
 12
1.0
 22
0.0
 32
0.0
 13
1.0
 23
0.0
 33
0.0
 40
0.0
 40
0.0
 40
0.0
 40
0.0
 40
0.125550950195538
 40
0.2511646995322281
 40
0.3805073725214486
 40
0.5004116339765896
 40
0.6240272877612776
 40
0.7490281250406129
 40
0.8746265921361044
 40
1.0
 40
1.0
 40
1.0
 40
1.0
 10
386.2325380992388
 20
206.6455367000647
 30
0.0
 10
386.2348989360894
 20
206.3945051846518
 30
0.0
 10
386.239621790654
 20
205.8923165907493
 30
0.0
 10
386.2782771051283
 20
205.1688789181898
 30
0.0
 10
386.3407494178806
 20
204.4944631693326
 30
0.0
 10
386.4272698202828
 20
203.8716510706645
 30
0.0
 10
386.5347042910091
 20
203.3085178509525
 30
0.0
 10
386.6627275361469
 20
202.8003398722854
 30
0.0
 10
386.8058744883746
 20
202.353414285641
 30
0.0
 10
386.9102569772805
 20
202.1195298353968
 30
0.0
 10
386.9624014191929
 20
202.0026924783095
 30
0.0
  0
LINE
  5
E1
330
1F
100
AcDbEntity
  8
0
  6
Continuous
 62
     7
370
    40
100
AcDbLine
 10
386.9624014201
 20
202.002692477
 30
0.0
 11
387.1570319486
 21
201.6074079376
 31
0.0
  0
SPLINE
  5
E2
330
1F
100
AcDbEntity
  8
0
  6
Continuous
 62
     7
370
    40
100
AcDbSpline
210
0.0
220
0.0
230
1.0
 70
     8
 71
     3
 72
    14
 73
    10
 74
     0
 42
0.00000001
 43
0.00000001
 12
1.0
 22
0.0
 32
0.0
 13
1.0
 23
0.0
 33
0.0
 40
0.0
 40
0.0
 40
0.0
 40
0.0
 40
0.1195711052023838
 40
0.2662485838644224
 40
0.4124234176240434
 40
0.5587545155744463
 40
0.7057122015524275
 40
0.8509463602921968
 40
1.0
 40
1.0
 40
1.0
 40
1.0
 10
391.5796743631485
 20
269.824912384717
 30
0.0
 10
391.5779477785208
 20
269.8236997598876
 30
0.0
 10
391.5741031982498
 20
269.8209996121969
 30
0.0
 10
391.4545099129602
 20
269.7358585781586
 30
0.0
 10
391.2512250063755
 20
269.5897322050684
 30
0.0
 10
390.9615429761456
 20
269.3781785113959
 30
0.0
 10
390.5943136242283
 20
269.1033044699085
 30
0.0
 10
390.1574848940446
 20
268.7680883726913
 30
0.0
 10
389.8144427779103
 20
268.4911173853791
 30
0.0
 10
389.6406955948717
 20
268.3508345263202
 30
0.0
  0
SPLINE
  5
E3
330
1F
100
AcDbEntity
  8
0
  6
Continuous
 62
     7
370
    40
100
AcDbSpline
210
0.0
220
0.0
230
1.0
 70
     8
 71
     3
 72
    28
 73
    24
 74
     0
 42
0.00000001
 43
0.00000001
 12
1.0
 22
0.0
 32
0.0
 13
1.0
 23
0.0
 33
0.0
 40
0.0
 40
0.0
 40
0.0
 40
0.0
 40
0.0410060064796718
 40
0.0829097903287815
 40
0.1257486533417664
 40
0.1656524478222809
 40
0.2072660553916539
 40
0.2506279124532109
 40
0.285625894278599
 40
0.3215934840854688
 40
0.3571292154837395
 40
0.392407856918529
 40
0.4285203961606648
 40
0.4607750593838473
 40
0.5004446335107877
 40
0.5484751593194116
 40
0.5856503291357127
 40
0.6257214947672296
 40
0.6701313643630921
 40
0.7116932308946684
 40
0.7503862762742274
 40
0.87536136423291
 40
0.9999999999999999
 40
0.9999999999999999
 40
0.9999999999999999
 40
0.9999999999999999
 10
389.6406955948717
 20
268.3508344773782
 30
0.0
 10
389.6220041866456
 20
268.3345201336859
 30
0.0
 10
389.5842121442106
 20
268.3015342632977
 30
0.0
 10
389.5018154612895
 20
268.2164757111058
 30
0.0
 10
389.4031815452766
 20
268.1070795019122
 30
0.0
 10
389.2876228490466
 20
267.9721125245779
 30
0.0
 10
389.1572202902952
 20
267.8127711978549
 30
0.0
 10
389.0192791192565
 20
267.6368422297747
 30
0.0
 10
388.8782911611378
 20
267.4503003697317
 30
0.0
 10
388.7403135807956
 20
267.2612233002338
 30
0.0
 10
388.5964674031575
 20
267.0568800549617
 30
0.0
 10
388.4482449384599
 20
266.8382064358597
 30
0.0
 10
388.3017458504895
 20
266.6130079972099
 30
0.0
 10
388.1472408382102
 20
266.3656019627111
 30
0.0
 10
387.9751739896469
 20
266.0764369788513
 30
0.0
 10
387.7971032584297
 20
265.7577105606955
 30
0.0
 10
387.621674848794
 20
265.4215264863918
 30
0.0
 10
387.4557687974005
 20
265.0809607718311
 30
0.0
 10
387.2911923218834
 20
264.7126407647218
 30
0.0
 10
387.1372143200006
 20
264.3336925985823
 30
0.0
 10
386.9008760280944
 20
263.6888635198364
 30
0.0
 10
386.6157842463719
 20
262.7252545496925
 30
0.0
 10
386.4609038950704
 20
261.8456065050673
 30
0.0
 10
386.3835681003666
 20
261.4063753177721
 30
0.0
  0
LINE
  5
E4
330
1F
100
AcDbEntity
  8
0
  6
Continuous
 62
     7
370
    40
100
AcDbLine
 10
387.276816821
 20
221.7172327684
 30
0.0
 11
387.3158074696
 21
221.7172327684
 31
0.0
  0
ARC
  5
E5
330
1F
100
AcDbEntity
  8
0
  6
Continuous
 62
     7
370
    40
100
AcDbCircle
 10
389.640877468
 20
236.8050644899
 30
0.0
 40
2.000000000000052
100
AcDbArc
 50
15.7570898053
 51
90.0
  0
ARC
  5
E6
330
1F
100
AcDbEntity
  8
0
  6
Continuous
 62
     7
370
    40
100
AcDbCircle
 10
237.5782582022
 20
193.8986567864
 30
0.0
 40
160.0000000000001
100
AcDbArc
 50
359.6618680049
 51
15.7570898053
  0
LINE
  5
E7
330
1F
100
AcDbEntity
  8
0
  6
Continuous
 62
     7
370
    40
100
AcDbLine
 10
387.9471826211
 20
238.8050644899
 30
0.0
 11
387.9471826211
 21
196.096567112
 31
0.0
  0
LINE
  5
E8
330
1F
100
AcDbEntity
  8
0
  6
Continuous
 62
     7
370
    40
100
AcDbLine
 10
389.640877468
 20
238.8050644899
 30
0.0
 11
387.9471826211
 21
238.8050644899
 31
0.0
  0
LINE
  5
E9
330
1F
100
AcDbEntity
  8
0
  6
Continuous
 62
     7
370
    40
100
AcDbLine
 10
387.3139805234
 20
195.6050644899
 30
0.0
 11
387.1570319486
 21
195.6050644899
 31
0.0
  0
LINE
  5
EA
330
1F
100
AcDbEntity
  8
0
  6
Continuous
 62
     7
370
    40
100
AcDbLine
 10
387.1570319486
 20
195.6050644899
 30
0.0
 11
387.1570319486
 21
221.8403350392
 31
0.0
  0
LINE
  5
EB
330
1F
100
AcDbEntity
  8
0
  6
Continuous
 62
     7
370
    40
100
AcDbLine
 10
387.1570319486
 20
227.2856388591
 30
0.0
 11
387.1570319486
 21
238.8050644899
 31
0.0
  0
LINE
  5
EC
330
1F
100
AcDbEntity
  8
0
  6
Continuous
 62
     7
370
    40
100
AcDbLine
 10
387.1570319486
 20
238.8050644899
 30
0.0
 11
387.9471826211
 21
238.8050644899
 31
0.0
  0
LINE
  5
ED
330
1F
100
AcDbEntity
  8
0
  6
Continuous
 62
     7
370
    40
100
AcDbLine
 10
396.6471826211
 20
171.2050644899
 30
0.0
 11
396.6471826211
 21
179.0050644899
 31
0.0
  0
ARC
  5
EE
330
1F
100
AcDbEntity
  8
0
  6
Continuous
 62
     7
370
    40
100
AcDbCircle
 10
396.2471826211
 20
179.0050644899
 30
0.0
 40
0.4000000000000341
100
AcDbArc
 50
0.0
 51
90.0
  0
LINE
  5
EF
330
1F
100
AcDbEntity
  8
0
  6
Continuous
 62
     7
370
    40
100
AcDbLine
 10
396.2471826211
 20
179.4050644899
 30
0.0
 11
386.8471826211
 21
179.4050644899
 31
0.0
  0
ARC
  5
F0
330
1F
100
AcDbEntity
  8
0
  6
Continuous
 62
     7
370
    40
100
AcDbCircle
 10
386.8471826211
 20
179.0050644899
 30
0.0
 40
0.4000000000000057
100
AcDbArc
 50
90.0
 51
180.0
  0
LINE
  5
F1
330
1F
100
AcDbEntity
  8
0
  6
Continuous
 62
     7
370
    40
100
AcDbLine
 10
386.4471826211
 20
179.0050644899
 30
0.0
 11
386.4471826211
 21
171.2050644899
 31
0.0
  0
LINE
  5
F2
330
1F
100
AcDbEntity
  8
0
  6
Continuous
 62
     7
370
    40
100
AcDbLine
 10
385.6471826211
 20
176.2050644899
 30
0.0
 11
385.6471826211
 21
171.2050644899
 31
0.0
  0
LINE
  5
F3
330
1F
100
AcDbEntity
  8
0
  6
Continuous
 62
     7
370
    40
100
AcDbLine
 10
385.6471826211
 20
176.2050644899
 30
0.0
 11
383.6992809202
 21
176.2050644899
 31
0.0
  0
ARC
  5
F4
330
1F
100
AcDbEntity
  8
0
  6
Continuous
 62
     7
370
    40
100
AcDbCircle
 10
407.2562735302
 20
182.2050644899
 30
0.0
 40
24.30909090909091
100
AcDbArc
 50
151.3013359141
 51
194.2894890274
  0
ARC
  5
F5
330
1F
100
AcDbEntity
  8
0
  6
Continuous
 62
     7
370
    40
100
AcDbCircle
 10
391.5471826211
 20
190.8050644899
 30
0.0
 40
6.399999999999999
100
AcDbArc
 50
334.4805415091
 51
151.3013359141
  0
ARC
  5
F6
330
1F
100
AcDbEntity
  8
0
  6
Continuous
 62
     7
370
    40
100
AcDbCircle
 10
406.3471826211
 20
183.7396557968
 30
0.0
 40
10.00000000000003
100
AcDbArc
 50
154.4805415091
 51
180.0
  0
LINE
  5
F7
330
1F
100
AcDbEntity
  8
0
  6
Continuous
 62
     7
370
    40
100
AcDbLine
 10
396.3471826211
 20
183.7396557968
 30
0.0
 11
396.3471826211
 21
180.2050644899
 31
0.0
  0
LINE
  5
F8
330
1F
100
AcDbEntity
  8
0
  6
Continuous
 62
     7
370
    40
100
AcDbLine
 10
396.4471826211
 20
180.2050644899
 30
0.0
 11
396.3471826211
 21
180.2050644899
 31
0.0
  0
ARC
  5
F9
330
1F
100
AcDbEntity
  8
0
  6
Continuous
 62
     7
370
    40
100
AcDbCircle
 10
396.4471826211
 20
179.2050644899
 30
0.0
 40
1.0
100
AcDbArc
 50
0.0
 51
90.0
  0
LINE
  5
FA
330
1F
100
AcDbEntity
  8
0
  6
Continuous
 62
     7
370
    40
100
AcDbLine
 10
397.4471826211
 20
171.2050644899
 30
0.0
 11
397.4471826211
 21
179.2050644899
 31
0.0
  0
LINE
  5
FB
330
1F
100
AcDbEntity
  8
0
  6
Continuous
 62
     7
370
    40
100
AcDbLine
 10
386.4471826211
 20
171.2050644899
 30
0.0
 11
386.4471826211
 21
169.2050644899
 31
0.0
  0
LINE
  5
FC
330
1F
100
AcDbEntity
  8
0
  6
Continuous
 62
     7
370
    40
100
AcDbLine
 10
386.4471826211
 20
169.2050644899
 30
0.0
 11
385.6471826211
 21
169.2050644899
 31
0.0
  0
LINE
  5
FD
330
1F
100
AcDbEntity
  8
0
  6
Continuous
 62
     7
370
    40
100
AcDbLine
 10
385.6471826211
 20
169.2050644899
 30
0.0
 11
385.6471826211
 21
171.2050644899
 31
0.0
  0
LINE
  5
FE
330
1F
100
AcDbEntity
  8
0
  6
Continuous
 62
     7
370
    40
100
AcDbLine
 10
397.4471826211
 20
171.2050644899
 30
0.0
 11
397.4471826211
 21
169.2050644899
 31
0.0
  0
LINE
  5
FF
330
1F
100
AcDbEntity
  8
0
  6
Continuous
 62
     7
370
    40
100
AcDbLine
 10
397.4471826211
 20
169.2050644899
 30
0.0
 11
396.6471826211
 21
169.2050644899
 31
0.0
  0
LINE
  5
100
330
1F
100
AcDbEntity
  8
0
  6
Continuous
 62
     7
370
    40
100
AcDbLine
 10
396.6471826211
 20
169.2050644899
 30
0.0
 11
396.6471826211
 21
171.2050644899
 31
0.0
  0
LINE
  5
101
330
1F
100
AcDbEntity
  8
0
  6
Continuous
 62
     7
370
    40
100
AcDbLine
 10
173.7112627903
 20
123.3970402853
 30
0.0
 11
186.4304371921
 21
123.3970402853
 31
0.0
  0
LINE
  5
102
330
1F
100
AcDbEntity
  8
0
  6
Continuous
 62
     7
370
    40
100
AcDbLine
 10
186.4304371921
 20
135.5970402853
 30
0.0
 11
170.0304371921
 21
135.5970402853
 31
0.0
  0
LINE
  5
103
330
1F
100
AcDbEntity
  8
0
  6
Continuous
 62
     7
370
    40
100
AcDbLine
 10
245.4304371921
 20
135.5970402853
 30
0.0
 11
229.0304371921
 21
135.5970402853
 31
0.0
  0
LINE
  5
104
330
1F
100
AcDbEntity
  8
0
  6
Continuous
 62
     7
370
    40
100
AcDbLine
 10
229.0304371921
 20
123.3970402853
 30
0.0
 11
241.7496115939
 21
123.3970402853
 31
0.0
  0
LINE
  5
105
330
1F
100
AcDbEntity
  8
0
  6
Continuous
 62
     7
370
    40
100
AcDbLine
 10
245.7304371921
 20
123.0970402853
 30
0.0
 11
249.1304371921
 21
123.0970402853
 31
0.0
  0
LINE
  5
106
330
1F
100
AcDbEntity
  8
0
  6
Continuous
 62
     7
370
    40
100
AcDbLine
 10
245.7304371921
 20
135.4970402853
 30
0.0
 11
245.4304371921
 21
135.4970402853
 31
0.0
  0
LINE
  5
107
330
1F
100
AcDbEntity
  8
0
  6
Continuous
 62
     7
370
    40
100
AcDbLine
 10
229.0304371921
 20
135.4970402853
 30
0.0
 11
228.3304371921
 21
135.4970402853
 31
0.0
  0
LINE
  5
108
330
1F
100
AcDbEntity
  8
0
  6
Continuous
 62
     7
370
    40
100
AcDbLine
 10
228.3304371921
 20
123.4970402853
 30
0.0
 11
229.0304371921
 21
123.4970402853
 31
0.0
  0
LINE
  5
109
330
1F
100
AcDbEntity
  8
0
  6
Continuous
 62
     7
370
    40
100
AcDbLine
 10
245.4304371921
 20
123.4970402853
 30
0.0
 11
245.7304371921
 21
123.4970402853
 31
0.0
  0
LINE
  5
10A
330
1F
100
AcDbEntity
  8
0
  6
Continuous
 62
     7
370
    40
100
AcDbLine
 10
249.1304371921
 20
138.0970402853
 30
0.0
 11
245.7304371921
 21
138.0970402853
 31
0.0
  0
LINE
  5
10B
330
1F
100
AcDbEntity
  8
0
  6
Continuous
 62
     7
370
    40
100
AcDbLine
 10
166.3304371921
 20
123.0970402853
 30
0.0
 11
169.7304371921
 21
123.0970402853
 31
0.0
  0
LINE
  5
10C
330
1F
100
AcDbEntity
  8
0
  6
Continuous
 62
     7
370
    40
100
AcDbLine
 10
169.7304371921
 20
123.4970402853
 30
0.0
 11
170.0304371921
 21
123.4970402853
 31
0.0
  0
LINE
  5
10D
330
1F
100
AcDbEntity
  8
0
  6
Continuous
 62
     7
370
    40
100
AcDbLine
 10
186.4304371921
 20
123.4970402853
 30
0.0
 11
187.1304371921
 21
123.4970402853
 31
0.0
  0
LINE
  5
10E
330
1F
100
AcDbEntity
  8
0
  6
Continuous
 62
     7
370
    40
100
AcDbLine
 10
187.1304371921
 20
135.4970402853
 30
0.0
 11
186.4304371921
 21
135.4970402853
 31
0.0
  0
LINE
  5
10F
330
1F
100
AcDbEntity
  8
0
  6
Continuous
 62
     7
370
    40
100
AcDbLine
 10
170.0304371921
 20
135.4970402853
 30
0.0
 11
169.7304371921
 21
135.4970402853
 31
0.0
  0
LINE
  5
110
330
1F
100
AcDbEntity
  8
0
  6
Continuous
 62
     7
370
    40
100
AcDbLine
 10
169.7304371921
 20
138.0970402853
 30
0.0
 11
166.3304371921
 21
138.0970402853
 31
0.0
  0
SPLINE
  5
111
330
1F
100
AcDbEntity
  8
0
  6
Continuous
 62
     7
370
    40
100
AcDbSpline
210
0.0
220
0.0
230
1.0
 70
     8
 71
     3
 72
    39
 73
    35
 74
     0
 42
0.00000001
 43
0.00000001
 12
1.0
 22
0.0
 32
0.0
 13
1.0
 23
0.0
 33
0.0
 40
0.0
 40
0.0
 40
0.0
 40
0.0
 40
0.011505404989809
 40
0.0228131985496977
 40
0.0339233909639351
 40
0.0448359930768325
 40
0.0555510163340086
 40
0.066068472827495
 40
0.0763883753451928
 40
0.0865107374251027
 40
0.0964355734149806
 40
0.1061628985380122
 40
0.1156927289652895
 40
0.1250250818959535
 40
0.1886303159399986
 40
0.2495648568934597
 40
0.3759086231700429
 40
0.4987877084082016
 40
0.5620535332715682
 40
0.6250773254860288
 40
0.6878720314622402
 40
0.7504507397931514
 40
0.771286463715854
 40
0.7921132789590414
 40
0.8129316776934239
 40
0.8337421526868576
 40
0.8545451972702817
 40
0.8753413053034288
 40
0.8961309711403694
 40
0.9169146895948679
 40
0.93769295590558
 40
0.9584662657011037
 40
0.979235114964888
 40
1.0
 40
1.0
 40
1.0
 40
1.0
 10
176.3978372853512
 20
118.299412298192
 30
0.0
 10
176.5089007972541
 20
118.3512088014675
 30
0.0
 10
176.7291202463661
 20
118.4539121756165
 30
0.0
 10
177.0576190326574
 20
118.604615167078
 30
0.0
 10
177.3810981899966
 20
118.7512591936214
 30
0.0
 10
177.6995866052917
 20
118.8937798554083
 30
0.0
 10
178.0130218598026
 20
119.0322920340791
 30
0.0
 10
178.3213671007093
 20
119.166862482869
 30
0.0
 10
178.6245805171247
 20
119.2975691216331
 30
0.0
 10
178.9226232547749
 20
119.4244855505211
 30
0.0
 10
179.2154573339644
 20
119.5476850667226
 30
0.0
 10
179.5030460868945
 20
119.667239575692
 30
0.0
 10
179.7853542506576
 20
119.783219921686
 30
0.0
 10
180.6012565163497
 20
120.114524962851
 30
0.0
 10
181.9356631780955
 20
120.6319706764476
 30
0.0
 10
184.4662777215356
 20
121.5353428417848
 30
0.0
 10
187.6488389067082
 20
122.5273987880073
 30
0.0
 10
190.9171259607287
 20
123.353933643955
 30
0.0
 10
193.5532140936718
 20
123.9071511039432
 30
0.0
 10
195.5674980562259
 20
124.2718886654541
 30
0.0
 10
197.5862652773287
 20
124.58003422137
 30
0.0
 10
199.1606802618722
 20
124.7760664958962
 30
0.0
 10
200.2860308937989
 20
124.8952224541751
 30
0.0
 10
200.9613613969286
 20
124.9604651361205
 30
0.0
 10
201.637148198211
 20
125.0194958531872
 30
0.0
 10
202.3133359562003
 20
125.072312967253
 30
0.0
 10
202.9898669777003
 20
125.11891526646
 30
0.0
 10
203.666684221583
 20
125.1593011712565
 30
0.0
 10
204.3437305005122
 20
125.1934733028819
 30
0.0
 10
205.0209487008523
 20
125.2214210077444
 30
0.0
 10
205.6982817298455
 20
125.243185662529
 30
0.0
 10
206.3756725359833
 20
125.2586170119884
 30
0.0
 10
207.0530641091468
 20
125.2682822165347
 30
0.0
 10
207.504660532151
 20
125.2694770413192
 30
0.0
 10
207.7304371921178
 20
125.2700743966909
 30
0.0
  0
SPLINE
  5
112
330
1F
100
AcDbEntity
  8
0
  6
Continuous
 62
     7
370
    40
100
AcDbSpline
210
0.0
220
0.0
230
1.0
 70
     8
 71
     3
 72
     9
 73
     5
 74
     0
 42
0.00000001
 43
0.00000001
 12
1.0
 22
0.0
 32
0.0
 13
1.0
 23
0.0
 33
0.0
 40
0.0
 40
0.0
 40
0.0
 40
0.0
 40
0.5076899243917644
 40
1.0
 40
1.0
 40
1.0
 40
1.0
 10
176.0010357922569
 20
118.112225512363
 30
0.0
 10
176.068259733922
 20
118.1441194896859
 30
0.0
 10
176.2006711497001
 20
118.2069412550797
 30
0.0
 10
176.3327925759866
 20
118.2689062881005
 30
0.0
 10
176.3978372853512
 20
118.299412298192
 30
0.0
  0
SPLINE
  5
113
330
1F
100
AcDbEntity
  8
0
  6
Continuous
 62
     7
370
    40
100
AcDbSpline
210
0.0
220
0.0
230
1.0
 70
     8
 71
     3
 72
     8
 73
     4
 74
     0
 42
0.00000001
 43
0.00000001
 12
1.0
 22
0.0
 32
0.0
 13
1.0
 23
0.0
 33
0.0
 40
0.0
 40
0.0
 40
0.0
 40
0.0
 40
1.0
 40
1.0
 40
1.0
 40
1.0
 10
239.4598383893451
 20
118.1122250861012
 30
0.0
 10
239.3273828792443
 20
118.1751908411511
 30
0.0
 10
239.1950872711734
 20
118.2375975706715
 30
0.0
 10
239.0630371010649
 20
118.2994122968816
 30
0.0
  0
SPLINE
  5
114
330
1F
100
AcDbEntity
  8
0
  6
Continuous
 62
     7
370
    40
100
AcDbSpline
210
0.0
220
0.0
230
1.0
 70
     8
 71
     3
 72
    43
 73
    39
 74
     0
 42
0.00000001
 43
0.00000001
 12
1.0
 22
0.0
 32
0.0
 13
1.0
 23
0.0
 33
0.0
 40
0.0
 40
0.0
 40
0.0
 40
0.0
 40
0.011307290912391
 40
0.0226156989509464
 40
0.0339253042963892
 40
0.0452361871039809
 40
0.0565484275018258
 40
0.0678621055891833
 40
0.0791773014347839
 40
0.0904940950751416
 40
0.101812566512871
 40
0.1131327957150185
 40
0.1244548626113856
 40
0.1357788470928581
 40
0.1471048290097439
 40
0.1584328881701139
 40
0.1697631043381378
 40
0.1810955572324456
 40
0.1924303265244719
 40
0.2037674918368121
 40
0.2151071327415938
 40
0.2264493287588406
 40
0.2377941593548477
 40
0.249141703940559
 40
0.3117000858960894
 40
0.3744744565669383
 40
0.4374778939941779
 40
0.5007233341175079
 40
0.6237823510814449
 40
0.7503128789134004
 40
0.8112900999675381
 40
0.8749429322461718
 40
0.8938093236251192
 40
0.9134661424276943
 40
0.933913514034418
 40
0.955151549743318
 40
0.9771803487868583
 40
1.0
 40
1.0
 40
1.0
 40
1.0
 10
207.7304371921178
 20
125.2700743966909
 30
0.0
 10
207.8533810484218
 20
125.2698972713758
 30
0.0
 10
208.0992809075112
 20
125.2695430032463
 30
0.0
 10
208.4681379828231
 20
125.2666773484878
 30
0.0
 10
208.8370105000998
 20
125.2621023919234
 30
0.0
 10
209.2058892620653
 20
125.2556501373725
 30
0.0
 10
209.5747650671555
 20
125.2473651557532
 30
0.0
 10
209.9436287096432
 20
125.2372351096872
 30
0.0
 10
210.3124709798954
 20
125.225262971303
 30
0.0
 10
210.6812826645946
 20
125.2114476681475
 30
0.0
 10
211.0500545469708
 20
125.1957892701169
 30
0.0
 10
211.4187774070298
 20
125.1782875993902
 30
0.0
 10
211.7874420217859
 20
125.1589426030152
 30
0.0
 10
212.1560391654846
 20
125.1377542530934
 30
0.0
 10
212.5245596098615
 20
125.114722573566
 30
0.0
 10
212.8929941242659
 20
125.0898476330874
 30
0.0
 10
213.2613334762947
 20
125.0631295469129
 30
0.0
 10
213.6295684305178
 20
125.0345684766429
 30
0.0
 10
213.9976897543335
 20
125.0041646295172
 30
0.0
 10
214.3656881972055
 20
124.9719182616492
 30
0.0
 10
214.7335545692714
 20
124.937829665936
 30
0.0
 10
215.1012794489764
 20
124.9018992173363
 30
0.0
 10
215.468854275669
 20
124.8641272039296
 30
0.0
 10
216.3889406385573
 20
124.7649278071396
 30
0.0
 10
217.8607967686982
 20
124.5819406712945
 30
0.0
 10
219.8789839339685
 20
124.274282274854
 30
0.0
 10
221.89271179072
 20
123.9100649858536
 30
0.0
 10
224.5304201552061
 20
123.3570868186431
 30
0.0
 10
227.8025184955635
 20
122.5301965217123
 30
0.0
 10
230.9894016474431
 20
121.5371215761217
 30
0.0
 10
233.5228611360851
 20
120.6328602786464
 30
0.0
 10
234.9532132149834
 20
120.0782477676835
 30
0.0
 10
235.9631282943451
 20
119.6657467361425
 30
0.0
 10
236.5436927826007
 20
119.4229333304002
 30
0.0
 10
237.1451174751008
 20
119.1652704720439
 30
0.0
 10
237.7670236668582
 20
118.8920306318131
 30
0.0
 10
238.4093602521278
 20
118.6031482163177
 30
0.0
 10
238.8425982610114
 20
118.4018408806699
 30
0.0
 10
239.0630370988846
 20
118.2994122981918
 30
0.0
  0
SPLINE
  5
115
330
1F
100
AcDbEntity
  8
0
  6
Continuous
 62
     7
370
    40
100
AcDbSpline
210
0.0
220
0.0
230
1.0
 70
     8
 71
     3
 72
    22
 73
    18
 74
     0
 42
0.00000001
 43
0.00000001
 12
1.0
 22
0.0
 32
0.0
 13
1.0
 23
0.0
 33
0.0
 40
0.0
 40
0.0
 40
0.0
 40
0.0
 40
0.2499999999999993
 40
0.2499999999999993
 40
0.3749999999999992
 40
0.3749999999999992
 40
0.4374999999999992
 40
0.4374999999999992
 40
0.4999999999999991
 40
0.4999999999999991
 40
0.7499999999999989
 40
0.7499999999999989
 40
0.8124999999999991
 40
0.8124999999999991
 40
0.8749999999999994
 40
0.8749999999999994
 40
1.0
 40
1.0
 40
1.0
 40
1.0
 10
239.4598383992828
 20
118.1122250813771
 30
0.0
 10
239.9240409688168
 20
117.8915557549981
 30
0.0
 10
240.3559655611571
 20
117.6228450346626
 30
0.0
 10
240.9584436100562
 20
117.1508800966423
 30
0.0
 10
241.1516348182892
 20
116.9819718613878
 30
0.0
 10
241.4297620910053
 20
116.7107022272938
 30
0.0
 10
241.520116366666
 20
116.6176619747397
 30
0.0
 10
241.6949429373325
 20
116.427768709595
 30
0.0
 10
241.7796193517982
 20
116.3307182948185
 30
0.0
 10
242.1896026757858
 20
115.8351464998467
 30
0.0
 10
242.4752143889497
 20
115.4060279357253
 30
0.0
 10
242.7787664421936
 20
114.8283267569932
 30
0.0
 10
242.8367376517944
 20
114.7107180190145
 30
0.0
 10
242.9461462653798
 20
114.4735495808245
 30
0.0
 10
242.9977332439503
 20
114.3537154085521
 30
0.0
 10
243.1432028884513
 20
113.9904895923968
 30
0.0
 10
243.2278254891689
 20
113.7433869227601
 30
0.0
 10
243.2998812823413
 20
113.4912570421682
 30
0.0
  0
SPLINE
  5
116
330
1F
100
AcDbEntity
  8
0
  6
Continuous
 62
     7
370
    40
100
AcDbSpline
210
0.0
220
0.0
230
1.0
 70
     8
 71
     3
 72
    41
 73
    37
 74
     0
 42
0.00000001
 43
0.00000001
 12
1.0
 22
0.0
 32
0.0
 13
1.0
 23
0.0
 33
0.0
 40
0.0
 40
0.0
 40
0.0
 40
0.0
 40
0.0192725357105359
 40
0.038567143305218
 40
0.0578808108558225
 40
0.07721051362693
 40
0.0965532170339868
 40
0.1159058796293946
 40
0.1352654561097044
 40
0.1546289003369666
 40
0.1739931683672163
 40
0.1933552214789915
 40
0.2127120291948523
 40
0.2320605722888266
 40
0.2513978457728425
 40
0.2707208618552306
 40
0.2900266528645358
 40
0.3093122741320399
 40
0.328574806826528
 40
0.3478113607351078
 40
0.3670190769840227
 40
0.386195130693775
 40
0.4053367335630246
 40
0.4244411363761361
 40
0.4435056314294843
 40
0.4625275548719861
 40
0.4815042889556855
 40
0.5004332641925486
 40
0.6207036169146348
 40
0.7505596131356814
 40
0.8082574672633067
 40
0.8748702595475625
 40
0.906409686709609
 40
0.9377841167240041
 40
0.9689839551801381
 40
1.0
 40
1.0
 40
1.0
 40
1.0
 10
239.0630371010649
 20
118.2994122968816
 30
0.0
 10
239.0987954517312
 20
118.2824540647205
 30
0.0
 10
239.1703531053382
 20
118.2485181789717
 30
0.0
 10
239.2766470463962
 20
118.1952111606497
 30
0.0
 10
239.3822027328773
 20
118.140128071182
 30
0.0
 10
239.4868952606539
 20
118.0831173910174
 30
0.0
 10
239.5906978526982
 20
118.0242474042793
 30
0.0
 10
239.6935584224481
 20
117.9635296924243
 30
0.0
 10
239.7954327876193
 20
117.9009932780432
 30
0.0
 10
239.8962758545539
 20
117.8366646889853
 30
0.0
 10
239.9960440730332
 20
117.7705732514818
 30
0.0
 10
240.0946948657537
 20
117.7027496128315
 30
0.0
 10
240.1921868655258
 20
117.6332260743367
 30
0.0
 10
240.2884799323478
 20
117.5620364343823
 30
0.0
 10
240.3835352255784
 20
117.4892159583614
 30
0.0
 10
240.4773152572196
 20
117.4148013104572
 30
0.0
 10
240.5697839459141
 20
117.3388304917457
 30
0.0
 10
240.660906666187
 20
117.2613427730237
 30
0.0
 10
240.7506502942956
 20
117.1823786256638
 30
0.0
 10
240.8389832498714
 20
117.1019796503214
 30
0.0
 10
240.9258755345328
 20
117.0201885023889
 30
0.0
 10
241.0112987629748
 20
116.9370488203094
 30
0.0
 10
241.0952262027949
 20
116.8526051350372
 30
0.0
 10
241.1776327622762
 20
116.7669028427755
 30
0.0
 10
241.2584951521035
 20
116.6799879366232
 30
0.0
 10
241.3377913801652
 20
116.5919076308201
 30
0.0
 10
241.4155027071193
 20
116.5027076618794
 30
0.0
 10
241.6274937821715
 20
116.2512675854525
 30
0.0
 10
241.963506627404
 20
115.8011891025046
 30
0.0
 10
242.2927974185239
 20
115.2469733930551
 30
0.0
 10
242.5283146896427
 20
114.7698217122201
 30
0.0
 10
242.6576618000522
 20
114.4698926047
 30
0.0
 10
242.7550171366138
 20
114.2165273480638
 30
0.0
 10
242.8208817873895
 20
114.0305954172401
 30
0.0
 10
242.8819623509779
 20
113.8441518789861
 30
0.0
 10
242.9185527101887
 20
113.7189727447202
 30
0.0
 10
242.9367938435055
 20
113.6565680751332
 30
0.0
  0
SPLINE
  5
117
330
1F
100
AcDbEntity
  8
0
  6
Continuous
 62
     7
370
    40
100
AcDbSpline
210
0.0
220
0.0
230
1.0
 70
     8
 71
     3
 72
    32
 73
    28
 74
     0
 42
0.00000001
 43
0.00000001
 12
1.0
 22
0.0
 32
0.0
 13
1.0
 23
0.0
 33
0.0
 40
0.0
 40
0.0
 40
0.0
 40
0.0
 40
0.0177585115556137
 40
0.0355798240946647
 40
0.0534622523820615
 40
0.0714040684374185
 40
0.0894035022914251
 40
0.1074587428099998
 40
0.1255679385860354
 40
0.187277949301379
 40
0.2511854211738008
 40
0.3804843896657949
 40
0.5003481358343623
 40
0.5354857596850388
 40
0.5707799324614163
 40
0.6062138772130116
 40
0.6417702915234743
 40
0.6774313990699056
 40
0.7131790045554912
 40
0.7489945516496139
 40
0.7848591835269395
 40
0.8207538055595643
 40
0.8566591496847288
 40
0.8925558399458668
 40
0.928424458687311
 40
0.9642456128732697
 40
1.0
 40
1.0
 40
1.0
 40
1.0
 10
172.5240805407313
 20
113.656568075133
 30
0.0
 10
172.5344041742399
 20
113.6923314539346
 30
0.0
 10
172.5550879496285
 20
113.7639846847139
 30
0.0
 10
172.5881546244276
 20
113.8710589247007
 30
0.0
 10
172.6227943454113
 20
113.9780308035368
 30
0.0
 10
172.6591574422591
 20
114.0848182141192
 30
0.0
 10
172.6972117437814
 20
114.1913898165136
 30
0.0
 10
172.7369705551604
 20
114.2977018054753
 30
0.0
 10
172.8116851684796
 20
114.4886828910111
 30
0.0
 10
172.9305187579395
 20
114.7654526607103
 30
0.0
 10
173.1661500445023
 20
115.244345278134
 30
0.0
 10
173.5017503215897
 20
115.8075497711904
 30
0.0
 10
173.8571539163284
 20
116.2827988978112
 30
0.0
 10
174.1144283746947
 20
116.5833001086565
 30
0.0
 10
174.2623902766165
 20
116.7459226698256
 30
0.0
 10
174.4156775568264
 20
116.9044146141829
 30
0.0
 10
174.5741428417294
 20
117.0584876229439
 30
0.0
 10
174.737614624633
 20
117.2078567500042
 30
0.0
 10
174.9059033135943
 20
117.3522496717327
 30
0.0
 10
175.0788003360472
 20
117.4914066347313
 30
0.0
 10
175.256080013221
 20
117.6250812725168
 30
0.0
 10
175.4374983068778
 20
117.7530468541142
 30
0.0
 10
175.6228022464884
 20
117.8750793312639
 30
0.0
 10
175.8117006290898
 20
117.9910271116987
 30
0.0
 10
176.0039796911652
 20
118.1005564878182
 30
0.0
 10
176.1990789750911
 20
118.204105426166
 30
0.0
 10
176.3316257278846
 20
118.2676631025937
 30
0.0
 10
176.3978372831848
 20
118.2994122968882
 30
0.0
  0
SPLINE
  5
118
330
1F
100
AcDbEntity
  8
0
  6
Continuous
 62
     7
370
    40
100
AcDbSpline
210
0.0
220
0.0
230
1.0
 70
     8
 71
     3
 72
    22
 73
    18
 74
     0
 42
0.00000001
 43
0.00000001
 12
1.0
 22
0.0
 32
0.0
 13
1.0
 23
0.0
 33
0.0
 40
0.0
 40
0.0
 40
0.0
 40
0.0
 40
0.2499999999999984
 40
0.2499999999999984
 40
0.3749999999999971
 40
0.3749999999999971
 40
0.4374999999999969
 40
0.4374999999999969
 40
0.4999999999999968
 40
0.4999999999999968
 40
0.7499999999999971
 40
0.7499999999999971
 40
0.8124999999999979
 40
0.8124999999999979
 40
0.8749999999999988
 40
0.8749999999999988
 40
1.0
 40
1.0
 40
1.0
 40
1.0
 10
172.1609931018942
 20
113.4912570421683
 30
0.0
 10
172.3051283574916
 20
113.9955996242151
 30
0.0
 10
172.4980021187839
 20
114.4763462508256
 30
0.0
 10
172.8576868180491
 20
115.1632534817663
 30
0.0
 10
172.9894266889271
 20
115.3864659778971
 30
0.0
 10
173.205521599867
 20
115.7123005384727
 30
0.0
 10
173.2805218424094
 20
115.8191877056476
 30
0.0
 10
173.4348959032229
 20
116.0273777742525
 30
0.0
 10
173.5144742374289
 20
116.1289954325579
 30
0.0
 10
173.9241900424827
 20
116.6248570546904
 30
0.0
 10
174.2893540048633
 20
116.9828346393022
 30
0.0
 10
174.7949342205235
 20
117.3802848398409
 30
0.0
 10
174.8987782150942
 20
117.4574066033538
 30
0.0
 10
175.1097353300547
 20
117.6051794009161
 30
0.0
 10
175.2169668052121
 20
117.675944877329
 30
0.0
 10
175.5439211363736
 20
117.8789306725826
 30
0.0
 10
175.7688886556076
 20
118.0018685297179
 30
0.0
 10
176.0010359849485
 20
118.1122250813864
 30
0.0
  0
SPLINE
  5
119
330
1F
100
AcDbEntity
  8
0
  6
Continuous
 62
     7
370
    40
100
AcDbSpline
210
0.0
220
0.0
230
1.0
 70
     8
 71
     3
 72
    14
 73
    10
 74
     0
 42
0.00000001
 43
0.00000001
 12
1.0
 22
0.0
 32
0.0
 13
1.0
 23
0.0
 33
0.0
 40
0.0
 40
0.0
 40
0.0
 40
0.0
 40
0.1250000000000004
 40
0.1250000000000004
 40
0.2500000000000007
 40
0.2500000000000007
 40
0.5000000000000014
 40
0.5000000000000014
 40
1.0
 40
1.0
 40
1.0
 40
1.0
 10
170.1303659652559
 20
58.80807737416941
 30
0.0
 10
170.1303649863161
 20
59.28943513649187
 30
0.0
 10
170.1303852331202
 20
59.77294915514013
 30
0.0
 10
170.1304457503043
 20
60.74274510032328
 30
0.0
 10
170.1305271085802
 20
61.22939174511286
 30
0.0
 10
170.1307848569035
 20
62.68899406612327
 30
0.0
 10
170.1310214687369
 20
63.66178771368809
 30
0.0
 10
170.1315455332637
 20
66.5796835588892
 30
0.0
 10
170.1316040585608
 20
68.52429963392176
 30
0.0
 10
170.1304344604725
 20
70.4692801555823
 30
0.0
  0
SPLINE
  5
11A
330
1F
100
AcDbEntity
  8
0
  6
Continuous
 62
     7
370
    40
100
AcDbSpline
210
0.0
220
0.0
230
1.0
 70
    24
 71
     3
 72
    22
 73
    18
 74
     0
 42
0.00000001
 43
0.00000001
 12
1.0
 22
0.0
 32
0.0
 13
1.0
 23
0.0
 33
0.0
 40
0.0
 40
0.0
 40
0.0
 40
0.0
 40
0.037957430688278
 40
0.0773973701130239
 40
0.1183203953527565
 40
0.1607270229395832
 40
0.2046177170258687
 40
0.2499928962215033
 40
0.3098850783978163
 40
0.3749900638688661
 40
0.499992521601561
 40
0.6249968801034098
 40
0.6874936226202463
 40
0.7499997965301135
 40
0.8409257276912196
 40
0.9242587090615347
 40
1.0
 40
1.0
 40
1.0
 40
1.0
 10
170.1304371921178
 20
70.46928027975754
 30
0.0
 10
170.1304371921178
 20
70.59577307929536
 30
0.0
 10
170.1304371921177
 20
70.85369912552493
 30
0.0
 10
170.1304371921178
 20
71.24803899848096
 30
0.0
 10
170.1304371921177
 20
71.65722558332472
 30
0.0
 10
170.1304371921178
 20
72.08126254025248
 30
0.0
 10
170.1304371921178
 20
72.52014889970509
 30
0.0
 10
170.1304371921178
 20
73.0173238527121
 30
0.0
 10
170.1304371921178
 20
73.58521277579013
 30
0.0
 10
170.1304371921177
 20
74.41851261702364
 30
0.0
 10
170.1304371921177
 20
75.46882827173607
 30
0.0
 10
170.1304371921178
 20
76.51043857252773
 30
0.0
 10
170.1304371921177
 20
77.34374536587852
 30
0.0
 10
170.1304371921178
 20
78.0634715232026
 30
0.0
 10
170.1304371921177
 20
78.85265630155335
 30
0.0
 10
170.1304371921177
 20
79.68596501705626
 30
0.0
 10
170.1304371921177
 20
80.21618774931713
 30
0.0
 10
170.1304371921177
 20
80.4686468908457
 30
0.0
  0
LINE
  5
11B
330
1F
100
AcDbEntity
  8
0
  6
Continuous
 62
     7
370
    40
100
AcDbLine
 10
170.1304371921
 20
80.4686468788
 30
0.0
 11
170.1335325001
 21
81.5080828877
 31
0.0
  0
SPLINE
  5
11C
330
1F
100
AcDbEntity
  8
0
  6
Continuous
 62
     7
370
    40
100
AcDbSpline
210
0.0
220
0.0
230
1.0
 70
    24
 71
     3
 72
    23
 73
    19
 74
     0
 42
0.00000001
 43
0.00000001
 12
1.0
 22
0.0
 32
0.0
 13
1.0
 23
0.0
 33
0.0
 40
0.0
 40
0.0
 40
0.0
 40
0.0
 40
0.0383734927513583
 40
0.0800453041169342
 40
0.1250157525781887
 40
0.1745923034476585
 40
0.2500303973450315
 40
0.3196650121092703
 40
0.3750443226354618
 40
0.4405503011080144
 40
0.5000444921191433
 40
0.6314135731894871
 40
0.7500493764620317
 40
0.802207401468279
 40
0.8532707427469994
 40
0.9032497831159039
 40
0.9521555959963908
 40
1.0
 40
1.0
 40
1.0
 40
1.0
 10
170.1304371921177
 20
90.47006685962991
 30
0.0
 10
170.1304371921177
 20
90.57387095809844
 30
0.0
 10
170.1304371921177
 20
90.79040143355802
 30
0.0
 10
170.1304371921178
 20
91.12852368644069
 30
0.0
 10
170.1304371921177
 20
91.4969080145237
 30
0.0
 10
170.1304371921178
 20
91.9565511633844
 30
0.0
 10
170.1304371921177
 20
92.4828587711985
 30
0.0
 10
170.1304371921178
 20
93.02487076146194
 30
0.0
 10
170.1304371921177
 20
93.54009350907212
 30
0.0
 10
170.1304371921177
 20
94.02799825837991
 30
0.0
 10
170.1304371921177
 20
94.72161376638313
 30
0.0
 10
170.1304371921178
 20
95.5593591246583
 30
0.0
 10
170.1304371921177
 20
96.3775387906733
 30
0.0
 10
170.1304371921177
 20
96.9781059399764
 30
0.0
 10
170.1304371921177
 20
97.392672628539
 30
0.0
 10
170.1304371921177
 20
97.79818943680873
 30
0.0
 10
170.1304371921177
 20
98.19471060216316
 30
0.0
 10
170.1304371921177
 20
98.45577287605701
 30
0.0
 10
170.1304371921177
 20
98.58487200683459
 30
0.0
  0
SPLINE
  5
11D
330
1F
100
AcDbEntity
  8
0
  6
Continuous
 62
     7
370
    40
100
AcDbSpline
210
0.0
220
0.0
230
1.0
 70
     8
 71
     3
 72
     9
 73
     5
 74
     0
 42
0.00000001
 43
0.00000001
 12
1.0
 22
0.0
 32
0.0
 13
1.0
 23
0.0
 33
0.0
 40
0.0
 40
0.0
 40
0.0
 40
0.0
 40
0.6229222475361101
 40
0.9999999999999999
 40
0.9999999999999999
 40
0.9999999999999999
 40
0.9999999999999999
 10
171.6617141280762
 20
111.6911458436113
 30
0.0
 10
171.7613972541494
 20
112.0660364515223
 30
0.0
 10
171.9214222435722
 20
112.6678621358575
 30
0.0
 10
172.0953927111748
 20
113.265791268188
 30
0.0
 10
172.1609931040934
 20
113.4912570415398
 30
0.0
  0
SPLINE
  5
11E
330
1F
100
AcDbEntity
  8
0
  6
Continuous
 62
     7
370
    40
100
AcDbSpline
210
0.0
220
0.0
230
1.0
 70
     8
 71
     3
 72
    48
 73
    44
 74
     0
 42
0.00000001
 43
0.00000001
 12
1.0
 22
0.0
 32
0.0
 13
1.0
 23
0.0
 33
0.0
 40
0.0
 40
0.0
 40
0.0
 40
0.0
 40
0.0156249999999996
 40
0.0156249999999996
 40
0.0312499999999992
 40
0.0312499999999992
 40
0.0624999999999983
 40
0.0624999999999983
 40
0.1249999999999972
 40
0.1249999999999972
 40
0.1874999999999961
 40
0.1874999999999961
 40
0.2031249999999957
 40
0.2031249999999957
 40
0.2187499999999952
 40
0.2187499999999952
 40
0.249999999999995
 40
0.249999999999995
 40
0.3749999999999952
 40
0.3749999999999952
 40
0.4062499999999952
 40
0.4062499999999952
 40
0.4374999999999952
 40
0.4374999999999952
 40
0.4999999999999957
 40
0.4999999999999957
 40
0.5624999999999961
 40
0.5624999999999961
 40
0.6249999999999964
 40
0.6249999999999964
 40
0.7499999999999973
 40
0.7499999999999973
 40
0.8124999999999979
 40
0.8124999999999979
 40
0.8437499999999981
 40
0.8437499999999981
 40
0.8749999999999983
 40
0.8749999999999983
 40
0.937499999999999
 40
0.937499999999999
 40
0.9687499999999996
 40
0.9687499999999996
 40
1.0
 40
1.0
 40
1.0
 40
1.0
 10
170.2386340701377
 20
58.89572951105394
 30
0.0
 10
170.242774712079
 20
59.20269285900602
 30
0.0
 10
170.2468291843234
 20
59.50887227904691
 30
0.0
 10
170.2544426723408
 20
60.11725075217099
 30
0.0
 10
170.2579789652333
 20
60.418902921779
 30
0.0
 10
170.2675563594977
 20
61.31970904297128
 30
0.0
 10
170.2726669051469
 20
61.9148023745661
 30
0.0
 10
170.2849546172887
 20
63.68533895930342
 30
0.0
 10
170.2891063256217
 20
64.84597437287142
 30
0.0
 10
170.2937043446357
 20
67.13856951884831
 30
0.0
 10
170.2941452487725
 20
68.27062070832615
 30
0.0
 10
170.2949493878319
 20
69.67538345668598
 30
0.0
 10
170.2951205379049
 20
69.9558156788329
 30
0.0
 10
170.2955469397566
 20
70.51584757057523
 30
0.0
 10
170.2957996364971
 20
70.79557391477309
 30
0.0
 10
170.2967191367488
 20
71.63658313126108
 30
0.0
 10
170.2975362687636
 20
72.19888615225473
 30
0.0
 10
170.3028909354825
 20
75.01703174003931
 30
0.0
 10
170.3112535288586
 20
77.29299732932589
 30
0.0
 10
170.3306934380757
 20
80.14478891594464
 30
0.0
 10
170.3350811437164
 20
80.71564588680833
 30
0.0
 10
170.344547593472
 20
81.85589483470835
 30
0.0
 10
170.3495717740244
 20
82.42550752093241
 30
0.0
 10
170.3643892961896
 20
84.13321136165416
 30
0.0
 10
170.3739274219087
 20
85.27016929237324
 30
0.0
 10
170.3863121200496
 20
87.54320706254384
 30
0.0
 10
170.3891580614073
 20
88.67928986387508
 30
0.0
 10
170.3821532224606
 20
90.95269686977136
 30
0.0
 10
170.3705217911982
 20
92.09020595150402
 30
0.0
 10
170.3406003800179
 20
95.50348260669317
 30
0.0
 10
170.3289905009782
 20
97.77989915954892
 30
0.0
 10
170.4580489220608
 20
101.1888532178448
 30
0.0
 10
170.5266217590658
 20
102.3244933346538
 30
0.0
 10
170.6667548281679
 20
104.0278651921417
 30
0.0
 10
170.7196394817515
 20
104.5956142770264
 30
0.0
 10
170.8374592571023
 20
105.7310962007186
 30
0.0
 10
170.901827547421
 20
106.298511898896
 30
0.0
 10
171.1246436548852
 20
107.9978317691242
 30
0.0
 10
171.3132496875718
 20
109.1275194692752
 30
0.0
 10
171.7138379074127
 20
110.8168644317484
 30
0.0
 10
171.8683831943754
 20
111.3811883193437
 30
0.0
 10
172.1923431454634
 20
112.5153553375855
 30
0.0
 10
172.3616065527586
 20
113.0847488421455
 30
0.0
 10
172.5240903014771
 20
113.6565653143939
 30
0.0
  0
SPLINE
  5
11F
330
1F
100
AcDbEntity
  8
0
  6
Continuous
 62
     7
370
    40
100
AcDbSpline
210
0.0
220
0.0
230
1.0
 70
     8
 71
     3
 72
    51
 73
    47
 74
     0
 42
0.00000001
 43
0.00000001
 12
1.0
 22
0.0
 32
0.0
 13
1.0
 23
0.0
 33
0.0
 40
0.0
 40
0.0
 40
0.0
 40
0.0
 40
0.0312499999999994
 40
0.0468749999999992
 40
0.0468749999999992
 40
0.062499999999999
 40
0.062499999999999
 40
0.1249999999999984
 40
0.1249999999999984
 40
0.1562499999999982
 40
0.1562499999999982
 40
0.187499999999998
 40
0.187499999999998
 40
0.2187499999999978
 40
0.2187499999999978
 40
0.2499999999999976
 40
0.2499999999999976
 40
0.3124999999999974
 40
0.3124999999999974
 40
0.3749999999999972
 40
0.3749999999999972
 40
0.4374999999999971
 40
0.4374999999999971
 40
0.4999999999999969
 40
0.4999999999999969
 40
0.5624999999999968
 40
0.5624999999999968
 40
0.5937499999999967
 40
0.5937499999999967
 40
0.6249999999999967
 40
0.6249999999999967
 40
0.7499999999999969
 40
0.7499999999999969
 40
0.7812499999999972
 40
0.7812499999999972
 40
0.8124999999999977
 40
0.8124999999999977
 40
0.8749999999999984
 40
0.8749999999999984
 40
0.9374999999999992
 40
0.9374999999999992
 40
0.9687499999999992
 40
0.9687499999999992
 40
0.9843749999999997
 40
0.9843749999999997
 40
1.0
 40
1.0
 40
1.0
 40
1.0
 10
242.9367900437993
 20
113.6565669950785
 30
0.0
 10
243.0992727834542
 20
113.0847504539172
 30
0.0
 10
243.3531661702544
 20
112.2306603590961
 30
0.0
 10
243.5906746867139
 20
111.3817681817007
 30
0.0
 10
243.7418571946012
 20
110.8169669163211
 30
0.0
 10
243.8135460830199
 20
110.5352923707089
 30
0.0
 10
244.1478260632975
 20
109.1274186331117
 30
0.0
 10
244.3362358057038
 20
107.9978333876534
 30
0.0
 10
244.5590516674561
 20
106.2985131926091
 30
0.0
 10
244.6237806677746
 20
105.7311815131339
 30
0.0
 10
244.741527465414
 20
104.5957720997866
 30
0.0
 10
244.7941240773465
 20
104.0278660928949
 30
0.0
 10
244.8875459742887
 20
102.8922847119216
 30
0.0
 10
244.9280832723909
 20
102.3244524495569
 30
0.0
 10
244.9965134247467
 20
101.1886372578021
 30
0.0
 10
245.0239820812819
 20
100.6206114406456
 30
0.0
 10
245.0882514129804
 20
98.91600603816136
 30
0.0
 10
245.1074761499232
 20
97.77895539895887
 30
0.0
 10
245.118193886567
 20
95.50371099803307
 30
0.0
 10
245.1103035145785
 20
94.36572315381483
 30
0.0
 10
245.0903555936212
 20
92.09020546810812
 30
0.0
 10
245.0788381703188
 20
90.95271039026547
 30
0.0
 10
245.071619415507
 20
88.67927790903009
 30
0.0
 10
245.0745645717734
 20
87.54320687169115
 30
0.0
 10
245.0869489114775
 20
85.27016902449478
 30
0.0
 10
245.0964869521331
 20
84.13321130836954
 30
0.0
 10
245.1113041696785
 20
82.42550741629043
 30
0.0
 10
245.1163249433492
 20
81.85581509077254
 30
0.0
 10
245.1257880706918
 20
80.71550129977888
 30
0.0
 10
245.1301822873753
 20
80.144777375532
 30
0.0
 10
245.1496217825496
 20
77.29299291813282
 30
0.0
 10
245.1579842315775
 20
75.01703146678747
 30
0.0
 10
245.163338722675
 20
72.19888568465387
 30
0.0
 10
245.164155501096
 20
71.63659954065302
 30
0.0
 10
245.1653820224427
 20
70.51521944675288
 30
0.0
 10
245.1657594020047
 20
69.95581200292456
 30
0.0
 10
245.1667303033922
 20
68.27072922857437
 30
0.0
 10
245.1671733222044
 20
67.13857406045749
 30
0.0
 10
245.1717647100809
 20
64.84595630724684
 30
0.0
 10
245.1759194206928
 20
63.68534456487681
 30
0.0
 10
245.1882085327311
 20
61.91479702968355
 30
0.0
 10
245.193312194289
 20
61.31968722942887
 30
0.0
 10
245.202909554836
 20
60.419073833157
 30
0.0
 10
245.2064316650364
 20
60.11725723820973
 30
0.0
 10
245.2140452141783
 20
59.50887504989554
 30
0.0
 10
245.2180998438329
 20
59.20269345159215
 30
0.0
 10
245.2222404758532
 20
58.89572960760787
 30
0.0
  0
SPLINE
  5
120
330
1F
100
AcDbEntity
  8
0
  6
Continuous
 62
     7
370
    40
100
AcDbSpline
210
0.0
220
0.0
230
1.0
 70
     8
 71
     3
 72
    32
 73
    28
 74
     0
 42
0.00000001
 43
0.00000001
 12
1.0
 22
0.0
 32
0.0
 13
1.0
 23
0.0
 33
0.0
 40
0.0
 40
0.0
 40
0.0
 40
0.0
 40
0.1250000000000052
 40
0.1250000000000052
 40
0.1875000000000077
 40
0.1875000000000077
 40
0.2500000000000102
 40
0.2500000000000102
 40
0.3750000000000151
 40
0.3750000000000151
 40
0.437500000000016
 40
0.437500000000016
 40
0.5000000000000169
 40
0.5000000000000169
 40
0.6250000000000164
 40
0.6250000000000164
 40
0.656250000000016
 40
0.656250000000016
 40
0.6875000000000157
 40
0.6875000000000157
 40
0.7500000000000122
 40
0.7500000000000122
 40
0.8125000000000089
 40
0.8125000000000089
 40
0.8750000000000054
 40
0.8750000000000054
 40
1.0
 40
1.0
 40
1.0
 40
1.0
 10
245.2222404752991
 20
58.89572946201319
 30
0.0
 10
245.2282444738431
 20
58.45057724579889
 30
0.0
 10
245.193374435457
 20
58.01509215630058
 30
0.0
 10
245.0846755669443
 20
57.3761532597575
 30
0.0
 10
245.0389777576064
 20
57.16556950013064
 30
0.0
 10
244.9287482109269
 20
56.74931947911803
 30
0.0
 10
244.8639046885778
 20
56.54306773568917
 30
0.0
 10
244.6455866470187
 20
55.94416808748133
 30
0.0
 10
244.4679960747217
 20
55.56747029435228
 30
0.0
 10
244.1548170635816
 20
55.03242976318041
 30
0.0
 10
244.0422697299784
 20
54.85872624211312
 30
0.0
 10
243.8019239458239
 20
54.52274665209256
 30
0.0
 10
243.6751800677024
 20
54.36186470866576
 30
0.0
 10
243.2751237397884
 20
53.8992178505429
 30
0.0
 10
242.9822254717781
 20
53.61723073329338
 30
0.0
 10
242.5795253620771
 20
53.29692678186278
 30
0.0
 10
242.497137063002
 20
53.23449277676183
 30
0.0
 10
242.3284832793522
 20
53.11293093229806
 30
0.0
 10
242.2423536242046
 20
53.05391765978457
 30
0.0
 10
241.9804934760158
 20
52.88355157082371
 30
0.0
 10
241.8005501038766
 20
52.77830355240419
 30
0.0
 10
241.4294046243115
 20
52.58442590969452
 30
0.0
 10
241.2382042089189
 20
52.49579523158522
 30
0.0
 10
240.8437024213606
 20
52.33568368439541
 30
0.0
 10
240.639961226194
 20
52.26406846406661
 30
0.0
 10
240.0115385480882
 20
52.07754859384962
 30
0.0
 10
239.5796033552306
 20
51.99343745097089
 30
0.0
 10
239.1336003369237
 20
51.95127026463452
 30
0.0
  0
SPLINE
  5
121
330
1F
100
AcDbEntity
  8
0
  6
Continuous
 62
     7
370
    40
100
AcDbSpline
210
0.0
220
0.0
230
1.0
 70
     8
 71
     3
 72
    37
 73
    33
 74
     0
 42
0.00000001
 43
0.00000001
 12
1.0
 22
0.0
 32
0.0
 13
1.0
 23
0.0
 33
0.0
 40
0.0
 40
0.0
 40
0.0
 40
0.0
 40
0.01176572045125
 40
0.0234497012938995
 40
0.0350519866664778
 40
0.0465726216465223
 40
0.0580116522768611
 40
0.0693691255928039
 40
0.0806450896502758
 40
0.0918395935549312
 40
0.1029526874922915
 40
0.1139844227589449
 40
0.1249348517948559
 40
0.1882332175681767
 40
0.2498671238683327
 40
0.3128513169830072
 40
0.3749478540094267
 40
0.4375824569354579
 40
0.4999471412316232
 40
0.5000000539414889
 40
0.5623312815066059
 40
0.6249356696092674
 40
0.6870245508677192
 40
0.7500055529476248
 40
0.8116773254327606
 40
0.8750204723428133
 40
0.895164555191386
 40
0.9155825657678055
 40
0.9362748188840633
 40
0.957241616998427
 40
0.9784832508408328
 40
1.0
 40
1.0
 40
1.0
 40
1.0
 10
239.1336006922585
 20
51.95127024887733
 30
0.0
 10
238.8889871840883
 20
51.92830066442234
 30
0.0
 10
238.4014595632502
 20
51.88252107136242
 30
0.0
 10
237.6723255148009
 20
51.81610863145722
 30
0.0
 10
236.9480114209449
 20
51.75161682944761
 30
0.0
 10
236.2284954635584
 20
51.68915778684328
 30
0.0
 10
235.5137912595928
 20
51.62866148699422
 30
0.0
 10
234.8039028297599
 20
51.57010645848535
 30
0.0
 10
234.0988365538644
 20
51.51345861602011
 30
0.0
 10
233.398597955049
 20
51.45868747249559
 30
0.0
 10
232.7031927367345
 20
51.4057618520463
 30
0.0
 10
232.0126258403619
 20
51.35465099070748
 30
0.0
 10
230.2325247525546
 20
51.22660143792557
 30
0.0
 10
227.3927232844322
 20
51.04224808451011
 30
0.0
 10
223.4584998253099
 20
50.8333160380623
 30
0.0
 10
219.5434732059629
 20
50.67151751698446
 30
0.0
 10
215.6027991294338
 20
50.55524502177595
 30
0.0
 10
211.6719295401197
 20
50.48559924725139
 30
0.0
 10
209.0434635450428
 20
50.47008095639654
 30
0.0
 10
206.4214504559897
 20
50.47006784606016
 30
0.0
 10
203.7943223935529
 20
50.48554365292112
 30
0.0
 10
199.8649476945702
 20
50.55508757185356
 30
0.0
 10
195.9251278891383
 20
50.67124515500233
 30
0.0
 10
192.0095244811464
 20
50.83297449150579
 30
0.0
 10
188.0736242771673
 20
51.04191440351497
 30
0.0
 10
185.039956488237
 20
51.23881602220624
 30
0.0
 10
182.8714099168022
 20
51.39667390386776
 30
0.0
 10
181.5938571871931
 20
51.49458070276253
 30
0.0
 10
180.3000370538212
 20
51.59873986550007
 30
0.0
 10
178.9900078817267
 20
51.70946927549652
 30
0.0
 10
177.6637139890442
 20
51.82648773687094
 30
0.0
 10
176.7746605688533
 20
51.90949804367086
 30
0.0
 10
176.3272736919771
 20
51.95127024887733
 30
0.0
  0
SPLINE
  5
122
330
1F
100
AcDbEntity
  8
0
  6
Continuous
 62
     7
370
    40
100
AcDbSpline
210
0.0
220
0.0
230
1.0
 70
     8
 71
     3
 72
    38
 73
    34
 74
     0
 42
0.00000001
 43
0.00000001
 12
1.0
 22
0.0
 32
0.0
 13
1.0
 23
0.0
 33
0.0
 40
0.0
 40
0.0
 40
0.0
 40
0.0
 40
0.0101694865385062
 40
0.0203930076211962
 40
0.03067130443172
 40
0.0410050830867681
 40
0.0513950145191996
 40
0.06184173437608
 40
0.0723458429366461
 40
0.0829079050528728
 40
0.0935284501154826
 40
0.1042079720485353
 40
0.114946929335867
 40
0.1257457450828537
 40
0.186209285535876
 40
0.2505617776894464
 40
0.2810742673161227
 40
0.3130440723614221
 40
0.3757860642980174
 40
0.4380543850286647
 40
0.5002766613319407
 40
0.5629018675838005
 40
0.6255009013857572
 40
0.6910195690838735
 40
0.7501098991106598
 40
0.8130204163703063
 40
0.8751984108080213
 40
0.895963496867653
 40
0.9167597861016775
 40
0.9375745732595113
 40
0.9583949349439697
 40
0.9792077965632386
 40
1.0
 40
1.0
 40
1.0
 40
1.0
 10
176.3272736966044
 20
51.95127029781942
 30
0.0
 10
176.2913863736274
 20
51.95482682078091
 30
0.0
 10
176.2194210439913
 20
51.96195876393099
 30
0.0
 10
176.1116082652038
 20
51.97481513617385
 30
0.0
 10
176.0035802506645
 20
51.98930836988401
 30
0.0
 10
175.8954014026018
 20
52.00561166319284
 30
0.0
 10
175.7871017392304
 20
52.02370189018345
 30
0.0
 10
175.6787216990841
 20
52.0436078207867
 30
0.0
 10
175.5703000013025
 20
52.06534302605664
 30
0.0
 10
175.4618769447334
 20
52.08892393008085
 30
0.0
 10
175.3534933089375
 20
52.11436495877993
 30
0.0
 10
175.2451912868031
 20
52.14167950878178
 30
0.0
 10
175.1370116810565
 20
52.17088072727286
 30
0.0
 10
174.8636280554426
 20
52.24959047318497
 30
0.0
 10
174.4223841931629
 20
52.40362573181957
 30
0.0
 10
173.9435412652483
 20
52.62462652678222
 30
0.0
 10
173.5712263609966
 20
52.83041767545668
 30
0.0
 10
173.215984442595
 20
53.04953284371965
 30
0.0
 10
172.7947635747178
 20
53.35340561563719
 30
0.0
 10
172.3322548937598
 20
53.75834290222225
 30
0.0
 10
171.910819061043
 20
54.20276356067087
 30
0.0
 10
171.5307589036776
 20
54.68574564146729
 30
0.0
 10
171.1885222643063
 20
55.21371361833668
 30
0.0
 10
170.8990174294763
 20
55.76678134307567
 30
0.0
 10
170.6570518050618
 20
56.35172414184413
 30
0.0
 10
170.4680712205417
 20
56.95307793058809
 30
0.0
 10
170.3609043327317
 20
57.44661031652664
 30
0.0
 10
170.3057208665298
 20
57.80343582982213
 30
0.0
 10
170.2789597665609
 20
58.01957038646109
 30
0.0
 10
170.2586493752457
 20
58.23722176653427
 30
0.0
 10
170.2450446619092
 20
58.45602971081235
 30
0.0
 10
170.2376000681126
 20
58.67557985374329
 30
0.0
 10
170.238289371476
 20
58.82237055154957
 30
0.0
 10
170.2386338520276
 20
58.89572945742565
 30
0.0
  0
SPLINE
  5
123
330
1F
100
AcDbEntity
  8
0
  6
Continuous
 62
     7
370
    40
100
AcDbSpline
210
0.0
220
0.0
230
1.0
 70
     8
 71
     3
 72
    23
 73
    19
 74
     0
 42
0.00000001
 43
0.00000001
 12
1.0
 22
0.0
 32
0.0
 13
1.0
 23
0.0
 33
0.0
 40
0.0
 40
0.0
 40
0.0
 40
0.0
 40
0.0381832940426965
 40
0.0798622317453919
 40
0.1250390322763628
 40
0.1714115789529206
 40
0.2500770690454253
 40
0.3191544351820132
 40
0.3751067423630835
 40
0.4405069016483222
 40
0.5000908884087931
 40
0.6312312867234525
 40
0.7498914553227076
 40
0.8020718938338957
 40
0.853160871653905
 40
0.9031699990457267
 40
0.9521118821101392
 40
0.9999999999999999
 40
0.9999999999999999
 40
0.9999999999999999
 40
0.9999999999999999
 10
245.3305381284925
 20
90.47006623210353
 30
0.0
 10
245.3305218353983
 20
90.573355945409
 30
0.0
 10
245.3304877575929
 20
90.78939144542885
 30
0.0
 10
245.3304424209664
 20
91.12757710690643
 30
0.0
 10
245.3304229419952
 20
91.48787488436922
 30
0.0
 10
245.3303726655875
 20
91.94813900306357
 30
0.0
 10
245.3304500502427
 20
92.47300452687445
 30
0.0
 10
245.3304501341349
 20
93.02378492766397
 30
0.0
 10
245.3304335193525
 20
93.53876427534409
 30
0.0
 10
245.3304468504767
 20
94.0281753613071
 30
0.0
 10
245.3304243250047
 20
94.72112899806129
 30
0.0
 10
245.3305063776608
 20
95.5585637348768
 30
0.0
 10
245.3304157023616
 20
96.37625085134479
 30
0.0
 10
245.330460682594
 20
96.97701451738251
 30
0.0
 10
245.3304741953173
 20
97.39179326112084
 30
0.0
 10
245.3304678678108
 20
97.7975589437679
 30
0.0
 10
245.3304462992126
 20
98.19437748464806
 30
0.0
 10
245.3304402057116
 20
98.45565496156638
 30
0.0
 10
245.3304371921178
 20
98.58487200683462
 30
0.0
  0
SPLINE
  5
124
330
1F
100
AcDbEntity
  8
0
  6
Continuous
 62
     7
370
    40
100
AcDbSpline
210
0.0
220
0.0
230
1.0
 70
     8
 71
     3
 72
    16
 73
    12
 74
     0
 42
0.00000001
 43
0.00000001
 12
1.0
 22
0.0
 32
0.0
 13
1.0
 23
0.0
 33
0.0
 40
0.0
 40
0.0
 40
0.0
 40
0.0
 40
0.0457708359039451
 40
0.1527376355122905
 40
0.3666740430552244
 40
0.5247690568924146
 40
0.6829094077673107
 40
0.7619047285849558
 40
0.8408888178623501
 40
0.9204644030441881
 40
1.0
 40
1.0
 40
1.0
 40
1.0
 10
245.3285992409697
 20
81.50870541196605
 30
0.0
 10
245.3292123442534
 20
81.16201666891362
 30
0.0
 10
245.331258274681
 20
80.00511363608106
 30
0.0
 10
245.3361335747545
 20
77.22796646824654
 30
0.0
 10
245.3329436620782
 20
73.59974327660255
 30
0.0
 10
245.3294990715107
 20
69.58419889709916
 30
0.0
 10
245.3293460440876
 20
66.59330677638344
 30
0.0
 10
245.3297416610351
 20
64.19869960285813
 30
0.0
 10
245.3301491433253
 20
62.39965214073442
 30
0.0
 10
245.330452304261
 20
60.5974491769276
 30
0.0
 10
245.3304897158997
 20
59.40379772417289
 30
0.0
 10
245.3305084170179
 20
58.80712199355149
 30
0.0
  0
LINE
  5
125
330
1F
100
AcDbEntity
  8
0
  6
Continuous
 62
     7
370
    40
100
AcDbLine
 10
243.2998812801
 20
113.4912570415
 30
0.0
 11
243.8066421221
 21
111.6931087367
 31
0.0
  0
LINE
  5
126
330
1F
100
AcDbEntity
  8
0
  6
Continuous
 62
     7
370
    40
100
AcDbLine
 10
245.3304371921
 20
98.5848720068
 30
0.0
 11
245.3275744277
 21
98.9670124982
 31
0.0
  0
SPLINE
  5
127
330
1F
100
AcDbEntity
  8
0
  6
Continuous
 62
     7
370
    40
100
AcDbSpline
210
0.0
220
0.0
230
1.0
 70
     8
 71
     3
 72
     8
 73
     4
 74
     0
 42
0.00000001
 43
0.00000001
 12
1.0
 22
0.0
 32
0.0
 13
1.0
 23
0.0
 33
0.0
 40
0.0
 40
0.0
 40
0.0
 40
0.0
 40
1.0
 40
1.0
 40
1.0
 40
1.0
 10
239.1336006876337
 20
51.95127029779255
 30
0.0
 10
239.1732100137608
 20
51.9550151958701
 30
0.0
 10
239.2101061866634
 20
51.95851068277101
 30
0.0
 10
239.2429380379499
 20
51.96162565279945
 30
0.0
  0
SPLINE
  5
128
330
1F
100
AcDbEntity
  8
0
  6
Continuous
 62
     7
370
    40
100
AcDbSpline
210
0.0
220
0.0
230
1.0
 70
     8
 71
     3
 72
    36
 73
    32
 74
     0
 42
0.00000001
 43
0.00000001
 12
1.0
 22
0.0
 32
0.0
 13
1.0
 23
0.0
 33
0.0
 40
0.0
 40
0.0
 40
0.0
 40
0.0
 40
0.1250000000000077
 40
0.1250000000000077
 40
0.1875000000000102
 40
0.1875000000000102
 40
0.2500000000000127
 40
0.2500000000000127
 40
0.3750000000000149
 40
0.3750000000000149
 40
0.4062500000000145
 40
0.4062500000000145
 40
0.4375000000000141
 40
0.4375000000000141
 40
0.5000000000000141
 40
0.5000000000000141
 40
0.6250000000000139
 40
0.6250000000000139
 40
0.6562500000000133
 40
0.6562500000000133
 40
0.6875000000000127
 40
0.6875000000000127
 40
0.7500000000000102
 40
0.7500000000000102
 40
0.8125000000000078
 40
0.8125000000000078
 40
0.8437500000000058
 40
0.8437500000000058
 40
0.8750000000000038
 40
0.8750000000000038
 40
1.0
 40
1.0
 40
1.0
 40
1.0
 10
245.3305348343821
 20
58.80712160782687
 30
0.0
 10
245.3304738467901
 20
58.36300592378573
 30
0.0
 10
245.2898951713786
 20
57.92981160815022
 30
0.0
 10
245.1739317959986
 20
57.29641976573112
 30
0.0
 10
245.1260318143482
 20
57.08803847342339
 30
0.0
 10
245.0120382528386
 20
56.67697626621301
 30
0.0
 10
244.9456446095265
 20
56.47373511883328
 30
0.0
 10
244.7240456435277
 20
55.88492699383563
 30
0.0
 10
244.5457212969535
 20
55.51582214637362
 30
0.0
 10
244.2852779749172
 20
55.07935832876086
 30
0.0
 10
244.231290067763
 20
54.9933251006075
 30
0.0
 10
244.1194445040777
 20
54.82372014120456
 30
0.0
 10
244.0614604784272
 20
54.73997878141511
 30
0.0
 10
243.8826008454473
 20
54.49382017473817
 30
0.0
 10
243.7569820694656
 20
54.33657560124516
 30
0.0
 10
243.3606908478214
 20
53.88406641033956
 30
0.0
 10
243.0708185487795
 20
53.60780184500612
 30
0.0
 10
242.6720244999876
 20
53.29329924177353
 30
0.0
 10
242.5904241234183
 20
53.23195832690826
 30
0.0
 10
242.4233481616629
 20
53.11244836613716
 30
0.0
 10
242.3379737324834
 20
53.05436861361817
 30
0.0
 10
242.0783237731461
 20
52.88657768956806
 30
0.0
 10
241.8997726750725
 20
52.78274418075002
 30
0.0
 10
241.5311796787119
 20
52.59117798064569
 30
0.0
 10
241.3411402079739
 20
52.50344373043244
 30
0.0
 10
241.0467775972601
 20
52.384381896374
 30
0.0
 10
240.9471033844769
 20
52.34678913930249
 30
0.0
 10
240.7444946618584
 20
52.27593099739124
 30
0.0
 10
240.6413338787088
 20
52.24259973986893
 30
0.0
 10
240.1195950774242
 20
52.08800411551878
 30
0.0
 10
239.6886640997355
 20
52.00391465136773
 30
0.0
 10
239.2429379446681
 20
51.96162564394919
 30
0.0
  0
SPLINE
  5
129
330
1F
100
AcDbEntity
  8
0
  6
Continuous
 62
     7
370
    40
100
AcDbSpline
210
0.0
220
0.0
230
1.0
 70
     8
 71
     3
 72
     8
 73
     4
 74
     0
 42
0.00000001
 43
0.00000001
 12
1.0
 22
0.0
 32
0.0
 13
1.0
 23
0.0
 33
0.0
 40
0.0
 40
0.0
 40
0.0
 40
0.0
 40
1.0
 40
1.0
 40
1.0
 40
1.0
 10
176.217936346234
 20
51.96162565278163
 30
0.0
 10
176.250768642552
 20
51.95851064053542
 30
0.0
 10
176.2876650054858
 20
51.95501513589932
 30
0.0
 10
176.3272736966044
 20
51.95127029781942
 30
0.0
  0
LINE
  5
12A
330
1F
100
AcDbEntity
  8
0
  6
Continuous
 62
     7
370
    40
100
AcDbLine
 10
176.2179364395
 20
51.9616256439
 30
0.0
 11
176.1506401074
 21
51.9736125245
 31
0.0
  0
SPLINE
  5
12B
330
1F
100
AcDbEntity
  8
0
  6
Continuous
 62
     7
370
    40
100
AcDbSpline
210
0.0
220
0.0
230
1.0
 70
     8
 71
     3
 72
    17
 73
    13
 74
     0
 42
0.00000001
 43
0.00000001
 12
1.0
 22
0.0
 32
0.0
 13
1.0
 23
0.0
 33
0.0
 40
0.0
 40
0.0
 40
0.0
 40
0.0
 40
0.0274826539991716
 40
0.1479489164605913
 40
0.2482550699072648
 40
0.3505648764139123
 40
0.4720253006759778
 40
0.5962382755424869
 40
0.7324939945057882
 40
0.8032296111296149
 40
0.8739617565151812
 40
1.0
 40
1.0
 40
1.0
 40
1.0
 10
175.3769809434015
 20
52.11141736051243
 30
0.0
 10
175.2892775322355
 20
52.12581745116017
 30
0.0
 10
174.817138827862
 20
52.20333826877592
 30
0.0
 10
174.0905972052206
 20
52.49994594243628
 30
0.0
 10
173.2190924032756
 20
52.9643518088495
 30
0.0
 10
172.4404600915099
 20
53.54697301144893
 30
0.0
 10
171.715634307774
 20
54.28020306268753
 30
0.0
 10
171.0607713766277
 20
55.2075958562117
 30
0.0
 10
170.6268151429725
 20
56.11731929615046
 30
0.0
 10
170.3663781416582
 20
56.9409822820865
 30
0.0
 10
170.1796126613341
 20
57.76640156339376
 30
0.0
 10
170.1495778371861
 20
58.40136252276744
 30
0.0
 10
170.1303394929377
 20
58.80807699063186
 30
0.0
  0
ELLIPSE
  5
12C
330
1F
100
AcDbEntity
  8
0
  6
Continuous
 62
     7
370
    40
100
AcDbEllipse
 10
169.4602532069
 20
129.4970402853
 30
0.0
 11
0.0
 21
6.099999999999994
 31
0.0
210
0.0
220
0.0
230
1.0
 40
0.1583844403
 41
3.772854548531355
 42
3.80664376408691
  0
LINE
  5
12D
330
1F
100
AcDbEntity
  8
0
  6
Continuous
 62
     7
370
    40
100
AcDbLine
 10
170.0304371921
 20
124.5726113844
 30
0.0
 11
170.0304371921
 21
135.5970402853
 31
0.0
  0
LINE
  5
12E
330
1F
100
AcDbEntity
  8
0
  6
Continuous
 62
     7
370
    40
100
AcDbLine
 10
186.4304371921
 20
123.3970402853
 30
0.0
 11
186.4304371921
 21
135.5970402853
 31
0.0
  0
LINE
  5
12F
330
1F
100
AcDbEntity
  8
0
  6
Continuous
 62
     7
370
    40
100
AcDbLine
 10
170.1555847641
 20
81.4970402853
 30
0.0
 11
170.1733519185
 21
81.4970402853
 31
0.0
  0
LINE
  5
130
330
1F
100
AcDbEntity
  8
0
  6
Continuous
 62
     7
370
    40
100
AcDbLine
 10
170.1555847641
 20
124.6970402853
 30
0.0
 11
170.1555847641
 21
81.4970402853
 31
0.0
  0
LINE
  5
131
330
1F
100
AcDbEntity
  8
0
  6
Continuous
 62
     7
370
    40
100
AcDbLine
 10
173.7112627903
 20
124.3223299012
 30
0.0
 11
173.7112627903
 21
118.2246156392
 31
0.0
  0
ARC
  5
132
330
1F
100
AcDbEntity
  8
0
  6
Continuous
 62
     7
370
    40
100
AcDbCircle
 10
174.9090448189
 20
118.219498683
 30
0.0
 40
1.197792958478972
100
AcDbArc
 50
179.755232416
 51
249.5387817902
  0
LINE
  5
133
330
1F
100
AcDbEntity
  8
0
  6
Continuous
 62
     7
370
    40
100
AcDbLine
 10
170.1555847641
 20
124.6970402853
 30
0.0
 11
170.9555847641
 21
124.6970402853
 31
0.0
  0
SPLINE
  5
134
330
1F
100
AcDbEntity
  8
0
  6
Continuous
 62
     7
370
    40
100
AcDbSpline
210
0.0
220
0.0
230
1.0
 70
     8
 71
     3
 72
     8
 73
     4
 74
     0
 42
0.00000001
 43
0.00000001
 12
1.0
 22
0.0
 32
0.0
 13
1.0
 23
0.0
 33
0.0
 40
0.0
 40
0.0
 40
0.0
 40
0.0
 40
1.0
 40
1.0
 40
1.0
 40
1.0
 10
170.9505751780418
 20
124.605135933442
 30
0.0
 10
171.8442138314481
 20
124.5046540307127
 30
0.0
 10
172.7660708006518
 20
124.4101851730384
 30
0.0
 10
173.7112627902924
 20
124.3223299012183
 30
0.0
  0
LINE
  5
135
330
1F
100
AcDbEntity
  8
0
  6
Continuous
 62
     7
370
    40
100
AcDbLine
 10
170.1555847641
 20
81.4970402853
 30
0.0
 11
170.0304371921
 21
81.4970402853
 31
0.0
  0
LINE
  5
136
330
1F
100
AcDbEntity
  8
0
  6
Continuous
 62
     7
370
    40
100
AcDbLine
 10
170.0564607131
 20
124.6970402853
 30
0.0
 11
170.1555847641
 21
124.6970402853
 31
0.0
  0
LINE
  5
137
330
1F
100
AcDbEntity
  8
0
  6
Continuous
 62
     7
370
    40
100
AcDbLine
 10
170.0304371921
 20
81.4970402853
 30
0.0
 11
170.0304371921
 21
124.5726113844
 31
0.0
  0
ELLIPSE
  5
138
330
1F
100
AcDbEntity
  8
0
  6
Continuous
 62
     7
370
    40
100
AcDbEllipse
 10
246.0006211773
 20
129.4970402853
 30
0.0
 11
0.0
 21
6.099999999999994
 31
0.0
210
0.0
220
0.0
230
1.0
 40
0.1583844403
 41
2.47654154309277
 42
2.510330758648328
  0
LINE
  5
139
330
1F
100
AcDbEntity
  8
0
  6
Continuous
 62
     7
370
    40
100
AcDbLine
 10
245.4304371921
 20
135.5970402853
 30
0.0
 11
245.4304371921
 21
124.5726113844
 31
0.0
  0
LINE
  5
13A
330
1F
100
AcDbEntity
  8
0
  6
Continuous
 62
     7
370
    40
100
AcDbLine
 10
229.0304371921
 20
135.5970402853
 30
0.0
 11
229.0304371921
 21
123.3970402853
 31
0.0
  0
LINE
  5
13B
330
1F
100
AcDbEntity
  8
0
  6
Continuous
 62
     7
370
    40
100
AcDbLine
 10
245.2875224657
 20
81.4970402853
 30
0.0
 11
245.3052896201
 21
81.4970402853
 31
0.0
  0
ARC
  5
13C
330
1F
100
AcDbEntity
  8
0
  6
Continuous
 62
     7
370
    40
100
AcDbCircle
 10
240.5519298216
 20
118.2194609815
 30
0.0
 40
1.197692864752988
100
AcDbArc
 50
290.0310894731
 51
0.2465916365
  0
LINE
  5
13D
330
1F
100
AcDbEntity
  8
0
  6
Continuous
 62
     7
370
    40
100
AcDbLine
 10
241.7496115939
 20
118.2246156392
 30
0.0
 11
241.7496115939
 21
124.3223299012
 31
0.0
  0
LINE
  5
13E
330
1F
100
AcDbEntity
  8
0
  6
Continuous
 62
     7
370
    40
100
AcDbLine
 10
245.3052896201
 20
81.4970402853
 30
0.0
 11
245.3052896201
 21
124.6970402853
 31
0.0
  0
SPLINE
  5
13F
330
1F
100
AcDbEntity
  8
0
  6
Continuous
 62
     7
370
    40
100
AcDbSpline
210
0.0
220
0.0
230
1.0
 70
     8
 71
     3
 72
     8
 73
     4
 74
     0
 42
0.00000001
 43
0.00000001
 12
1.0
 22
0.0
 32
0.0
 13
1.0
 23
0.0
 33
0.0
 40
0.0
 40
0.0
 40
0.0
 40
0.0
 40
1.0
 40
1.0
 40
1.0
 40
1.0
 10
241.7496115939431
 20
124.3223299012183
 30
0.0
 10
242.6948035835837
 20
124.4101851730384
 30
0.0
 10
243.6166605527877
 20
124.5046540307126
 30
0.0
 10
244.5102992061937
 20
124.605135933442
 30
0.0
  0
LINE
  5
140
330
1F
100
AcDbEntity
  8
0
  6
Continuous
 62
     7
370
    40
100
AcDbLine
 10
244.5052896201
 20
124.6970402853
 30
0.0
 11
245.3052896201
 21
124.6970402853
 31
0.0
  0
LINE
  5
141
330
1F
100
AcDbEntity
  8
0
  6
Continuous
 62
     7
370
    40
100
AcDbLine
 10
245.3052896201
 20
81.4970402853
 30
0.0
 11
245.4304371921
 21
81.4970402853
 31
0.0
  0
LINE
  5
142
330
1F
100
AcDbEntity
  8
0
  6
Continuous
 62
     7
370
    40
100
AcDbLine
 10
245.3052896201
 20
124.6970402853
 30
0.0
 11
245.4044136711
 21
124.6970402853
 31
0.0
  0
LINE
  5
143
330
1F
100
AcDbEntity
  8
0
  6
Continuous
 62
     7
370
    40
100
AcDbLine
 10
245.4304371921
 20
124.5726113844
 30
0.0
 11
245.4304371921
 21
81.4970402853
 31
0.0
  0
LINE
  5
144
330
1F
100
AcDbEntity
  8
0
  6
Continuous
 62
     7
370
    40
100
AcDbLine
 10
245.7304371921
 20
135.1108473919
 30
0.0
 11
245.7304371921
 21
123.0970402853
 31
0.0
  0
LINE
  5
145
330
1F
100
AcDbEntity
  8
0
  6
Continuous
 62
     7
370
    40
100
AcDbLine
 10
249.1304371921
 20
135.1108473919
 30
0.0
 11
249.1304371921
 21
123.0970402853
 31
0.0
  0
LINE
  5
146
330
1F
100
AcDbEntity
  8
0
  6
Continuous
 62
     7
370
    40
100
AcDbLine
 10
228.3304371921
 20
135.4970402853
 30
0.0
 11
228.3304371921
 21
123.4970402853
 31
0.0
  0
LINE
  5
147
330
1F
100
AcDbEntity
  8
0
  6
Continuous
 62
     7
370
    40
100
AcDbLine
 10
245.7304371921
 20
138.0970402853
 30
0.0
 11
245.7304371921
 21
135.1108473919
 31
0.0
  0
LINE
  5
148
330
1F
100
AcDbEntity
  8
0
  6
Continuous
 62
     7
370
    40
100
AcDbLine
 10
249.1304371921
 20
138.0970402853
 30
0.0
 11
249.1304371921
 21
135.1108473919
 31
0.0
  0
LINE
  5
149
330
1F
100
AcDbEntity
  8
0
  6
Continuous
 62
     7
370
    40
100
AcDbLine
 10
169.7304371921
 20
135.1108473919
 30
0.0
 11
169.7304371921
 21
123.0970402853
 31
0.0
  0
LINE
  5
14A
330
1F
100
AcDbEntity
  8
0
  6
Continuous
 62
     7
370
    40
100
AcDbLine
 10
166.3304371921
 20
135.1108473919
 30
0.0
 11
166.3304371921
 21
123.0970402853
 31
0.0
  0
LINE
  5
14B
330
1F
100
AcDbEntity
  8
0
  6
Continuous
 62
     7
370
    40
100
AcDbLine
 10
187.1304371921
 20
135.4970402853
 30
0.0
 11
187.1304371921
 21
123.4970402853
 31
0.0
  0
LINE
  5
14C
330
1F
100
AcDbEntity
  8
0
  6
Continuous
 62
     7
370
    40
100
AcDbLine
 10
169.7304371921
 20
138.0970402853
 30
0.0
 11
169.7304371921
 21
135.1108473919
 31
0.0
  0
LINE
  5
14D
330
1F
100
AcDbEntity
  8
0
  6
Continuous
 62
     7
370
    40
100
AcDbLine
 10
166.3304371921
 20
138.0970402853
 30
0.0
 11
166.3304371921
 21
135.1108473919
 31
0.0
  0
SPLINE
  5
14E
330
1F
100
AcDbEntity
  8
0
  6
Continuous
 62
     7
370
    40
100
AcDbSpline
210
0.0
220
0.0
230
1.0
 70
     8
 71
     3
 72
    63
 73
    59
 74
     0
 42
0.00000001
 43
0.00000001
 12
1.0
 22
0.0
 32
0.0
 13
1.0
 23
0.0
 33
0.0
 40
0.0
 40
0.0
 40
0.0
 40
0.0
 40
0.0125362109324749
 40
0.0278800640611358
 40
0.0403581858005309
 40
0.049970755417297
 40
0.057654361549087
 40
0.0653390773851868
 40
0.077266083381936
 40
0.0900814884228101
 40
0.1041585639700373
 40
0.1197948667621028
 40
0.1367490738480834
 40
0.1526497763434589
 40
0.1672839268813572
 40
0.1808606190596838
 40
0.1936700310993631
 40
0.2060227299159476
 40
0.2172354157604746
 40
0.2256621351062193
 40
0.2319904181357846
 40
0.2397761997432852
 40
0.2495296458919581
 40
0.2612518361388264
 40
0.2749434561088889
 40
0.2958519105222907
 40
0.320036610134915
 40
0.3452547864833445
 40
0.4133939659590595
 40
0.4824056412902173
 40
0.5267832409579323
 40
0.5715231724127054
 40
0.6153121245611648
 40
0.6559541252503468
 40
0.6759743960568821
 40
0.6951233324244613
 40
0.7134016415622334
 40
0.7308101618510537
 40
0.7473498907985294
 40
0.7623834490826713
 40
0.7727484886952238
 40
0.780801885845672
 40
0.7839623595022647
 40
0.7869103869788635
 40
0.7905993825727261
 40
0.795179466629888
 40
0.8044751096366071
 40
0.8162449676887334
 40
0.8301656419385582
 40
0.8440758814122561
 40
0.8577109516975044
 40
0.8800162769625465
 40
0.9021018882577061
 40
0.9244035541492543
 40
0.9423709449149456
 40
0.9618401484829289
 40
0.9829140763733495
 40
0.9999999999999999
 40
0.9999999999999999
 40
0.9999999999999999
 40
0.9999999999999999
 10
245.1687290796384
 20
24.26343603441395
 30
0.0
 10
244.839562668189
 20
24.21918978853614
 30
0.0
 10
244.1075088851587
 20
24.12078779321372
 30
0.0
 10
243.0470547617903
 20
23.98455264078984
 30
0.0
 10
242.0627823716117
 20
23.86159852795655
 30
0.0
 10
241.2801707324321
 20
23.76621986819375
 30
0.0
 10
240.6217631899413
 20
23.68820261620519
 30
0.0
 10
239.9137894849155
 20
23.6098337142618
 30
0.0
 10
239.1092957194379
 20
23.52783636881806
 30
0.0
 10
238.2299274861024
 20
23.44724925258016
 30
0.0
 10
237.3692607093949
 20
23.37578365168687
 30
0.0
 10
236.5307472160429
 20
23.31123410638876
 30
0.0
 10
235.7734638732674
 20
23.25402178042959
 30
0.0
 10
234.921641862599
 20
23.18475894964499
 30
0.0
 10
234.0432442409849
 20
23.11475332453906
 30
0.0
 10
233.1352918537588
 20
23.04742702569127
 30
0.0
 10
232.2024992430019
 20
22.98332091696734
 30
0.0
 10
231.2657228277988
 20
22.92339900546619
 30
0.0
 10
230.424676649068
 20
22.87332202467877
 30
0.0
 10
229.7439886630094
 20
22.83467327359283
 30
0.0
 10
229.1503079080363
 20
22.80223273804663
 30
0.0
 10
228.5205607941922
 20
22.76898540375309
 30
0.0
 10
227.7478657886795
 20
22.72988612312328
 30
0.0
 10
226.8186781842449
 20
22.68526731882442
 30
0.0
 10
225.594253620955
 20
22.63010022337054
 30
0.0
 10
224.0397986259472
 20
22.56616389352046
 30
0.0
 10
222.1799710505168
 20
22.49886708881331
 30
0.0
 10
219.0696030085827
 20
22.40230984643022
 30
0.0
 10
214.7701286166955
 20
22.30843342455753
 30
0.0
 10
209.9609740720493
 20
22.26281971721398
 30
0.0
 10
205.771415670378
 20
22.26452428870165
 30
0.0
 10
202.2504123786375
 20
22.29341245801064
 30
0.0
 10
198.8291377588715
 20
22.34859135799122
 30
0.0
 10
196.0634998949267
 20
22.41493898920929
 30
0.0
 10
193.9511444550174
 20
22.47810169380949
 30
0.0
 10
192.4311947916624
 20
22.52955571190494
 30
0.0
 10
190.9809423748201
 20
22.5843291890581
 30
0.0
 10
189.6003847561631
 20
22.64184701239646
 30
0.0
 10
188.3063974619138
 20
22.7007802952064
 30
0.0
 10
187.1992758366675
 20
22.75540255518887
 30
0.0
 10
186.3167084968979
 20
22.80177004501625
 30
0.0
 10
185.7480221072936
 20
22.83303301052934
 30
0.0
 10
185.3751868649977
 20
22.8540888008964
 30
0.0
 10
185.1181317244963
 20
22.86888978848374
 30
0.0
 10
184.8494562831334
 20
22.88474663732126
 30
0.0
 10
184.4592166061948
 20
22.9077795038395
 30
0.0
 10
183.9372355063582
 20
22.93766851515195
 30
0.0
 10
183.2694391115197
 20
22.9765509931916
 30
0.0
 10
182.5581265656474
 20
23.02002124430664
 30
0.0
 10
181.7509279635686
 20
23.07343766918983
 30
0.0
 10
180.724936605527
 20
23.14679449469978
 30
0.0
 10
179.4423456835197
 20
23.2476197463143
 30
0.0
 10
177.8629855442884
 20
23.38714443140343
 30
0.0
 10
176.3092486810707
 20
23.5403243079695
 30
0.0
 10
174.7757976716301
 20
23.70605684881645
 30
0.0
 10
173.2529486854316
 20
23.88330980277526
 30
0.0
 10
171.7427079151714
 20
24.07007590312512
 30
0.0
 10
170.7406724058552
 20
24.20405513853823
 30
0.0
 10
170.2920149425076
 20
24.26404381493026
 30
0.0
  0
LINE
  5
14F
330
1F
100
AcDbEntity
  8
0
  6
Continuous
 62
     7
370
    40
100
AcDbLine
 10
170.1443748518
 20
23.2024581104
 30
0.0
 11
170.1300130665
 21
23.1391567557
 31
0.0
  0
LINE
  5
150
330
1F
100
AcDbEntity
  8
0
  6
Continuous
 62
     7
370
    40
100
AcDbLine
 10
170.2780949803
 20
24.2669365692
 30
0.0
 11
170.2747702094
 21
24.2399410364
 31
0.0
  0
SPLINE
  5
151
330
1F
100
AcDbEntity
  8
0
  6
Continuous
 62
     7
370
    40
100
AcDbSpline
210
0.0
220
0.0
230
1.0
 70
     8
 71
     3
 72
     9
 73
     5
 74
     0
 42
0.00000001
 43
0.00000001
 12
1.0
 22
0.0
 32
0.0
 13
1.0
 23
0.0
 33
0.0
 40
0.0
 40
0.0
 40
0.0
 40
0.0
 40
0.3357699973289129
 40
1.0
 40
1.0
 40
1.0
 40
1.0
 10
170.2424193908302
 20
23.9772680303041
 30
0.0
 10
170.230770432009
 20
23.88194643095557
 30
0.0
 10
170.1960771630635
 20
23.59805686337411
 30
0.0
 10
170.1565042985168
 20
23.29417681663687
 30
0.0
 10
170.1302188145932
 20
23.09233057238089
 30
0.0
  0
SPLINE
  5
152
330
1F
100
AcDbEntity
  8
0
  6
Continuous
 62
     7
370
    40
100
AcDbSpline
210
0.0
220
0.0
230
1.0
 70
     8
 71
     3
 72
     9
 73
     5
 74
     0
 42
0.00000001
 43
0.00000001
 12
1.0
 22
0.0
 32
0.0
 13
1.0
 23
0.0
 33
0.0
 40
0.0
 40
0.0
 40
0.0
 40
0.0
 40
0.6677959760841755
 40
1.0
 40
1.0
 40
1.0
 40
1.0
 10
245.3308663658186
 20
23.09072199714847
 30
0.0
 10
245.3045395094776
 20
23.29285869312942
 30
0.0
 10
245.2651160069651
 20
23.59555098721339
 30
0.0
 10
245.2305533192918
 20
23.87833541213214
 30
0.0
 10
245.2190714553694
 20
23.97227753599087
 30
0.0
  0
LINE
  5
153
330
1F
100
AcDbEntity
  8
0
  6
Continuous
 62
     7
370
    40
100
AcDbLine
 10
245.1849848404
 20
24.249030954
 30
0.0
 11
245.182779586
 21
24.2669356859
 31
0.0
  0
LINE
  5
154
330
1F
100
AcDbEntity
  8
0
  6
Continuous
 62
     7
370
    40
100
AcDbLine
 10
245.3308610117
 20
23.1391545614
 30
0.0
 11
245.3165078465
 21
23.2024178049
 31
0.0
  0
LINE
  5
155
330
1F
100
AcDbEntity
  8
0
  6
Continuous
 62
     7
370
    40
100
AcDbLine
 10
170.0304371921
 20
12.7486075613
 30
0.0
 11
170.8304371921
 21
12.7486075613
 31
0.0
  0
LINE
  5
156
330
1F
100
AcDbEntity
  8
0
  6
Continuous
 62
     7
370
    40
100
AcDbLine
 10
170.0304371921
 20
12.6796831425
 30
0.0
 11
186.4304371921
 21
12.6796831425
 31
0.0
  0
LINE
  5
157
330
1F
100
AcDbEntity
  8
0
  6
Continuous
 62
     7
370
    40
100
AcDbLine
 10
186.4304371921
 20
24.8796831425
 30
0.0
 11
170.0304371921
 21
24.8796831425
 31
0.0
  0
LINE
  5
158
330
1F
100
AcDbEntity
  8
0
  6
Continuous
 62
     7
370
    40
100
AcDbLine
 10
244.6304371921
 20
12.7486075613
 30
0.0
 11
245.4304371921
 21
12.7486075613
 31
0.0
  0
LINE
  5
159
330
1F
100
AcDbEntity
  8
0
  6
Continuous
 62
     7
370
    40
100
AcDbLine
 10
245.4304371921
 20
24.8796831425
 30
0.0
 11
229.0304371921
 21
24.8796831425
 31
0.0
  0
LINE
  5
15A
330
1F
100
AcDbEntity
  8
0
  6
Continuous
 62
     7
370
    40
100
AcDbLine
 10
229.0304371921
 20
12.6796831425
 30
0.0
 11
245.4304371921
 21
12.6796831425
 31
0.0
  0
LINE
  5
15B
330
1F
100
AcDbEntity
  8
0
  6
Continuous
 62
     7
370
    40
100
AcDbLine
 10
245.7304371921
 20
12.3796831425
 30
0.0
 11
249.1304371921
 21
12.3796831425
 31
0.0
  0
LINE
  5
15C
330
1F
100
AcDbEntity
  8
0
  6
Continuous
 62
     7
370
    40
100
AcDbLine
 10
245.7304371921
 20
24.7796831425
 30
0.0
 11
245.4304371921
 21
24.7796831425
 31
0.0
  0
LINE
  5
15D
330
1F
100
AcDbEntity
  8
0
  6
Continuous
 62
     7
370
    40
100
AcDbLine
 10
229.0304371921
 20
24.7796831425
 30
0.0
 11
228.3304371921
 21
24.7796831425
 31
0.0
  0
LINE
  5
15E
330
1F
100
AcDbEntity
  8
0
  6
Continuous
 62
     7
370
    40
100
AcDbLine
 10
228.3304371921
 20
12.7796831425
 30
0.0
 11
229.0304371921
 21
12.7796831425
 31
0.0
  0
LINE
  5
15F
330
1F
100
AcDbEntity
  8
0
  6
Continuous
 62
     7
370
    40
100
AcDbLine
 10
245.4304371921
 20
12.7796831425
 30
0.0
 11
245.7304371921
 21
12.7796831425
 31
0.0
  0
LINE
  5
160
330
1F
100
AcDbEntity
  8
0
  6
Continuous
 62
     7
370
    40
100
AcDbLine
 10
249.1304371921
 20
27.3796831425
 30
0.0
 11
245.7304371921
 21
27.3796831425
 31
0.0
  0
LINE
  5
161
330
1F
100
AcDbEntity
  8
0
  6
Continuous
 62
     7
370
    40
100
AcDbLine
 10
166.3304371921
 20
12.3796831425
 30
0.0
 11
169.7304371921
 21
12.3796831425
 31
0.0
  0
LINE
  5
162
330
1F
100
AcDbEntity
  8
0
  6
Continuous
 62
     7
370
    40
100
AcDbLine
 10
169.7304371921
 20
12.7796831425
 30
0.0
 11
170.0304371921
 21
12.7796831425
 31
0.0
  0
LINE
  5
163
330
1F
100
AcDbEntity
  8
0
  6
Continuous
 62
     7
370
    40
100
AcDbLine
 10
186.4304371921
 20
12.7796831425
 30
0.0
 11
187.1304371921
 21
12.7796831425
 31
0.0
  0
LINE
  5
164
330
1F
100
AcDbEntity
  8
0
  6
Continuous
 62
     7
370
    40
100
AcDbLine
 10
187.1304371921
 20
24.7796831425
 30
0.0
 11
186.4304371921
 21
24.7796831425
 31
0.0
  0
LINE
  5
165
330
1F
100
AcDbEntity
  8
0
  6
Continuous
 62
     7
370
    40
100
AcDbLine
 10
170.0304371921
 20
24.7796831425
 30
0.0
 11
169.7304371921
 21
24.7796831425
 31
0.0
  0
LINE
  5
166
330
1F
100
AcDbEntity
  8
0
  6
Continuous
 62
     7
370
    40
100
AcDbLine
 10
169.7304371921
 20
27.3796831425
 30
0.0
 11
166.3304371921
 21
27.3796831425
 31
0.0
  0
SPLINE
  5
167
330
1F
100
AcDbEntity
  8
0
  6
Continuous
 62
     7
370
    40
100
AcDbSpline
210
0.0
220
0.0
230
1.0
 70
     8
 71
     3
 72
    11
 73
     7
 74
     0
 42
0.00000001
 43
0.00000001
 12
1.0
 22
0.0
 32
0.0
 13
1.0
 23
0.0
 33
0.0
 40
0.0
 40
0.0
 40
0.0
 40
0.0
 40
0.2075442286330472
 40
0.4155831871066398
 40
0.808980496400253
 40
0.9999999999999999
 40
0.9999999999999999
 40
0.9999999999999999
 40
0.9999999999999999
 10
170.1303659652559
 20
22.71873501908841
 30
0.0
 10
170.1303707242176
 20
22.77854350130227
 30
0.0
 10
170.1303802534851
 20
22.89830303312909
 30
0.0
 10
170.1305543606676
 20
23.0339482766032
 30
0.0
 10
170.1309228408189
 20
23.10717057674467
 30
0.0
 10
170.1311077787554
 20
23.09366553567927
 30
0.0
 10
170.1311682266276
 20
23.08925134672459
 30
0.0
  0
SPLINE
  5
168
330
1F
100
AcDbEntity
  8
0
  6
Continuous
 62
     7
370
    40
100
AcDbSpline
210
0.0
220
0.0
230
1.0
 70
     8
 71
     3
 72
    17
 73
    13
 74
     0
 42
0.00000001
 43
0.00000001
 12
1.0
 22
0.0
 32
0.0
 13
1.0
 23
0.0
 33
0.0
 40
0.0
 40
0.0
 40
0.0
 40
0.0
 40
0.1063832279488683
 40
0.2170758760256856
 40
0.3092440359448809
 40
0.4032532894491516
 40
0.5148594414405238
 40
0.6289948253441848
 40
0.7541959068709628
 40
0.8188548310268742
 40
0.8841874343469951
 40
0.9999999999999999
 40
0.9999999999999999
 40
0.9999999999999999
 40
0.9999999999999999
 10
176.2179364395462
 20
19.18901051672381
 30
0.0
 10
175.8455985271205
 20
19.24883094575916
 30
0.0
 10
175.0858398689585
 20
19.37089503694578
 30
0.0
 10
174.0883104853708
 20
19.70268150596337
 30
0.0
 10
173.2196668601189
 20
20.08951447437057
 30
0.0
 10
172.4402712645099
 20
20.52778594357129
 30
0.0
 10
171.7156950689474
 20
21.02571686314141
 30
0.0
 10
171.0607321763175
 20
21.56462964476697
 30
0.0
 10
170.6273723701163
 20
21.98657542861041
 30
0.0
 10
170.3665425351283
 20
22.27785840320075
 30
0.0
 10
170.1797499858899
 20
22.51918458039821
 30
0.0
 10
170.1496094269779
 20
22.64091237756737
 30
0.0
 10
170.1303394929377
 20
22.71873729876933
 30
0.0
  0
SPLINE
  5
169
330
1F
100
AcDbEntity
  8
0
  6
Continuous
 62
     7
370
    40
100
AcDbSpline
210
0.0
220
0.0
230
1.0
 70
     8
 71
     3
 72
    19
 73
    15
 74
     0
 42
0.00000001
 43
0.00000001
 12
1.0
 22
0.0
 32
0.0
 13
1.0
 23
0.0
 33
0.0
 40
0.0
 40
0.0
 40
0.0
 40
0.0
 40
0.1123087230120951
 40
0.2247274546449469
 40
0.3375298937845282
 40
0.4504836308599937
 40
0.5188873975973247
 40
0.5872911910918162
 40
0.655874066710777
 40
0.7244571793900081
 40
0.7932620816403728
 40
0.8620674564211462
 40
0.9310334348452809
 40
1.0
 40
1.0
 40
1.0
 40
1.0
 10
239.2429379447012
 20
19.18901051660362
 30
0.0
 10
236.898426623675
 20
18.91552140555839
 30
0.0
 10
232.2071074863027
 20
18.36827529546163
 30
0.0
 10
225.1244104088814
 20
17.75333082672998
 30
0.0
 10
218.0076673858739
 20
17.32654551600643
 30
0.0
 10
211.8040130983775
 20
17.14522296648745
 30
0.0
 10
206.5344839779074
 20
17.12294829857978
 30
0.0
 10
202.2016587075231
 20
17.18648373273392
 30
0.0
 10
197.8679745236959
 20
17.3317749152213
 30
0.0
 10
193.5309222085003
 20
17.55697584308773
 30
0.0
 10
189.1962533226999
 20
17.85953230145528
 30
0.0
 10
184.8625697418432
 20
18.23595582749303
 30
0.0
 10
180.5348790263249
 20
18.67603585100547
 30
0.0
 10
177.6569213824909
 20
19.01801847650275
 30
0.0
 10
176.2179364395173
 20
19.18901051660572
 30
0.0
  0
SPLINE
  5
16A
330
1F
100
AcDbEntity
  8
0
  6
Continuous
 62
     7
370
    40
100
AcDbSpline
210
0.0
220
0.0
230
1.0
 70
     8
 71
     3
 72
    17
 73
    13
 74
     0
 42
0.00000001
 43
0.00000001
 12
1.0
 22
0.0
 32
0.0
 13
1.0
 23
0.0
 33
0.0
 40
0.0
 40
0.0
 40
0.0
 40
0.0
 40
0.1062214690824723
 40
0.2156201237317703
 40
0.3205053467220415
 40
0.4279000725894878
 40
0.5442500827879628
 40
0.6635067441288479
 40
0.7647576369499448
 40
0.8687027534926076
 40
0.9338659502465443
 40
1.0
 40
1.0
 40
1.0
 40
1.0
 10
245.3305348343821
 20
22.71857659173065
 30
0.0
 10
245.3136493515393
 20
22.64759036298858
 30
0.0
 10
245.2793733249384
 20
22.50349463962089
 30
0.0
 10
245.0128233677898
 20
22.17715890955632
 30
0.0
 10
244.6098723858079
 20
21.76226029665522
 30
0.0
 10
244.0602138621815
 20
21.2747514589195
 30
0.0
 10
243.349063216402
 20
20.73881017717779
 30
0.0
 10
242.5120551128101
 20
20.22657148103457
 30
0.0
 10
241.586657664205
 20
19.78556362122177
 30
0.0
 10
240.7287355706632
 20
19.48712558633711
 30
0.0
 10
239.9357497731595
 20
19.29010303553083
 30
0.0
 10
239.4750108368741
 20
19.22287372786156
 30
0.0
 10
239.2429379446681
 20
19.18901051673901
 30
0.0
  0
SPLINE
  5
16B
330
1F
100
AcDbEntity
  8
0
  6
Continuous
 62
     7
370
    40
100
AcDbSpline
210
0.0
220
0.0
230
1.0
 70
     8
 71
     3
 72
    11
 73
     7
 74
     0
 42
0.00000001
 43
0.00000001
 12
1.0
 22
0.0
 32
0.0
 13
1.0
 23
0.0
 33
0.0
 40
0.0
 40
0.0
 40
0.0
 40
0.0
 40
0.0807876400426965
 40
0.3858356009992941
 40
0.6924091856500904
 40
1.0
 40
1.0
 40
1.0
 40
1.0
 10
245.3296879996984
 20
23.09516456865383
 30
0.0
 10
245.3297109525577
 20
23.09752754552654
 30
0.0
 10
245.329820573661
 20
23.10881294266582
 30
0.0
 10
245.3301483341898
 20
23.07340087026547
 30
0.0
 10
245.3304814984969
 20
22.97062475613369
 30
0.0
 10
245.3304994342753
 20
22.80268384963239
 30
0.0
 10
245.3305084170179
 20
22.71857431759595
 30
0.0
  0
SPLINE
  5
16C
330
1F
100
AcDbEntity
  8
0
  6
Continuous
 62
     7
370
    40
100
AcDbSpline
210
0.0
220
0.0
230
1.0
 70
     8
 71
     3
 72
     9
 73
     5
 74
     0
 42
0.00000001
 43
0.00000001
 12
1.0
 22
0.0
 32
0.0
 13
1.0
 23
0.0
 33
0.0
 40
0.0
 40
0.0
 40
0.0
 40
0.0
 40
0.7497850448595292
 40
1.0
 40
1.0
 40
1.0
 40
1.0
 10
172.5240903014771
 20
24.09436495545997
 30
0.0
 10
172.2426180098541
 20
24.09495350502499
 30
0.0
 10
171.867214027669
 20
24.09573846275263
 30
0.0
 10
171.6163779002828
 20
24.09694453814001
 30
0.0
 10
171.5536149499212
 20
24.09724631623896
 30
0.0
  0
SPLINE
  5
16D
330
1F
100
AcDbEntity
  8
0
  6
Continuous
 62
     7
370
    40
100
AcDbSpline
210
0.0
220
0.0
230
1.0
 70
     8
 71
     3
 72
     9
 73
     5
 74
     0
 42
0.00000001
 43
0.00000001
 12
1.0
 22
0.0
 32
0.0
 13
1.0
 23
0.0
 33
0.0
 40
0.0
 40
0.0
 40
0.0
 40
0.0
 40
0.3668033334149235
 40
1.0
 40
1.0
 40
1.0
 40
1.0
 10
170.2770225490247
 20
24.25199116842852
 30
0.0
 10
170.2741344783199
 20
24.24019856861329
 30
0.0
 10
170.2662608565675
 20
24.20804891581311
 30
0.0
 10
170.2493450821265
 20
24.04594312437137
 30
0.0
 10
170.2386340701377
 20
23.94329827759633
 30
0.0
  0
SPLINE
  5
16E
330
1F
100
AcDbEntity
  8
0
  6
Continuous
 62
     7
370
    40
100
AcDbSpline
210
0.0
220
0.0
230
1.0
 70
     8
 71
     3
 72
    13
 73
     9
 74
     0
 42
0.00000001
 43
0.00000001
 12
1.0
 22
0.0
 32
0.0
 13
1.0
 23
0.0
 33
0.0
 40
0.0
 40
0.0
 40
0.0
 40
0.0
 40
0.1735502405118064
 40
0.3471872888576749
 40
0.5259788628820744
 40
0.691723633284216
 40
0.8625986956548651
 40
1.0
 40
1.0
 40
1.0
 40
1.0
 10
172.5240805407313
 20
24.09432766430804
 30
0.0
 10
172.6035729080298
 20
24.09196861949776
 30
0.0
 10
172.7625974037946
 20
24.08724934991012
 30
0.0
 10
173.1011552056533
 20
24.04856687159579
 30
0.0
 10
173.5012479715839
 20
23.98619814968729
 30
0.0
 10
173.9686209229556
 20
23.89931186398257
 30
0.0
 10
174.4480886387495
 20
23.80063322436636
 30
0.0
 10
174.8019666624888
 20
23.7227602705382
 30
0.0
 10
174.9596929992782
 20
23.68805165650077
 30
0.0
  0
SPLINE
  5
16F
330
1F
100
AcDbEntity
  8
0
  6
Continuous
 62
     7
370
    40
100
AcDbSpline
210
0.0
220
0.0
230
1.0
 70
     8
 71
     3
 72
    16
 73
    12
 74
     0
 42
0.00000001
 43
0.00000001
 12
1.0
 22
0.0
 32
0.0
 13
1.0
 23
0.0
 33
0.0
 40
0.0
 40
0.0
 40
0.0
 40
0.0
 40
0.1667627663045521
 40
0.3321869316698465
 40
0.4109127716477312
 40
0.4929992047137079
 40
0.5782991091844455
 40
0.6666374024342087
 40
0.7721252947009437
 40
0.8889286482982802
 40
1.0
 40
1.0
 40
1.0
 40
1.0
 10
240.385169601567
 20
23.66274904259131
 30
0.0
 10
240.5835668762514
 20
23.70644637756943
 30
0.0
 10
240.9787688952004
 20
23.79349029000983
 30
0.0
 10
241.4098969924741
 20
23.88234685016142
 30
0.0
 10
241.724759089327
 20
23.94257619503525
 30
0.0
 10
241.9467622968725
 20
23.98234887286772
 30
0.0
 10
242.1603667265553
 20
24.01753697399806
 30
0.0
 10
242.3736119090715
 20
24.04877266160598
 30
0.0
 10
242.5847754953298
 20
24.07407817402408
 30
0.0
 10
242.7813355362348
 20
24.09117363383682
 30
0.0
 10
242.885850739241
 20
24.09329410035167
 30
0.0
 10
242.9367938435055
 20
24.09432766430837
 30
0.0
  0
SPLINE
  5
170
330
1F
100
AcDbEntity
  8
0
  6
Continuous
 62
     7
370
    40
100
AcDbSpline
210
0.0
220
0.0
230
1.0
 70
     8
 71
     3
 72
     9
 73
     5
 74
     0
 42
0.00000001
 43
0.00000001
 12
1.0
 22
0.0
 32
0.0
 13
1.0
 23
0.0
 33
0.0
 40
0.0
 40
0.0
 40
0.0
 40
0.0
 40
0.8346858418270079
 40
1.0
 40
1.0
 40
1.0
 40
1.0
 10
242.9367900437994
 20
24.09432662981068
 30
0.0
 10
243.2575944791601
 20
24.09507022468074
 30
0.0
 10
243.6419360113688
 20
24.09596109263702
 30
0.0
 10
243.8760850878733
 20
24.09705225915777
 30
0.0
 10
243.9147932453427
 20
24.09723264443257
 30
0.0
  0
SPLINE
  5
171
330
1F
100
AcDbEntity
  8
0
  6
Continuous
 62
     7
370
    40
100
AcDbSpline
210
0.0
220
0.0
230
1.0
 70
     8
 71
     3
 72
    11
 73
     7
 74
     0
 42
0.00000001
 43
0.00000001
 12
1.0
 22
0.0
 32
0.0
 13
1.0
 23
0.0
 33
0.0
 40
0.0
 40
0.0
 40
0.0
 40
0.0
 40
0.1466449845757256
 40
0.6250802652486895
 40
0.8117672333416588
 40
0.9999999999999999
 40
0.9999999999999999
 40
0.9999999999999999
 40
0.9999999999999999
 10
245.1426882126227
 20
24.09374835834292
 30
0.0
 10
245.1460784485985
 20
24.08959389450816
 30
0.0
 10
245.1605294685848
 20
24.07188532190805
 30
0.0
 10
245.164051404852
 20
24.06803410969191
 30
0.0
 10
245.1662089848018
 20
24.16221992681048
 30
0.0
 10
245.1671803971252
 20
24.21042442284831
 30
0.0
 10
245.1676681058593
 20
24.23462604472503
 30
0.0
  0
SPLINE
  5
172
330
1F
100
AcDbEntity
  8
0
  6
Continuous
 62
     7
370
    40
100
AcDbSpline
210
0.0
220
0.0
230
1.0
 70
     8
 71
     3
 72
    11
 73
     7
 74
     0
 42
0.00000001
 43
0.00000001
 12
1.0
 22
0.0
 32
0.0
 13
1.0
 23
0.0
 33
0.0
 40
0.0
 40
0.0
 40
0.0
 40
0.0
 40
0.1457955357902543
 40
0.4240941043544308
 40
0.7079786304403454
 40
1.0
 40
1.0
 40
1.0
 40
1.0
 10
245.1694493333462
 20
24.25804962046011
 30
0.0
 10
245.1700091961777
 20
24.2682928420833
 30
0.0
 10
245.1716377407333
 20
24.29808860967276
 30
0.0
 10
245.1792437211915
 20
24.29001940903179
 30
0.0
 10
245.1947541356597
 20
24.20675955797631
 30
0.0
 10
245.2129924673745
 20
24.03194161319787
 30
0.0
 10
245.2222404758532
 20
23.9432976593092
 30
0.0
  0
SPLINE
  5
173
330
1F
100
AcDbEntity
  8
0
  6
Continuous
 62
     7
370
    40
100
AcDbSpline
210
0.0
220
0.0
230
1.0
 70
     8
 71
     3
 72
    17
 73
    13
 74
     0
 42
0.00000001
 43
0.00000001
 12
1.0
 22
0.0
 32
0.0
 13
1.0
 23
0.0
 33
0.0
 40
0.0
 40
0.0
 40
0.0
 40
0.0
 40
0.1062200156116704
 40
0.2155281078112217
 40
0.3219178246662926
 40
0.4310094251316325
 40
0.5454956297544962
 40
0.6629024187849808
 40
0.7649274935900587
 40
0.8697071269769496
 40
0.9343926962563778
 40
1.0
 40
1.0
 40
1.0
 40
1.0
 10
245.2222404752991
 20
23.94329828482576
 30
0.0
 10
245.2103574248611
 20
23.87867821126331
 30
0.0
 10
245.18624585454
 20
23.7475593999796
 30
0.0
 10
244.9303233569194
 20
23.45088998543605
 30
0.0
 10
244.5269387708655
 20
23.07636026305151
 30
0.0
 10
243.9703668701967
 20
22.62908929591171
 30
0.0
 10
243.254004116165
 20
22.13712749454101
 30
0.0
 10
242.4153876513525
 20
21.66329989941765
 30
0.0
 10
241.4833132011041
 20
21.2487990412921
 30
0.0
 10
240.616828881467
 20
20.96627311080592
 30
0.0
 10
239.8217731424794
 20
20.7808861296052
 30
0.0
 10
239.3640705847171
 20
20.71789274145263
 30
0.0
 10
239.1336003369237
 20
20.68617322944498
 30
0.0
  0
SPLINE
  5
174
330
1F
100
AcDbEntity
  8
0
  6
Continuous
 62
     7
370
    40
100
AcDbSpline
210
0.0
220
0.0
230
1.0
 70
     8
 71
     3
 72
    20
 73
    16
 74
     0
 42
0.00000001
 43
0.00000001
 12
1.0
 22
0.0
 32
0.0
 13
1.0
 23
0.0
 33
0.0
 40
0.0
 40
0.0
 40
0.0
 40
0.0
 40
0.0810938424014093
 40
0.1605868177718763
 40
0.2401162789110497
 40
0.3203487147247273
 40
0.4000343895293653
 40
0.4800179250422006
 40
0.5597854383466696
 40
0.633124196712236
 40
0.7062116325613647
 40
0.7793772005261629
 40
0.8528560625860634
 40
0.9254731608031935
 40
1.0
 40
1.0
 40
1.0
 40
1.0
 10
239.1336006922584
 20
20.68617016867517
 30
0.0
 10
237.4463970936436
 20
20.49761584604629
 30
0.0
 10
234.1052968471704
 20
20.1242294365305
 30
0.0
 10
229.0919609564778
 20
19.65905487812498
 30
0.0
 10
224.0855720422251
 20
19.27629289331535
 30
0.0
 10
219.0647860262722
 20
18.98937327750764
 30
0.0
 10
214.0271730300786
 20
18.80307038152006
 30
0.0
 10
208.9950540402642
 20
18.72265542072882
 30
0.0
 10
204.0954874696346
 20
18.74874710194375
 30
0.0
 10
199.3432231768465
 20
18.87040670368606
 30
0.0
 10
194.7343711117487
 20
19.07616281761554
 30
0.0
 10
190.1294996939033
 20
19.3651821730126
 30
0.0
 10
185.5436508011866
 20
19.73258918022098
 30
0.0
 10
180.938931218473
 20
20.16937137147127
 30
0.0
 10
177.877736338262
 20
20.51241979235042
 30
0.0
 10
176.3272736919772
 20
20.68617016867519
 30
0.0
  0
SPLINE
  5
175
330
1F
100
AcDbEntity
  8
0
  6
Continuous
 62
     7
370
    40
100
AcDbSpline
210
0.0
220
0.0
230
1.0
 70
     8
 71
     3
 72
    28
 73
    24
 74
     0
 42
0.00000001
 43
0.00000001
 12
1.0
 22
0.0
 32
0.0
 13
1.0
 23
0.0
 33
0.0
 40
0.0
 40
0.0
 40
0.0
 40
0.0
 40
0.0410060064796717
 40
0.0829097903287812
 40
0.1257486533417663
 40
0.1656524478222811
 40
0.2072660553916543
 40
0.2506279124532109
 40
0.285625894278599
 40
0.3215934840854681
 40
0.3571292154837393
 40
0.3924078569185283
 40
0.4285203961606646
 40
0.4607750593838469
 40
0.5004446335107874
 40
0.5484751593194104
 40
0.5856503291357114
 40
0.6257214947672299
 40
0.6701313643630924
 40
0.7116932308946687
 40
0.7503862762742267
 40
0.8753613642329092
 40
0.9999999999999999
 40
0.9999999999999999
 40
0.9999999999999999
 40
0.9999999999999999
 10
176.3272736966044
 20
20.68617016867519
 30
0.0
 10
176.1829272177543
 20
20.70486157690125
 30
0.0
 10
175.8910739668875
 20
20.74265361933631
 30
0.0
 10
175.4573524483064
 20
20.8250503022574
 30
0.0
 10
175.0370883756565
 20
20.92368421827028
 30
0.0
 10
174.6298232388457
 20
21.03924291450031
 30
0.0
 10
174.2340136633816
 20
21.16964547325162
 30
0.0
 10
173.8682571929649
 20
21.30758664429034
 30
0.0
 10
173.5335001764252
 20
21.44857460240907
 30
0.0
 10
173.2336448870472
 20
21.58655218275128
 30
0.0
 10
172.9455436086536
 20
21.73039836038941
 30
0.0
 10
172.6697755227979
 20
21.878620825087
 30
0.0
 10
172.4151145340005
 20
22.02511991305735
 30
0.0
 10
172.1625925416977
 20
22.17962492533671
 30
0.0
 10
171.8973813628564
 20
22.35169177389998
 30
0.0
 10
171.6409725889617
 20
22.52976250511717
 30
0.0
 10
171.4035207477924
 20
22.70519091475288
 30
0.0
 10
171.1906375251236
 20
22.87109696614635
 30
0.0
 10
170.9907034688136
 20
23.03567344166344
 30
0.0
 10
170.8143500749158
 20
23.18965144354627
 30
0.0
 10
170.5596539006784
 20
23.42598973545241
 30
0.0
 10
170.2905000755048
 20
23.711081517175
 30
0.0
 10
170.2559070506398
 20
23.86596186847641
 30
0.0
 10
170.2386338520276
 20
23.94329766318033
 30
0.0
  0
LINE
  5
176
330
1F
100
AcDbEntity
  8
0
  6
Continuous
 62
     7
370
    40
100
AcDbLine
 10
170.8304371921
 20
21.8040027146
 30
0.0
 11
170.8304371921
 21
20.6859882955
 31
0.0
  0
LINE
  5
177
330
1F
100
AcDbEntity
  8
0
  6
Continuous
 62
     7
370
    40
100
AcDbLine
 10
170.0304371921
 20
20.6859882955
 30
0.0
 11
170.0304371921
 21
22.3796831425
 31
0.0
  0
LINE
  5
178
330
1F
100
AcDbEntity
  8
0
  6
Continuous
 62
     7
370
    40
100
AcDbLine
 10
170.1149773302
 20
22.9134485675
 30
0.0
 11
170.0304371921
 21
22.3796831425
 31
0.0
  0
LINE
  5
179
330
1F
100
AcDbEntity
  8
0
  6
Continuous
 62
     7
370
    40
100
AcDbLine
 10
170.0304371921
 20
18.7611450137
 30
0.0
 11
170.0304371921
 21
20.6859882955
 31
0.0
  0
LINE
  5
17A
330
1F
100
AcDbEntity
  8
0
  6
Continuous
 62
     7
370
    40
100
AcDbLine
 10
170.8304371921
 20
18.7611450137
 30
0.0
 11
170.8304371921
 21
20.6859882955
 31
0.0
  0
LINE
  5
17B
330
1F
100
AcDbEntity
  8
0
  6
Continuous
 62
     7
370
    40
100
AcDbLine
 10
170.0304371921
 20
12.7486075613
 30
0.0
 11
170.0304371921
 21
18.7611450137
 31
0.0
  0
LINE
  5
17C
330
1F
100
AcDbEntity
  8
0
  6
Continuous
 62
     7
370
    40
100
AcDbLine
 10
170.8304371921
 20
12.7486075613
 30
0.0
 11
170.8304371921
 21
18.7611450137
 31
0.0
  0
LINE
  5
17D
330
1F
100
AcDbEntity
  8
0
  6
Continuous
 62
     7
370
    40
100
AcDbLine
 10
186.4304371921
 20
22.8183401504
 30
0.0
 11
186.4304371921
 21
24.8796831425
 31
0.0
  0
LINE
  5
17E
330
1F
100
AcDbEntity
  8
0
  6
Continuous
 62
     7
370
    40
100
AcDbLine
 10
186.4304371921
 20
12.6796831425
 30
0.0
 11
186.4304371921
 21
18.1076008787
 31
0.0
  0
LINE
  5
17F
330
1F
100
AcDbEntity
  8
0
  6
Continuous
 62
     7
370
    40
100
AcDbLine
 10
170.0304371921
 20
22.3796831425
 30
0.0
 11
170.0304371921
 21
24.8796831425
 31
0.0
  0
LINE
  5
180
330
1F
100
AcDbEntity
  8
0
  6
Continuous
 62
     7
370
    40
100
AcDbLine
 10
170.0304371921
 20
12.6796831425
 30
0.0
 11
170.0304371921
 21
12.7486075613
 31
0.0
  0
LINE
  5
181
330
1F
100
AcDbEntity
  8
0
  6
Continuous
 62
     7
370
    40
100
AcDbLine
 10
245.3413980718
 20
22.9418540234
 30
0.0
 11
245.4304371921
 21
22.3796831425
 31
0.0
  0
LINE
  5
182
330
1F
100
AcDbEntity
  8
0
  6
Continuous
 62
     7
370
    40
100
AcDbLine
 10
245.4304371921
 20
22.3796831425
 30
0.0
 11
245.4304371921
 21
20.6859882955
 31
0.0
  0
LINE
  5
183
330
1F
100
AcDbEntity
  8
0
  6
Continuous
 62
     7
370
    40
100
AcDbLine
 10
244.6304371921
 20
20.6859882955
 30
0.0
 11
244.6304371921
 21
21.795401973
 31
0.0
  0
LINE
  5
184
330
1F
100
AcDbEntity
  8
0
  6
Continuous
 62
     7
370
    40
100
AcDbLine
 10
245.4304371921
 20
20.6859882955
 30
0.0
 11
245.4304371921
 21
18.7611450137
 31
0.0
  0
LINE
  5
185
330
1F
100
AcDbEntity
  8
0
  6
Continuous
 62
     7
370
    40
100
AcDbLine
 10
244.6304371921
 20
20.6859882955
 30
0.0
 11
244.6304371921
 21
18.7611450137
 31
0.0
  0
LINE
  5
186
330
1F
100
AcDbEntity
  8
0
  6
Continuous
 62
     7
370
    40
100
AcDbLine
 10
245.4304371921
 20
18.7611450137
 30
0.0
 11
245.4304371921
 21
12.7486075613
 31
0.0
  0
LINE
  5
187
330
1F
100
AcDbEntity
  8
0
  6
Continuous
 62
     7
370
    40
100
AcDbLine
 10
244.6304371921
 20
18.7611450137
 30
0.0
 11
244.6304371921
 21
12.7486075613
 31
0.0
  0
LINE
  5
188
330
1F
100
AcDbEntity
  8
0
  6
Continuous
 62
     7
370
    40
100
AcDbLine
 10
229.0304371921
 20
24.8796831425
 30
0.0
 11
229.0304371921
 21
22.814305159
 31
0.0
  0
LINE
  5
189
330
1F
100
AcDbEntity
  8
0
  6
Continuous
 62
     7
370
    40
100
AcDbLine
 10
229.0304371921
 20
18.1230744417
 30
0.0
 11
229.0304371921
 21
12.6796831425
 31
0.0
  0
LINE
  5
18A
330
1F
100
AcDbEntity
  8
0
  6
Continuous
 62
     7
370
    40
100
AcDbLine
 10
245.4304371921
 20
12.7486075613
 30
0.0
 11
245.4304371921
 21
12.6796831425
 31
0.0
  0
LINE
  5
18B
330
1F
100
AcDbEntity
  8
0
  6
Continuous
 62
     7
370
    40
100
AcDbLine
 10
245.4304371921
 20
24.8796831425
 30
0.0
 11
245.4304371921
 21
22.3796831425
 31
0.0
  0
LINE
  5
18C
330
1F
100
AcDbEntity
  8
0
  6
Continuous
 62
     7
370
    40
100
AcDbLine
 10
245.7304371921
 20
24.3934902491
 30
0.0
 11
245.7304371921
 21
12.3796831425
 31
0.0
  0
LINE
  5
18D
330
1F
100
AcDbEntity
  8
0
  6
Continuous
 62
     7
370
    40
100
AcDbLine
 10
249.1304371921
 20
24.3934902491
 30
0.0
 11
249.1304371921
 21
12.3796831425
 31
0.0
  0
LINE
  5
18E
330
1F
100
AcDbEntity
  8
0
  6
Continuous
 62
     7
370
    40
100
AcDbLine
 10
228.3304371921
 20
24.7796831425
 30
0.0
 11
228.3304371921
 21
22.7683246123
 31
0.0
  0
LINE
  5
18F
330
1F
100
AcDbEntity
  8
0
  6
Continuous
 62
     7
370
    40
100
AcDbLine
 10
228.3304371921
 20
18.0633925143
 30
0.0
 11
228.3304371921
 21
12.7796831425
 31
0.0
  0
LINE
  5
190
330
1F
100
AcDbEntity
  8
0
  6
Continuous
 62
     7
370
    40
100
AcDbLine
 10
245.7304371921
 20
27.3796831425
 30
0.0
 11
245.7304371921
 21
24.3934902491
 31
0.0
  0
LINE
  5
191
330
1F
100
AcDbEntity
  8
0
  6
Continuous
 62
     7
370
    40
100
AcDbLine
 10
249.1304371921
 20
27.3796831425
 30
0.0
 11
249.1304371921
 21
24.3934902491
 31
0.0
  0
LINE
  5
192
330
1F
100
AcDbEntity
  8
0
  6
Continuous
 62
     7
370
    40
100
AcDbLine
 10
166.3304371921
 20
24.3934902491
 30
0.0
 11
166.3304371921
 21
12.3796831425
 31
0.0
  0
LINE
  5
193
330
1F
100
AcDbEntity
  8
0
  6
Continuous
 62
     7
370
    40
100
AcDbLine
 10
169.7304371921
 20
24.3934902491
 30
0.0
 11
169.7304371921
 21
12.3796831425
 31
0.0
  0
LINE
  5
194
330
1F
100
AcDbEntity
  8
0
  6
Continuous
 62
     7
370
    40
100
AcDbLine
 10
187.1304371921
 20
24.7796831425
 30
0.0
 11
187.1304371921
 21
22.768186515
 31
0.0
  0
LINE
  5
195
330
1F
100
AcDbEntity
  8
0
  6
Continuous
 62
     7
370
    40
100
AcDbLine
 10
187.1304371921
 20
18.049064639
 30
0.0
 11
187.1304371921
 21
12.7796831425
 31
0.0
  0
LINE
  5
196
330
1F
100
AcDbEntity
  8
0
  6
Continuous
 62
     7
370
    40
100
AcDbLine
 10
166.3304371921
 20
27.3796831425
 30
0.0
 11
166.3304371921
 21
24.3934902491
 31
0.0
  0
LINE
  5
197
330
1F
100
AcDbEntity
  8
0
  6
Continuous
 62
     7
370
    40
100
AcDbLine
 10
169.7304371921
 20
27.3796831425
 30
0.0
 11
169.7304371921
 21
24.3934902491
 31
0.0
  0
LINE
  5
198
330
1F
100
AcDbEntity
  8
0
  6
Continuous
 62
     7
370
    40
100
AcDbLine
 10
53.9034371921
 20
184.7050644899
 30
0.0
 11
70.3034371921
 21
184.7050644899
 31
0.0
  0
LINE
  5
199
330
1F
100
AcDbEntity
  8
0
  6
Continuous
 62
     7
370
    40
100
AcDbLine
 10
70.3034371921
 20
196.9050644899
 30
0.0
 11
54.7034371921
 21
196.9050644899
 31
0.0
  0
LINE
  5
19A
330
1F
100
AcDbEntity
  8
0
  6
Continuous
 62
     7
370
    40
100
AcDbLine
 10
68.8023558536
 20
199.224212791
 30
0.0
 11
68.8664248567
 21
199.224212791
 31
0.0
  0
LINE
  5
19B
330
1F
100
AcDbEntity
  8
0
  6
Continuous
 62
     7
370
    40
100
AcDbLine
 10
128.5034371921
 20
196.9050644899
 30
0.0
 11
112.9034371921
 21
196.9050644899
 31
0.0
  0
LINE
  5
19C
330
1F
100
AcDbEntity
  8
0
  6
Continuous
 62
     7
370
    40
100
AcDbLine
 10
112.9034371921
 20
184.7050644899
 30
0.0
 11
129.3034371921
 21
184.7050644899
 31
0.0
  0
LINE
  5
19D
330
1F
100
AcDbEntity
  8
0
  6
Continuous
 62
     7
370
    40
100
AcDbLine
 10
114.3404495276
 20
199.224212791
 30
0.0
 11
114.4045185306
 21
199.224212791
 31
0.0
  0
LINE
  5
19E
330
1F
100
AcDbEntity
  8
0
  6
Continuous
 62
     7
370
    40
100
AcDbLine
 10
133.0034371921
 20
197.2050644899
 30
0.0
 11
129.6034371921
 21
197.2050644899
 31
0.0
  0
LINE
  5
19F
330
1F
100
AcDbEntity
  8
0
  6
Continuous
 62
     7
370
    40
100
AcDbLine
 10
129.6034371921
 20
196.8050644899
 30
0.0
 11
129.3034371921
 21
196.8050644899
 31
0.0
  0
LINE
  5
1A0
330
1F
100
AcDbEntity
  8
0
  6
Continuous
 62
     7
370
    40
100
AcDbLine
 10
112.9034371921
 20
196.8050644899
 30
0.0
 11
112.2034371921
 21
196.8050644899
 31
0.0
  0
LINE
  5
1A1
330
1F
100
AcDbEntity
  8
0
  6
Continuous
 62
     7
370
    40
100
AcDbLine
 10
112.2034371921
 20
184.8050644899
 30
0.0
 11
112.9034371921
 21
184.8050644899
 31
0.0
  0
LINE
  5
1A2
330
1F
100
AcDbEntity
  8
0
  6
Continuous
 62
     7
370
    40
100
AcDbLine
 10
129.3034371921
 20
184.8050644899
 30
0.0
 11
129.6034371921
 21
184.8050644899
 31
0.0
  0
LINE
  5
1A3
330
1F
100
AcDbEntity
  8
0
  6
Continuous
 62
     7
370
    40
100
AcDbLine
 10
53.6034371921
 20
197.2050644899
 30
0.0
 11
50.2034371921
 21
197.2050644899
 31
0.0
  0
LINE
  5
1A4
330
1F
100
AcDbEntity
  8
0
  6
Continuous
 62
     7
370
    40
100
AcDbLine
 10
53.6034371921
 20
184.8050644899
 30
0.0
 11
53.9034371921
 21
184.8050644899
 31
0.0
  0
LINE
  5
1A5
330
1F
100
AcDbEntity
  8
0
  6
Continuous
 62
     7
370
    40
100
AcDbLine
 10
70.3034371921
 20
184.8050644899
 30
0.0
 11
71.0034371921
 21
184.8050644899
 31
0.0
  0
LINE
  5
1A6
330
1F
100
AcDbEntity
  8
0
  6
Continuous
 62
     7
370
    40
100
AcDbLine
 10
71.0034371921
 20
196.8050644899
 30
0.0
 11
70.3034371921
 21
196.8050644899
 31
0.0
  0
LINE
  5
1A7
330
1F
100
AcDbEntity
  8
0
  6
Continuous
 62
     7
370
    40
100
AcDbLine
 10
53.9034371921
 20
196.8050644899
 30
0.0
 11
53.6034371921
 21
196.8050644899
 31
0.0
  0
SPLINE
  5
1A8
330
1F
100
AcDbEntity
  8
0
  6
Continuous
 62
     7
370
    40
100
AcDbSpline
210
0.0
220
0.0
230
1.0
 70
     8
 71
     3
 72
    31
 73
    27
 74
     0
 42
0.00000001
 43
0.00000001
 12
1.0
 22
0.0
 32
0.0
 13
1.0
 23
0.0
 33
0.0
 40
0.0
 40
0.0
 40
0.0
 40
0.0
 40
0.0447735941868805
 40
0.0895463732868902
 40
0.13470630868063
 40
0.1798655905193887
 40
0.2255368712369762
 40
0.2712077818818395
 40
0.3173098552270008
 40
0.3634117260787716
 40
0.3974927822679091
 40
0.4316395455519396
 40
0.4657862876881482
 40
0.4999993441697551
 40
0.5413061373461521
 40
0.5826129591491953
 40
0.624273261653332
 40
0.6659336498543851
 40
0.7080395284914316
 40
0.7501455734628065
 40
0.7926103099317934
 40
0.8350753618363239
 40
0.876208000994536
 40
0.9174403879895556
 40
0.9586733515252425
 40
0.9999999999999999
 40
0.9999999999999999
 40
0.9999999999999999
 40
0.9999999999999999
 10
59.87403579225744
 20
202.1898792628348
 30
0.0
 10
60.75232829186547
 20
201.7844978069755
 30
0.0
 10
62.5088973020885
 20
200.9737422750778
 30
0.0
 10
65.21588756348892
 20
199.8842190876386
 30
0.0
 10
67.97588136450955
 20
198.8897483907437
 30
0.0
 10
70.8008326531499
 20
197.999532557043
 30
0.0
 10
73.67798039796178
 20
197.2180649593975
 30
0.0
 10
76.6120110038802
 20
196.5475054706
 30
0.0
 10
79.58691455372873
 20
195.9944713595335
 30
0.0
 10
82.33529916632901
 20
195.599433793995
 30
0.0
 10
84.8373246145161
 20
195.3309085070946
 30
0.0
 10
87.08578700447676
 20
195.1587484752698
 30
0.0
 10
89.34253009617711
 20
195.0550947008656
 30
0.0
 10
91.75978323899808
 20
195.0180821399487
 30
0.0
 10
94.33495523343994
 20
195.0657404565412
 30
0.0
 10
97.06947436760524
 20
195.217423498439
 30
0.0
 10
99.80216406872239
 20
195.4710976756338
 30
0.0
 10
102.5378601845332
 20
195.8279860137963
 30
0.0
 10
105.2638245819985
 20
196.2879162030294
 30
0.0
 10
107.9828500541749
 20
196.8521102712308
 30
0.0
 10
110.6803960589122
 20
197.5185966666398
 30
0.0
 10
113.323876134787
 20
198.2783879272316
 30
0.0
 10
115.9052903967158
 20
199.1243499244961
 30
0.0
 10
118.4216302870907
 20
200.0534427110715
 30
0.0
 10
120.9038159342716
 20
201.0661510654552
 30
0.0
 10
122.5225520830542
 20
201.8150199361233
 30
0.0
 10
123.3328385919789
 20
202.1898792628348
 30
0.0
  0
LINE
  5
1A9
330
1F
100
AcDbEntity
  8
0
  6
Continuous
 62
     7
370
    40
100
AcDbLine
 10
60.0909364857
 20
268.3404791358
 30
0.0
 11
60.200273692
 21
268.3508345263
 31
0.0
  0
LINE
  5
1AA
330
1F
100
AcDbEntity
  8
0
  6
Continuous
 62
     7
370
    40
100
AcDbLine
 10
123.0066006923
 20
268.3508345263
 30
0.0
 11
123.1159378985
 21
268.3404791358
 31
0.0
  0
SPLINE
  5
1AB
330
1F
100
AcDbEntity
  8
0
  6
Continuous
 62
     7
370
    40
100
AcDbSpline
210
0.0
220
0.0
230
1.0
 70
     8
 71
     3
 72
    19
 73
    15
 74
     0
 42
0.00000001
 43
0.00000001
 12
1.0
 22
0.0
 32
0.0
 13
1.0
 23
0.0
 33
0.0
 40
0.0
 40
0.0
 40
0.0
 40
0.0
 40
0.1123087230120951
 40
0.2247274546449469
 40
0.3375298937845282
 40
0.4504836308599937
 40
0.5188873975973247
 40
0.587291191091816
 40
0.6558740667107769
 40
0.724457179390008
 40
0.7932620816403728
 40
0.8620674564211463
 40
0.9310334348452809
 40
1.0
 40
1.0
 40
1.0
 40
1.0
 10
123.1159379447016
 20
268.340479131423
 30
0.0
 10
120.7714266236754
 20
268.5484930576795
 30
0.0
 10
116.0801074863031
 20
268.9647246639572
 30
0.0
 10
108.9974104088818
 20
269.4017962819109
 30
0.0
 10
101.8806673858743
 20
269.6996588969848
 30
0.0
 10
95.67701309837791
 20
269.8238800867258
 30
0.0
 10
90.40748397790777
 20
269.8392561092588
 30
0.0
 10
86.07465870752348
 20
269.7956007582158
 30
0.0
 10
81.74097452369635
 20
269.6956308825146
 30
0.0
 10
77.40392220850066
 20
269.5391007674631
 30
0.0
 10
73.06925332270028
 20
269.3264244404911
 30
0.0
 10
68.73556974184358
 20
269.0561706987606
 30
0.0
 10
64.40787902632535
 20
268.7337351119411
 30
0.0
 10
61.52992138249126
 20
268.4715648299969
 30
0.0
 10
60.09093643951775
 20
268.3404791314214
 30
0.0
  0
SPLINE
  5
1AC
330
1F
100
AcDbEntity
  8
0
  6
Continuous
 62
     7
370
    40
100
AcDbSpline
210
0.0
220
0.0
230
1.0
 70
     8
 71
     3
 72
     9
 73
     5
 74
     0
 42
0.00000001
 43
0.00000001
 12
1.0
 22
0.0
 32
0.0
 13
1.0
 23
0.0
 33
0.0
 40
0.0
 40
0.0
 40
0.0
 40
0.0
 40
0.6441360882538143
 40
1.0
 40
1.0
 40
1.0
 40
1.0
 10
123.3328383992832
 20
202.1898796938207
 30
0.0
 10
123.6780506411661
 20
202.3669197931031
 30
0.0
 10
124.2139812436862
 20
202.641768699275
 30
0.0
 10
124.6660903204126
 20
203.0435634126338
 30
0.0
 10
124.8269796249924
 20
203.1865476510486
 30
0.0
  0
SPLINE
  5
1AD
330
1F
100
AcDbEntity
  8
0
  6
Continuous
 62
     7
370
    40
100
AcDbSpline
210
0.0
220
0.0
230
1.0
 70
     8
 71
     3
 72
     9
 73
     5
 74
     0
 42
0.00000001
 43
0.00000001
 12
1.0
 22
0.0
 32
0.0
 13
1.0
 23
0.0
 33
0.0
 40
0.0
 40
0.0
 40
0.0
 40
0.0
 40
0.2742569787950206
 40
1.0
 40
1.0
 40
1.0
 40
1.0
 10
58.3643200763378
 20
203.2006103849708
 30
0.0
 10
58.48748531864568
 20
203.0865648738807
 30
0.0
 10
58.9365723130734
 20
202.6707303832101
 30
0.0
 10
59.4797955278606
 20
202.3920963783262
 30
0.0
 10
59.87403598494895
 20
202.1898796938114
 30
0.0
  0
LINE
  5
1AE
330
1F
100
AcDbEntity
  8
0
  6
Continuous
 62
     7
370
    40
100
AcDbLine
 10
54.0034371921
 20
239.8334578964
 30
0.0
 11
54.0064996166
 21
238.8050644899
 31
0.0
  0
SPLINE
  5
1AF
330
1F
100
AcDbEntity
  8
0
  6
Continuous
 62
     7
370
    40
100
AcDbSpline
210
0.0
220
0.0
230
1.0
 70
    24
 71
     3
 72
     9
 73
     5
 74
     0
 42
0.00000001
 43
0.00000001
 12
1.0
 22
0.0
 32
0.0
 13
1.0
 23
0.0
 33
0.0
 40
0.0
 40
0.0
 40
0.0
 40
0.0
 40
0.4998871088558516
 40
1.0
 40
1.0
 40
1.0
 40
1.0
 10
54.0034371921182
 20
249.8328246288038
 30
0.0
 10
54.00343719211817
 20
248.1666398945494
 30
0.0
 10
54.00343719211814
 20
244.8335178661217
 30
0.0
 10
54.00343719211813
 20
241.5003954057129
 30
0.0
 10
54.00343719211814
 20
239.8334578955004
 30
0.0
  0
SPLINE
  5
1B0
330
1F
100
AcDbEntity
  8
0
  6
Continuous
 62
     7
370
    40
100
AcDbSpline
210
0.0
220
0.0
230
1.0
 70
     8
 71
     3
 72
    12
 73
     8
 74
     0
 42
0.00000001
 43
0.00000001
 12
1.0
 22
0.0
 32
0.0
 13
1.0
 23
0.0
 33
0.0
 40
0.0
 40
0.0
 40
0.0
 40
0.0
 40
0.1040729460700585
 40
0.2083939741626981
 40
0.40566285137445
 40
0.6034482130073968
 40
0.9999999999999999
 40
0.9999999999999999
 40
0.9999999999999999
 40
0.9999999999999999
 10
54.00336596525626
 20
261.4940274010283
 30
0.0
 10
54.00337032243831
 20
261.0930894677909
 30
0.0
 10
54.00337904718878
 20
260.2902578726934
 30
0.0
 10
54.00356099599592
 20
258.715820557853
 30
0.0
 10
54.00396675006736
 20
256.7718303422571
 30
0.0
 10
54.00470058534312
 20
253.6887059521312
 30
0.0
 10
54.00394116113511
 20
251.3759406822513
 30
0.0
 10
54.00343446047294
 20
249.8328246196154
 30
0.0
  0
SPLINE
  5
1B1
330
1F
100
AcDbEntity
  8
0
  6
Continuous
 62
     7
370
    40
100
AcDbSpline
210
0.0
220
0.0
230
1.0
 70
     8
 71
     3
 72
    17
 73
    13
 74
     0
 42
0.00000001
 43
0.00000001
 12
1.0
 22
0.0
 32
0.0
 13
1.0
 23
0.0
 33
0.0
 40
0.0
 40
0.0
 40
0.0
 40
0.0
 40
0.1063832279488681
 40
0.2170758760256853
 40
0.3092440359448804
 40
0.403253289449151
 40
0.5148594414405229
 40
0.6289948253441855
 40
0.7541959068709633
 40
0.8188548310268745
 40
0.8841874343469953
 40
1.0
 40
1.0
 40
1.0
 40
1.0
 10
60.09093643954664
 20
268.3404791312692
 30
0.0
 10
59.71859852712095
 20
268.2870887510932
 30
0.0
 10
58.95883986895889
 20
268.1781452289657
 30
0.0
 10
57.96131048537119
 20
267.8079550744339
 30
0.0
 10
57.0926668601193
 20
267.3362973486732
 30
0.0
 10
56.31327126451031
 20
266.755608233158
 30
0.0
 10
55.5886950689478
 20
266.0217576003423
 30
0.0
 10
54.93373217631792
 20
265.0945690495704
 30
0.0
 10
54.50037237011667
 20
264.1857324306057
 30
0.0
 10
54.23954253512874
 20
263.3623400540237
 30
0.0
 10
54.05274998589027
 20
262.5368485080311
 30
0.0
 10
54.02260942697827
 20
261.9007245276317
 30
0.0
 10
54.00333949293806
 20
261.494027784566
 30
0.0
  0
SPLINE
  5
1B2
330
1F
100
AcDbEntity
  8
0
  6
Continuous
 62
     7
370
    40
100
AcDbSpline
210
0.0
220
0.0
230
1.0
 70
     8
 71
     3
 72
    17
 73
    13
 74
     0
 42
0.00000001
 43
0.00000001
 12
1.0
 22
0.0
 32
0.0
 13
1.0
 23
0.0
 33
0.0
 40
0.0
 40
0.0
 40
0.0
 40
0.0
 40
0.1062214690824722
 40
0.21562012373177
 40
0.320505346722041
 40
0.4279000725894872
 40
0.5442500827879635
 40
0.6635067441288484
 40
0.7647576369499451
 40
0.8687027534926077
 40
0.9338659502465443
 40
1.0
 40
1.0
 40
1.0
 40
1.0
 10
129.2035348343825
 20
261.4949831673708
 30
0.0
 10
129.1866493515397
 20
261.867844346959
 30
0.0
 10
129.1523733249388
 20
262.6247193400466
 30
0.0
 10
128.8858233677902
 20
263.697388368359
 30
0.0
 10
128.4828723858083
 20
264.6929650389723
 30
0.0
 10
127.9332138621819
 20
265.612768875165
 30
0.0
 10
127.2220632164024
 20
266.4591061303796
 30
0.0
 10
126.3850551128104
 20
267.1627775146105
 30
0.0
 10
125.4596576642055
 20
267.7107682294272
 30
0.0
 10
124.6017355706636
 20
268.0494345842995
 30
0.0
 10
123.8087497731599
 20
268.2540305972422
 30
0.0
 10
123.3480108368745
 20
268.3115212519388
 30
0.0
 10
123.1159379446685
 20
268.3404791312485
 30
0.0
  0
SPLINE
  5
1B3
330
1F
100
AcDbEntity
  8
0
  6
Continuous
 62
     7
370
    40
100
AcDbSpline
210
0.0
220
0.0
230
1.0
 70
     8
 71
     3
 72
    16
 73
    12
 74
     0
 42
0.00000001
 43
0.00000001
 12
1.0
 22
0.0
 32
0.0
 13
1.0
 23
0.0
 33
0.0
 40
0.0
 40
0.0
 40
0.0
 40
0.0
 40
0.0452809870142192
 40
0.1523033513133766
 40
0.3663508896967403
 40
0.5245280271516787
 40
0.6827505251949807
 40
0.761745445181883
 40
0.8408121215038423
 40
0.9202742307093392
 40
1.0
 40
1.0
 40
1.0
 40
1.0
 10
129.20161985513
 20
238.8050644898676
 30
0.0
 10
129.2022260781172
 20
239.1478648122385
 30
0.0
 10
129.2042651191957
 20
240.300879385706
 30
0.0
 10
129.2091335872216
 20
243.0741380090957
 30
0.0
 10
129.205943473399
 20
246.7023629618018
 30
0.0
 10
129.2024995743664
 20
250.7179021000651
 30
0.0
 10
129.2023445644131
 20
253.7084958033986
 30
0.0
 10
129.2027441751977
 20
256.1030728994992
 30
0.0
 10
129.2031403873768
 20
257.9010364937365
 30
0.0
 10
129.2034834970357
 20
259.7031742728989
 30
0.0
 10
129.2035001011904
 20
260.8970541446482
 30
0.0
 10
129.2035084170183
 20
261.4949827816463
 30
0.0
  0
LINE
  5
1B4
330
1F
100
AcDbEntity
  8
0
  6
Continuous
 62
     7
370
    40
100
AcDbLine
 10
60.1788879556
 20
202.05223503
 30
0.0
 11
60.2708372832
 21
202.0026924783
 31
0.0
  0
LINE
  5
1B5
330
1F
100
AcDbEntity
  8
0
  6
Continuous
 62
     7
370
    40
100
AcDbLine
 10
122.9360371011
 20
202.0026924783
 30
0.0
 11
123.0213599271
 21
202.048674153
 31
0.0
  0
LINE
  5
1B6
330
1F
100
AcDbEntity
  8
0
  6
Continuous
 62
     7
370
    40
100
AcDbLine
 10
123.3524653449
 20
268.3004174872
 30
0.0
 11
123.0066003369
 21
268.3508345106
 31
0.0
  0
LINE
  5
1B7
330
1F
100
AcDbEntity
  8
0
  6
Continuous
 62
     7
370
    40
100
AcDbLine
 10
53.9034371921
 20
191.8056045269
 30
0.0
 11
54.7034371921
 21
191.8056045269
 31
0.0
  0
LINE
  5
1B8
330
1F
100
AcDbEntity
  8
0
  6
Continuous
 62
     7
370
    40
100
AcDbLine
 10
70.3034371921
 20
184.7050644899
 30
0.0
 11
70.3034371921
 21
196.9050644899
 31
0.0
  0
LINE
  5
1B9
330
1F
100
AcDbEntity
  8
0
  6
Continuous
 62
     7
370
    40
100
AcDbLine
 10
53.9034371921
 20
184.7050644899
 30
0.0
 11
53.9034371921
 21
191.8056045269
 31
0.0
  0
LINE
  5
1BA
330
1F
100
AcDbEntity
  8
0
  6
Continuous
 62
     7
370
    40
100
AcDbLine
 10
54.7034371921
 20
191.8056045269
 30
0.0
 11
54.7034371921
 21
237.3481835747
 31
0.0
  0
LINE
  5
1BB
330
1F
100
AcDbEntity
  8
0
  6
Continuous
 62
     7
370
    40
100
AcDbLine
 10
53.9034371921
 20
191.8056045269
 30
0.0
 11
53.9034371921
 21
237.3481835747
 31
0.0
  0
LINE
  5
1BC
330
1F
100
AcDbEntity
  8
0
  6
Continuous
 62
     7
370
    40
100
AcDbLine
 10
54.7034371921
 20
238.8050644899
 30
0.0
 11
53.9034371921
 21
238.8050644899
 31
0.0
  0
LINE
  5
1BD
330
1F
100
AcDbEntity
  8
0
  6
Continuous
 62
     7
370
    40
100
AcDbLine
 10
54.7034371921
 20
237.3481835747
 30
0.0
 11
54.7034371921
 21
238.8050644899
 31
0.0
  0
LINE
  5
1BE
330
1F
100
AcDbEntity
  8
0
  6
Continuous
 62
     7
370
    40
100
AcDbLine
 10
53.9034371921
 20
237.3481835747
 30
0.0
 11
53.9034371921
 21
238.8050644899
 31
0.0
  0
SPLINE
  5
1BF
330
1F
100
AcDbEntity
  8
0
  6
Continuous
 62
     7
370
    40
100
AcDbSpline
210
0.0
220
0.0
230
1.0
 70
     8
 71
     3
 72
    15
 73
    11
 74
     0
 42
0.00000001
 43
0.00000001
 12
1.0
 22
0.0
 32
0.0
 13
1.0
 23
0.0
 33
0.0
 40
0.0
 40
0.0
 40
0.0
 40
0.0
 40
0.1250000000000012
 40
0.2499999999999997
 40
0.3750000000000006
 40
0.4999999999999997
 40
0.6249999999999991
 40
0.7499999999999989
 40
0.8750000000000003
 40
1.0
 40
1.0
 40
1.0
 40
1.0
 10
59.03941656321285
 20
236.8050644898676
 30
0.0
 10
59.03206478064428
 20
236.9359634934638
 30
0.0
 10
59.0173612155071
 20
237.197761500656
 30
0.0
 10
58.89990009987349
 20
237.5753603109078
 30
0.0
 10
58.71733818564506
 20
237.9233853832999
 30
0.0
 10
58.46978054924635
 20
238.2283278913337
 30
0.0
 10
58.16859238950958
 20
238.4789713648099
 30
0.0
 10
57.82485208327306
 20
238.6638089362633
 30
0.0
 10
57.4519021409648
 20
238.7827342194784
 30
0.0
 10
57.19332730166998
 20
238.7976210664046
 30
0.0
 10
57.06403988202258
 20
238.8050644898676
 30
0.0
  0
LINE
  5
1C0
330
1F
100
AcDbEntity
  8
0
  6
Continuous
 62
     7
370
    40
100
AcDbLine
 10
59.0394165632
 20
229.642857028
 30
0.0
 11
59.0394165632
 21
236.8050644899
 31
0.0
  0
SPLINE
  5
1C1
330
1F
100
AcDbEntity
  8
0
  6
Continuous
 62
     7
370
    40
100
AcDbSpline
210
0.0
220
0.0
230
1.0
 70
     8
 71
     3
 72
    19
 73
    15
 74
     0
 42
0.00000001
 43
0.00000001
 12
1.0
 22
0.0
 32
0.0
 13
1.0
 23
0.0
 33
0.0
 40
0.0
 40
0.0
 40
0.0
 40
0.0
 40
0.0833333333333336
 40
0.1666666666666666
 40
0.2500000000000002
 40
0.3333333333333333
 40
0.4166666666666669
 40
0.5
 40
0.5833333333333334
 40
0.6666666666666664
 40
0.7499999999999996
 40
0.8333333333333336
 40
0.9166666666666666
 40
1.0
 40
1.0
 40
1.0
 40
1.0
 10
70.67004414510627
 20
205.8128041485012
 30
0.0
 10
70.08005605952324
 20
206.2909051915571
 30
0.0
 10
68.90007988835718
 20
207.2471072776691
 30
0.0
 10
67.27394289859757
 20
208.8497296856264
 30
0.0
 10
65.76537809725836
 20
210.5639501618011
 30
0.0
 10
64.39279269577457
 20
212.3924304930486
 30
0.0
 10
63.16164032380669
 20
214.3210777376861
 30
0.0
 10
62.07983093143532
 20
216.3395235159992
 30
0.0
 10
61.15342556466584
 20
218.4357193223068
 30
0.0
 10
60.38819498179775
 20
220.5974714173844
 30
0.0
 10
59.78746861709029
 20
222.8121197483648
 30
0.0
 10
59.35899019556241
 20
225.0667171288154
 30
0.0
 10
59.08948938781617
 20
227.3480767877627
 30
0.0
 10
59.05610750474731
 20
228.8779302812469
 30
0.0
 10
59.03941656321288
 20
229.6428570279889
 30
0.0
  0
SPLINE
  5
1C2
330
1F
100
AcDbEntity
  8
0
  6
Continuous
 62
     7
370
    40
100
AcDbSpline
210
0.0
220
0.0
230
1.0
 70
     8
 71
     3
 72
    11
 73
     7
 74
     0
 42
0.00000001
 43
0.00000001
 12
1.0
 22
0.0
 32
0.0
 13
1.0
 23
0.0
 33
0.0
 40
0.0
 40
0.0
 40
0.0
 40
0.0
 40
0.2500000000000004
 40
0.5000000000000001
 40
0.7499999999999992
 40
1.0
 40
1.0
 40
1.0
 40
1.0
 10
71.17565700611723
 20
203.6192990709202
 30
0.0
 10
71.24677352869931
 20
203.8108228685766
 30
0.0
 10
71.38900657386345
 20
204.1938704638895
 30
0.0
 10
71.34157182708893
 20
204.8149899492614
 30
0.0
 10
71.11255477745019
 20
205.3932039181977
 30
0.0
 10
70.81754768922092
 20
205.6729374050666
 30
0.0
 10
70.67004414510627
 20
205.8128041485012
 30
0.0
  0
SPLINE
  5
1C3
330
1F
100
AcDbEntity
  8
0
  6
Continuous
 62
     7
370
    40
100
AcDbSpline
210
0.0
220
0.0
230
1.0
 70
     8
 71
     3
 72
     9
 73
     5
 74
     0
 42
0.00000001
 43
0.00000001
 12
1.0
 22
0.0
 32
0.0
 13
1.0
 23
0.0
 33
0.0
 40
0.0
 40
0.0
 40
0.0
 40
0.0
 40
0.5000000000000003
 40
1.0
 40
1.0
 40
1.0
 40
1.0
 10
69.95774510867464
 20
200.1566529841942
 30
0.0
 10
70.11054670920993
 20
200.7518545045823
 30
0.0
 10
70.4161499102805
 20
201.9422575453587
 30
0.0
 10
70.92248797417166
 20
203.0602852290663
 30
0.0
 10
71.17565700611723
 20
203.6192990709202
 30
0.0
  0
SPLINE
  5
1C4
330
1F
100
AcDbEntity
  8
0
  6
Continuous
 62
     7
370
    40
100
AcDbSpline
210
0.0
220
0.0
230
1.0
 70
     8
 71
     3
 72
    15
 73
    11
 74
     0
 42
0.00000001
 43
0.00000001
 12
1.0
 22
0.0
 32
0.0
 13
1.0
 23
0.0
 33
0.0
 40
0.0
 40
0.0
 40
0.0
 40
0.0
 40
0.1249999999999998
 40
0.25
 40
0.3749999999999996
 40
0.4999999999999991
 40
0.6250000000000003
 40
0.7500000000000002
 40
0.8750000000000006
 40
1.0
 40
1.0
 40
1.0
 40
1.0
 10
68.43652024634785
 20
199.2828070981264
 30
0.0
 10
68.5160027629484
 20
199.2619368457882
 30
0.0
 10
68.6749677961495
 20
199.2201963411118
 30
0.0
 10
68.92307829893873
 20
199.2223412002349
 30
0.0
 10
69.16490302457002
 20
199.2725129836233
 30
0.0
 10
69.39141227673261
 20
199.3730363701786
 30
0.0
 10
69.59283266762581
 20
199.5183310525831
 30
0.0
 10
69.75941953047719
 20
199.7027654705896
 30
0.0
 10
69.88851182972131
 20
199.9172993714138
 30
0.0
 10
69.93466734902353
 20
200.0768684466007
 30
0.0
 10
69.95774510867464
 20
200.1566529841942
 30
0.0
  0
SPLINE
  5
1C5
330
1F
100
AcDbEntity
  8
0
  6
Continuous
 62
     7
370
    40
100
AcDbSpline
210
0.0
220
0.0
230
1.0
 70
     8
 71
     3
 72
     9
 73
     5
 74
     0
 42
0.00000001
 43
0.00000001
 12
1.0
 22
0.0
 32
0.0
 13
1.0
 23
0.0
 33
0.0
 40
0.0
 40
0.0
 40
0.0
 40
0.0
 40
0.5007338518622619
 40
1.0
 40
1.0
 40
1.0
 40
1.0
 10
60.30984823455113
 20
202.4842854973575
 30
0.0
 10
61.64363182933151
 20
201.890978833584
 30
0.0
 10
64.30728955852227
 20
200.7061045504353
 30
0.0
 10
67.0614574512307
 20
199.7567751374576
 30
0.0
 10
68.43652024634785
 20
199.2828070981264
 30
0.0
  0
LINE
  5
1C6
330
1F
100
AcDbEntity
  8
0
  6
Continuous
 62
     7
370
    40
100
AcDbLine
 10
59.329538612
 20
203.0566351689
 30
0.0
 11
60.3098482346
 21
202.4842854974
 31
0.0
  0
SPLINE
  5
1C7
330
1F
100
AcDbEntity
  8
0
  6
Continuous
 62
     7
370
    40
100
AcDbSpline
210
0.0
220
0.0
230
1.0
 70
     8
 71
     3
 72
    15
 73
    11
 74
     0
 42
0.00000001
 43
0.00000001
 12
1.0
 22
0.0
 32
0.0
 13
1.0
 23
0.0
 33
0.0
 40
0.0
 40
0.0
 40
0.0
 40
0.0
 40
0.1250000000000004
 40
0.2500000000000001
 40
0.3749999999999997
 40
0.4999999999999998
 40
0.6249999999999998
 40
0.750000000000001
 40
0.8749999999999998
 40
1.0
 40
1.0
 40
1.0
 40
1.0
 10
57.45911521826067
 20
202.0774891359694
 30
0.0
 10
57.46769366145144
 20
202.1868467582226
 30
0.0
 10
57.48485054783298
 20
202.4055620027289
 30
0.0
 10
57.62030397210913
 20
202.7092576017125
 30
0.0
 10
57.82552451720475
 20
202.9660496769272
 30
0.0
 10
58.09319355047058
 20
203.1567354739248
 30
0.0
 10
58.40161258638251
 20
203.2676254321621
 30
0.0
 10
58.72720485302165
 20
203.2887080138828
 30
0.0
 10
59.05026365852624
 20
203.2250385139954
 30
0.0
 10
59.23644696082264
 20
203.1127696172805
 30
0.0
 10
59.32953861197083
 20
203.056635168923
 30
0.0
  0
LINE
  5
1C8
330
1F
100
AcDbEntity
  8
0
  6
Continuous
 62
     7
370
    40
100
AcDbLine
 10
57.4591152183
 20
196.9050644899
 30
0.0
 11
57.4591152183
 21
202.077489136
 31
0.0
  0
LINE
  5
1C9
330
1F
100
AcDbEntity
  8
0
  6
Continuous
 62
     7
370
    40
100
AcDbLine
 10
57.064039882
 20
238.8050644899
 30
0.0
 11
54.7034371921
 21
238.8050644899
 31
0.0
  0
ARC
  5
1CA
330
1F
100
AcDbEntity
  8
0
  6
Continuous
 62
     7
370
    40
100
AcDbCircle
 10
58.775121326
 20
202.0866089998
 30
0.0
 40
1.190893456218486
100
AcDbArc
 50
90.2709908499
 51
180.4387754525
  0
LINE
  5
1CB
330
1F
100
AcDbEntity
  8
0
  6
Continuous
 62
     7
370
    40
100
AcDbLine
 10
57.1480377052
 20
238.8050644899
 30
0.0
 11
57.064039882
 21
238.8050644899
 31
0.0
  0
LINE
  5
1CC
330
1F
100
AcDbEntity
  8
0
  6
Continuous
 62
     7
370
    40
100
AcDbLine
 10
57.5842627903
 20
196.9050644899
 30
0.0
 11
57.5842627903
 21
202.077489136
 31
0.0
  0
LINE
  5
1CD
330
1F
100
AcDbEntity
  8
0
  6
Continuous
 62
     7
370
    40
100
AcDbLine
 10
112.9034371921
 20
196.9050644899
 30
0.0
 11
112.9034371921
 21
184.7050644899
 31
0.0
  0
LINE
  5
1CE
330
1F
100
AcDbEntity
  8
0
  6
Continuous
 62
     7
370
    40
100
AcDbLine
 10
129.3034371921
 20
191.8056045269
 30
0.0
 11
128.5034371921
 21
191.8056045269
 31
0.0
  0
LINE
  5
1CF
330
1F
100
AcDbEntity
  8
0
  6
Continuous
 62
     7
370
    40
100
AcDbLine
 10
129.3034371921
 20
191.8056045269
 30
0.0
 11
129.3034371921
 21
184.7050644899
 31
0.0
  0
LINE
  5
1D0
330
1F
100
AcDbEntity
  8
0
  6
Continuous
 62
     7
370
    40
100
AcDbLine
 10
128.5034371921
 20
237.3481835747
 30
0.0
 11
128.5034371921
 21
191.8056045269
 31
0.0
  0
LINE
  5
1D1
330
1F
100
AcDbEntity
  8
0
  6
Continuous
 62
     7
370
    40
100
AcDbLine
 10
129.3034371921
 20
237.3481835747
 30
0.0
 11
129.3034371921
 21
191.8056045269
 31
0.0
  0
LINE
  5
1D2
330
1F
100
AcDbEntity
  8
0
  6
Continuous
 62
     7
370
    40
100
AcDbLine
 10
129.3034371921
 20
238.8050644899
 30
0.0
 11
128.5034371921
 21
238.8050644899
 31
0.0
  0
LINE
  5
1D3
330
1F
100
AcDbEntity
  8
0
  6
Continuous
 62
     7
370
    40
100
AcDbLine
 10
128.5034371921
 20
238.8050644899
 30
0.0
 11
128.5034371921
 21
237.3481835747
 31
0.0
  0
LINE
  5
1D4
330
1F
100
AcDbEntity
  8
0
  6
Continuous
 62
     7
370
    40
100
AcDbLine
 10
129.3034371921
 20
238.8050644899
 30
0.0
 11
129.3034371921
 21
237.3481835747
 31
0.0
  0
SPLINE
  5
1D5
330
1F
100
AcDbEntity
  8
0
  6
Continuous
 62
     7
370
    40
100
AcDbSpline
210
0.0
220
0.0
230
1.0
 70
     8
 71
     3
 72
    10
 73
     6
 74
     0
 42
0.00000001
 43
0.00000001
 12
1.0
 22
0.0
 32
0.0
 13
1.0
 23
0.0
 33
0.0
 40
0.0
 40
0.0
 40
0.0
 40
0.0
 40
0.34886264069567
 40
0.6738300671541738
 40
0.9999999999999999
 40
0.9999999999999999
 40
0.9999999999999999
 40
0.9999999999999999
 10
122.8970261778786
 20
202.484285510392
 30
0.0
 10
123.0157925952011
 20
202.5421435264014
 30
0.0
 10
123.2451905691443
 20
202.6538965955612
 30
0.0
 10
123.5722554242433
 20
202.8461178270629
 30
0.0
 10
123.7755171964437
 20
202.986376379483
 30
0.0
 10
123.8773357722655
 20
203.056635168923
 30
0.0
  0
SPLINE
  5
1D6
330
1F
100
AcDbEntity
  8
0
  6
Continuous
 62
     7
370
    40
100
AcDbSpline
210
0.0
220
0.0
230
1.0
 70
     8
 71
     3
 72
    10
 73
     6
 74
     0
 42
0.00000001
 43
0.00000001
 12
1.0
 22
0.0
 32
0.0
 13
1.0
 23
0.0
 33
0.0
 40
0.0
 40
0.0
 40
0.0
 40
0.0
 40
0.1811491488772171
 40
0.5435057124944928
 40
1.0
 40
1.0
 40
1.0
 40
1.0
 10
114.7703541378337
 20
199.2828070981084
 30
0.0
 10
115.2703280621702
 20
199.4508137181063
 30
0.0
 10
116.7704106496921
 20
199.9548876167236
 30
0.0
 10
119.499632586102
 20
200.9763185716034
 30
0.0
 10
121.6809704451364
 20
201.9445270775928
 30
0.0
 10
122.8970261778786
 20
202.4842855103921
 30
0.0
  0
ARC
  5
1D7
330
1F
100
AcDbEntity
  8
0
  6
Continuous
 62
     7
370
    40
100
AcDbCircle
 10
114.4059198744
 20
200.4094123847
 30
0.0
 40
1.184082684677159
100
AcDbArc
 50
192.3254476907
 51
287.9253562176
  0
ARC
  5
1D8
330
1F
100
AcDbEntity
  8
0
  6
Continuous
 62
     7
370
    40
100
AcDbCircle
 10
97.7992572653
 20
196.6680003825
 30
0.0
 40
15.83885229768488
100
AcDbArc
 50
12.7242562685
 51
26.0322138477
  0
ARC
  5
1D9
330
1F
100
AcDbEntity
  8
0
  6
Continuous
 62
     7
370
    40
100
AcDbCircle
 10
113.6350956628
 20
204.4046234245
 30
0.0
 40
1.785821909467052
100
AcDbArc
 50
127.9513079084
 51
206.0882587859
  0
ARC
  5
1DA
330
1F
100
AcDbEntity
  8
0
  6
Continuous
 62
     7
370
    40
100
AcDbCircle
 10
94.0459334539
 20
229.5908543326
 30
0.0
 40
30.12156925657925
100
AcDbArc
 50
307.8702656703
 51
0.0989170393
  0
LINE
  5
1DB
330
1F
100
AcDbEntity
  8
0
  6
Continuous
 62
     7
370
    40
100
AcDbLine
 10
124.167457821
 20
236.8050644899
 30
0.0
 11
124.167457821
 21
229.642857028
 31
0.0
  0
ARC
  5
1DC
330
1F
100
AcDbEntity
  8
0
  6
Continuous
 62
     7
370
    40
100
AcDbCircle
 10
126.1552228948
 20
236.8173003608
 30
0.0
 40
1.987802732945036
100
AcDbArc
 50
90.3570813109
 51
180.3526849915
  0
LINE
  5
1DD
330
1F
100
AcDbEntity
  8
0
  6
Continuous
 62
     7
370
    40
100
AcDbLine
 10
128.5034371921
 20
238.8050644899
 30
0.0
 11
126.1428345022
 21
238.8050644899
 31
0.0
  0
LINE
  5
1DE
330
1F
100
AcDbEntity
  8
0
  6
Continuous
 62
     7
370
    40
100
AcDbLine
 10
125.747759166
 20
202.077489136
 30
0.0
 11
125.747759166
 21
196.9050644899
 31
0.0
  0
ARC
  5
1DF
330
1F
100
AcDbEntity
  8
0
  6
Continuous
 62
     7
370
    40
100
AcDbCircle
 10
124.5626387841
 20
202.0896716152
 30
0.0
 40
1.185182995268659
100
AcDbArc
 50
359.4110471214
 51
125.3258292316
  0
ARC
  5
1E0
330
1F
100
AcDbEntity
  8
0
  6
Continuous
 62
     7
370
    40
100
AcDbCircle
 10
124.4287375803
 20
202.0840498198
 30
0.0
 40
1.193892039973149
100
AcDbArc
 50
359.68514625
 51
86.5799819922
  0
LINE
  5
1E1
330
1F
100
AcDbEntity
  8
0
  6
Continuous
 62
     7
370
    40
100
AcDbLine
 10
126.1428345022
 20
238.8050644899
 30
0.0
 11
126.058836679
 21
238.8050644899
 31
0.0
  0
LINE
  5
1E2
330
1F
100
AcDbEntity
  8
0
  6
Continuous
 62
     7
370
    40
100
AcDbLine
 10
125.6226115939
 20
202.077489136
 30
0.0
 11
125.6226115939
 21
196.9050644899
 31
0.0
  0
LINE
  5
1E3
330
1F
100
AcDbEntity
  8
0
  6
Continuous
 62
     7
370
    40
100
AcDbLine
 10
133.0034371921
 20
197.2050644899
 30
0.0
 11
133.0034371921
 21
188.0478318292
 31
0.0
  0
LINE
  5
1E4
330
1F
100
AcDbEntity
  8
0
  6
Continuous
 62
     7
370
    40
100
AcDbLine
 10
129.6034371921
 20
197.2050644899
 30
0.0
 11
129.6034371921
 21
188.0478318292
 31
0.0
  0
LINE
  5
1E5
330
1F
100
AcDbEntity
  8
0
  6
Continuous
 62
     7
370
    40
100
AcDbLine
 10
112.2034371921
 20
196.8050644899
 30
0.0
 11
112.2034371921
 21
184.8050644899
 31
0.0
  0
CIRCLE
  5
1E6
330
1F
100
AcDbEntity
  8
0
  6
Continuous
 62
     7
370
    40
100
AcDbCircle
 10
129.1034371921
 20
173.6050644899
 30
0.0
 40
1.100000000000023
  0
ARC
  5
1E7
330
1F
100
AcDbEntity
  8
0
  6
Continuous
 62
     7
370
    40
100
AcDbCircle
 10
131.0034371921
 20
171.2050644899
 30
0.0
 40
2.0
100
AcDbArc
 50
270.0
 51
0.0
  0
LINE
  5
1E8
330
1F
100
AcDbEntity
  8
0
  6
Continuous
 62
     7
370
    40
100
AcDbLine
 10
131.0034371921
 20
169.2050644899
 30
0.0
 11
125.2034371921
 21
169.2050644899
 31
0.0
  0
ARC
  5
1E9
330
1F
100
AcDbEntity
  8
0
  6
Continuous
 62
     7
370
    40
100
AcDbCircle
 10
125.2034371921
 20
171.2050644899
 30
0.0
 40
2.000000000000014
100
AcDbArc
 50
180.0
 51
270.0
  0
LINE
  5
1EA
330
1F
100
AcDbEntity
  8
0
  6
Continuous
 62
     7
370
    40
100
AcDbLine
 10
123.2034371921
 20
171.2050644899
 30
0.0
 11
123.2034371921
 21
179.2050644899
 31
0.0
  0
LINE
  5
1EB
330
1F
100
AcDbEntity
  8
0
  6
Continuous
 62
     7
370
    40
100
AcDbLine
 10
133.0034371921
 20
171.2050644899
 30
0.0
 11
133.0034371921
 21
179.2050644899
 31
0.0
  0
LINE
  5
1EC
330
1F
100
AcDbEntity
  8
0
  6
Continuous
 62
     7
370
    40
100
AcDbLine
 10
123.2034371921
 20
180.2050644899
 30
0.0
 11
133.0034371921
 21
180.2050644899
 31
0.0
  0
LINE
  5
1ED
330
1F
100
AcDbEntity
  8
0
  6
Continuous
 62
     7
370
    40
100
AcDbLine
 10
123.2034371921
 20
179.2050644899
 30
0.0
 11
123.2034371921
 21
180.2050644899
 31
0.0
  0
LINE
  5
1EE
330
1F
100
AcDbEntity
  8
0
  6
Continuous
 62
     7
370
    40
100
AcDbLine
 10
133.0034371921
 20
180.2050644899
 30
0.0
 11
133.0034371921
 21
179.2050644899
 31
0.0
  0
LINE
  5
1EF
330
1F
100
AcDbEntity
  8
0
  6
Continuous
 62
     7
370
    40
100
AcDbLine
 10
129.6034371921
 20
183.7396557968
 30
0.0
 11
129.6034371921
 21
188.0478318292
 31
0.0
  0
LINE
  5
1F0
330
1F
100
AcDbEntity
  8
0
  6
Continuous
 62
     7
370
    40
100
AcDbLine
 10
133.0034371921
 20
188.0478318292
 30
0.0
 11
133.0034371921
 21
183.7396557968
 31
0.0
  0
LINE
  5
1F1
330
1F
100
AcDbEntity
  8
0
  6
Continuous
 62
     7
370
    40
100
AcDbLine
 10
129.6034371921
 20
183.7396557968
 30
0.0
 11
129.6034371921
 21
180.2050644899
 31
0.0
  0
LINE
  5
1F2
330
1F
100
AcDbEntity
  8
0
  6
Continuous
 62
     7
370
    40
100
AcDbLine
 10
133.0034371921
 20
183.7396557968
 30
0.0
 11
133.0034371921
 21
180.2050644899
 31
0.0
  0
LINE
  5
1F3
330
1F
100
AcDbEntity
  8
0
  6
Continuous
 62
     7
370
    40
100
AcDbLine
 10
50.2034371921
 20
197.2050644899
 30
0.0
 11
50.2034371921
 21
188.0478318292
 31
0.0
  0
LINE
  5
1F4
330
1F
100
AcDbEntity
  8
0
  6
Continuous
 62
     7
370
    40
100
AcDbLine
 10
53.6034371921
 20
197.2050644899
 30
0.0
 11
53.6034371921
 21
188.0478318292
 31
0.0
  0
LINE
  5
1F5
330
1F
100
AcDbEntity
  8
0
  6
Continuous
 62
     7
370
    40
100
AcDbLine
 10
71.0034371921
 20
196.8050644899
 30
0.0
 11
71.0034371921
 21
184.8050644899
 31
0.0
  0
CIRCLE
  5
1F6
330
1F
100
AcDbEntity
  8
0
  6
Continuous
 62
     7
370
    40
100
AcDbCircle
 10
54.1034371921
 20
173.6050644899
 30
0.0
 40
1.100000000000009
  0
ARC
  5
1F7
330
1F
100
AcDbEntity
  8
0
  6
Continuous
 62
     7
370
    40
100
AcDbCircle
 10
58.0034371921
 20
171.2050644899
 30
0.0
 40
2.0
100
AcDbArc
 50
270.0
 51
0.0
  0
LINE
  5
1F8
330
1F
100
AcDbEntity
  8
0
  6
Continuous
 62
     7
370
    40
100
AcDbLine
 10
58.0034371921
 20
169.2050644899
 30
0.0
 11
52.2034371921
 21
169.2050644899
 31
0.0
  0
ARC
  5
1F9
330
1F
100
AcDbEntity
  8
0
  6
Continuous
 62
     7
370
    40
100
AcDbCircle
 10
52.2034371921
 20
171.2050644899
 30
0.0
 40
2.0
100
AcDbArc
 50
180.0
 51
270.0
  0
LINE
  5
1FA
330
1F
100
AcDbEntity
  8
0
  6
Continuous
 62
     7
370
    40
100
AcDbLine
 10
60.0034371921
 20
179.2050644899
 30
0.0
 11
60.0034371921
 21
171.2050644899
 31
0.0
  0
LINE
  5
1FB
330
1F
100
AcDbEntity
  8
0
  6
Continuous
 62
     7
370
    40
100
AcDbLine
 10
50.2034371921
 20
171.2050644899
 30
0.0
 11
50.2034371921
 21
179.2050644899
 31
0.0
  0
LINE
  5
1FC
330
1F
100
AcDbEntity
  8
0
  6
Continuous
 62
     7
370
    40
100
AcDbLine
 10
50.2034371921
 20
180.2050644899
 30
0.0
 11
60.0034371921
 21
180.2050644899
 31
0.0
  0
LINE
  5
1FD
330
1F
100
AcDbEntity
  8
0
  6
Continuous
 62
     7
370
    40
100
AcDbLine
 10
60.0034371921
 20
180.2050644899
 30
0.0
 11
60.0034371921
 21
179.2050644899
 31
0.0
  0
LINE
  5
1FE
330
1F
100
AcDbEntity
  8
0
  6
Continuous
 62
     7
370
    40
100
AcDbLine
 10
50.2034371921
 20
179.2050644899
 30
0.0
 11
50.2034371921
 21
180.2050644899
 31
0.0
  0
LINE
  5
1FF
330
1F
100
AcDbEntity
  8
0
  6
Continuous
 62
     7
370
    40
100
AcDbLine
 10
50.2034371921
 20
183.7396557968
 30
0.0
 11
50.2034371921
 21
188.0478318292
 31
0.0
  0
LINE
  5
200
330
1F
100
AcDbEntity
  8
0
  6
Continuous
 62
     7
370
    40
100
AcDbLine
 10
53.6034371921
 20
188.0478318292
 30
0.0
 11
53.6034371921
 21
183.7396557968
 31
0.0
  0
LINE
  5
201
330
1F
100
AcDbEntity
  8
0
  6
Continuous
 62
     7
370
    40
100
AcDbLine
 10
50.2034371921
 20
183.7396557968
 30
0.0
 11
50.2034371921
 21
180.2050644899
 31
0.0
  0
LINE
  5
202
330
1F
100
AcDbEntity
  8
0
  6
Continuous
 62
     7
370
    40
100
AcDbLine
 10
53.6034371921
 20
183.7396557968
 30
0.0
 11
53.6034371921
 21
180.2050644899
 31
0.0
  0
ENDSEC
  0
SECTION
  2
OBJECTS
  0
DICTIONARY
  5
C
330
0
100
AcDbDictionary
281
     1
  3
ACAD_GROUP
350
D
  3
ACAD_LAYOUT
350
1A
  3
ACAD_MLINESTYLE
350
17
  3
ACAD_PLOTSETTINGS
350
19
  3
ACAD_PLOTSTYLENAME
350
E
  0
DICTIONARY
  5
D
102
{ACAD_REACTORS
330
C
102
}
330
C
100
AcDbDictionary
281
     1
  0
DICTIONARY
  5
1A
102
{ACAD_REACTORS
330
C
102
}
330
C
100
AcDbDictionary
281
     1
  3
Layout1
350
1E
  3
Layout2
350
26
  3
Model
350
22
  0
DICTIONARY
  5
17
102
{ACAD_REACTORS
330
C
102
}
330
C
100
AcDbDictionary
281
     1
  3
Standard
350
18
  0
DICTIONARY
  5
19
102
{ACAD_REACTORS
330
C
102
}
330
C
100
AcDbDictionary
281
     1
  0
ACDBDICTIONARYWDFLT
  5
E
102
{ACAD_REACTORS
330
C
102
}
330
C
100
AcDbDictionary
281
     1
  3
Normal
350
F
100
AcDbDictionaryWithDefault
340
F
  0
LAYOUT
  5
1E
102
{ACAD_REACTORS
330
1A
102
}
330
1A
100
AcDbPlotSettings
  1

  2
none_device
  4

  6

 40
0.0
 41
0.0
 42
0.0
 43
0.0
 44
0.0
 45
0.0
 46
0.0
 47
0.0
 48
0.0
 49
0.0
140
0.0
141
0.0
142
1.0
143
1.0
 70
   688
 72
     0
 73
     0
 74
     5
  7

 75
    16
147
1.0
148
0.0
149
0.0
100
AcDbLayout
  1
Layout1
 70
     1
 71
     1
 10
0.0
 20
0.0
 11
420.0
 21
297.0
 12
0.0
 22
0.0
 32
0.0
 14
1.0000000000E+20
 24
1.0000000000E+20
 34
1.0000000000E+20
 15
-1.0000000000E+20
 25
-1.0000000000E+20
 35
-1.0000000000E+20
146
0.0
 13
0.0
 23
0.0
 33
0.0
 16
1.0
 26
0.0
 36
0.0
 17
0.0
 27
1.0
 37
0.0
 76
     0
330
1B
  0
LAYOUT
  5
26
102
{ACAD_REACTORS
330
1A
102
}
330
1A
100
AcDbPlotSettings
  1

  2
none_device
  4

  6

 40
0.0
 41
0.0
 42
0.0
 43
0.0
 44
0.0
 45
0.0
 46
0.0
 47
0.0
 48
0.0
 49
0.0
140
0.0
141
0.0
142
1.0
143
1.0
 70
   688
 72
     0
 73
     0
 74
     5
  7

 75
    16
147
1.0
148
0.0
149
0.0
100
AcDbLayout
  1
Layout2
 70
     1
 71
     2
 10
0.0
 20
0.0
 11
0.0
 21
0.0
 12
0.0
 22
0.0
 32
0.0
 14
0.0
 24
0.0
 34
0.0
 15
0.0
 25
0.0
 35
0.0
146
0.0
 13
0.0
 23
0.0
 33
0.0
 16
1.0
 26
0.0
 36
0.0
 17
0.0
 27
1.0
 37
0.0
 76
     0
330
23
  0
LAYOUT
  5
22
102
{ACAD_REACTORS
330
1A
102
}
330
1A
100
AcDbPlotSettings
  1

  2
none_device
  4

  6

 40
0.0
 41
0.0
 42
0.0
 43
0.0
 44
0.0
 45
0.0
 46
0.0
 47
0.0
 48
0.0
 49
0.0
140
0.0
141
0.0
142
1.0
143
1.0
 70
  1712
 72
     0
 73
     0
 74
     0
  7

 75
     0
147
1.0
148
0.0
149
0.0
100
AcDbLayout
  1
Model
 70
     1
 71
     0
 10
0.0
 20
0.0
 11
420.0
 21
297.0
 12
0.0
 22
0.0
 32
0.0
 14
0.0
 24
0.0
 34
0.0
 15
420.0
 25
297.0
 35
0.0
146
0.0
 13
0.0
 23
0.0
 33
0.0
 16
1.0
 26
0.0
 36
0.0
 17
0.0
 27
1.0
 37
0.0
 76
     0
330
1F
331
29
  0
MLINESTYLE
  5
18
102
{ACAD_REACTORS
330
17
102
}
330
17
100
AcDbMlineStyle
  2
Standard
 70
     0
  3

 62
   256
 51
90.0
 52
90.0
 71
     2
 49
0.5
 62
   256
  6
BYLAYER
 49
-0.5
 62
   256
  6
BYLAYER
  0
ACDBPLACEHOLDER
  5
F
102
{ACAD_REACTORS
330
E
102
}
330
E
  0
ENDSEC
  0
EOF
