  0
SECTION
  2
HEADER
  9
$ACADVER
  1
AC1021
  9
$ACADMAINTVER
 70
    25
  9
$DWGCODEPAGE
  3
ANSI_1252
  9
$INSBASE
 10
0.0
 20
0.0
 30
0.0
  9
$EXTMIN
 10
0.0
 20
0.0
 30
0.0
  9
$EXTMAX
 10
2100.0
 20
1485.0
 30
0.0
  9
$LIMMIN
 10
0.0
 20
0.0
  9
$LIMMAX
 10
2100.0
 20
1485.0
  9
$ORTHOMODE
 70
     0
  9
$REGENMODE
 70
     1
  9
$FILLMODE
 70
     1
  9
$QTEXTMODE
 70
     0
  9
$MIRRTEXT
 70
     1
  9
$LTSCALE
 40
5.0
  9
$ATTMODE
 70
     1
  9
$TEXTSIZE
 40
17.5
  9
$TRACEWID
 40
1.0
  9
$TEXTSTYLE
  7
Standard
  9
$CLAYER
  8
0
  9
$CELTYPE
  6
ByLayer
  9
$CECOLOR
 62
   256
  9
$CELTSCALE
 40
1.0
  9
$DISPSILH
 70
     0
  9
$DIMSCALE
 40
1.0
  9
$DIMASZ
 40
20.0
  9
$DIMEXO
 40
0.0
  9
$DIMDLI
 40
3.75
  9
$DIMRND
 40
0.0
  9
$DIMDLE
 40
0.0
  9
$DIMEXE
 40
10.0
  9
$DIMTP
 40
0.0
  9
$DIMTM
 40
0.0
  9
$DIMTXT
 40
17.5
  9
$DIMCEN
 40
2.5
  9
$DIMTSZ
 40
0.0
  9
$DIMTOL
 70
     0
  9
$DIMLIM
 70
     0
  9
$DIMTIH
 70
     1
  9
$DIMTOH
 70
     1
  9
$DIMSE1
 70
     0
  9
$DIMSE2
 70
     0
  9
$DIMTAD
 70
     1
  9
$DIMZIN
 70
     0
  9
$DIMBLK
  1

  9
$DIMASO
 70
     1
  9
$DIMSHO
 70
     1
  9
$DIMPOST
  1

  9
$DIMAPOST
  1

  9
$DIMALT
 70
     0
  9
$DIMALTD
 70
     3
  9
$DIMALTF
 40
0.0393700787
  9
$DIMLFAC
 40
1.0
  9
$DIMTOFL
 70
     1
  9
$DIMTVP
 40
0.0
  9
$DIMTIX
 70
     0
  9
$DIMSOXD
 70
     0
  9
$DIMSAH
 70
     0
  9
$DIMBLK1
  1

  9
$DIMBLK2
  1

  9
$DIMSTYLE
  2
ISO-25
  9
$DIMCLRD
 70
     0
  9
$DIMCLRE
 70
     0
  9
$DIMCLRT
 70
     0
  9
$DIMTFAC
 40
1.0
  9
$DIMGAP
 40
7.62
  9
$DIMJUST
 70
     0
  9
$DIMSD1
 70
     0
  9
$DIMSD2
 70
     0
  9
$DIMTOLJ
 70
     0
  9
$DIMTZIN
 70
     0
  9
$DIMALTZ
 70
     0
  9
$DIMALTTZ
 70
     0
  9
$DIMUPT
 70
     0
  9
$DIMDEC
 70
     2
  9
$DIMTDEC
 70
     2
  9
$DIMALTU
 70
     2
  9
$DIMALTTD
 70
     3
  9
$DIMTXSTY
  7
Standard
  9
$DIMAUNIT
 70
     0
  9
$DIMADEC
 70
     2
  9
$DIMALTRND
 40
0.0
  9
$DIMAZIN
 70
     0
  9
$DIMDSEP
 70
    44
  9
$DIMATFIT
 70
     3
  9
$DIMFRAC
 70
     0
  9
$DIMLDRBLK
  1

  9
$DIMLUNIT
 70
     2
  9
$DIMLWD
 70
    -2
  9
$DIMLWE
 70
    -2
  9
$DIMTMOVE
 70
     0
  9
$DIMFXL
 40
1.0
  9
$DIMFXLON
 70
     0
  9
$DIMJOGANG
 40
0.7853981634
  9
$DIMTFILL
 70
     0
  9
$DIMTFILLCLR
 70
     0
  9
$DIMARCSYM
 70
     0
  9
$DIMLTYPE
  6

  9
$DIMLTEX1
  6

  9
$DIMLTEX2
  6

  9
$LUNITS
 70
     2
  9
$LUPREC
 70
     2
  9
$SKETCHINC
 40
1.0
  9
$FILLETRAD
 40
10.0
  9
$AUNITS
 70
     0
  9
$AUPREC
 70
     2
  9
$MENU
  1
.
  9
$ELEVATION
 40
0.0
  9
$PELEVATION
 40
0.0
  9
$THICKNESS
 40
0.0
  9
$LIMCHECK
 70
     0
  9
$CHAMFERA
 40
10.0
  9
$CHAMFERB
 40
10.0
  9
$CHAMFERC
 40
20.0
  9
$CHAMFERD
 40
0.0
  9
$SKPOLY
 70
     0
  9
$TDCREATE
 40
2458117.65366985
  9
$TDUCREATE
 40
2458117.612003183
  9
$TDUPDATE
 40
2458117.653670775
  9
$TDUUPDATE
 40
2458117.612004109
  9
$TDINDWG
 40
0.0000000116
  9
$TDUSRTIMER
 40
0.0000000116
  9
$USRTIMER
 70
     1
  9
$ANGBASE
 50
0.0
  9
$ANGDIR
 70
     0
  9
$PDMODE
 70
     0
  9
$PDSIZE
 40
-1.0
  9
$PLINEWID
 40
0.0
  9
$SPLFRAME
 70
     0
  9
$SPLINETYPE
 70
     6
  9
$SPLINESEGS
 70
     8
  9
$HANDSEED
  5
24A
  9
$SURFTAB1
 70
     6
  9
$SURFTAB2
 70
     6
  9
$SURFTYPE
 70
     6
  9
$SURFU
 70
     6
  9
$SURFV
 70
     6
  9
$UCSBASE
  2

  9
$UCSNAME
  2

  9
$UCSORG
 10
0.0
 20
0.0
 30
0.0
  9
$UCSXDIR
 10
1.0
 20
0.0
 30
0.0
  9
$UCSYDIR
 10
0.0
 20
1.0
 30
0.0
  9
$UCSORTHOREF
  2

  9
$UCSORTHOVIEW
 70
     0
  9
$UCSORGTOP
 10
0.0
 20
0.0
 30
0.0
  9
$UCSORGBOTTOM
 10
0.0
 20
0.0
 30
0.0
  9
$UCSORGLEFT
 10
0.0
 20
0.0
 30
0.0
  9
$UCSORGRIGHT
 10
0.0
 20
0.0
 30
0.0
  9
$UCSORGFRONT
 10
0.0
 20
0.0
 30
0.0
  9
$UCSORGBACK
 10
0.0
 20
0.0
 30
0.0
  9
$PUCSBASE
  2

  9
$PUCSNAME
  2

  9
$PUCSORG
 10
0.0
 20
0.0
 30
0.0
  9
$PUCSXDIR
 10
1.0
 20
0.0
 30
0.0
  9
$PUCSYDIR
 10
0.0
 20
1.0
 30
0.0
  9
$PUCSORTHOREF
  2

  9
$PUCSORTHOVIEW
 70
     0
  9
$PUCSORGTOP
 10
0.0
 20
0.0
 30
0.0
  9
$PUCSORGBOTTOM
 10
0.0
 20
0.0
 30
0.0
  9
$PUCSORGLEFT
 10
0.0
 20
0.0
 30
0.0
  9
$PUCSORGRIGHT
 10
0.0
 20
0.0
 30
0.0
  9
$PUCSORGFRONT
 10
0.0
 20
0.0
 30
0.0
  9
$PUCSORGBACK
 10
0.0
 20
0.0
 30
0.0
  9
$USERI1
 70
     0
  9
$USERI2
 70
     0
  9
$USERI3
 70
     0
  9
$USERI4
 70
     0
  9
$USERI5
 70
     0
  9
$USERR1
 40
0.0
  9
$USERR2
 40
0.0
  9
$USERR3
 40
0.0
  9
$USERR4
 40
0.0
  9
$USERR5
 40
0.0
  9
$WORLDVIEW
 70
     1
  9
$SHADEDGE
 70
     3
  9
$SHADEDIF
 70
    70
  9
$TILEMODE
 70
     1
  9
$MAXACTVP
 70
    64
  9
$PINSBASE
 10
0.0
 20
0.0
 30
0.0
  9
$PLIMCHECK
 70
     0
  9
$PEXTMIN
 10
1.0000000000E+20
 20
1.0000000000E+20
 30
1.0000000000E+20
  9
$PEXTMAX
 10
-1.0000000000E+20
 20
-1.0000000000E+20
 30
-1.0000000000E+20
  9
$PLIMMIN
 10
0.0
 20
0.0
  9
$PLIMMAX
 10
420.0
 20
297.0
  9
$UNITMODE
 70
     0
  9
$VISRETAIN
 70
     1
  9
$PLINEGEN
 70
     0
  9
$PSLTSCALE
 70
     1
  9
$TREEDEPTH
 70
  3020
  9
$CMLSTYLE
  2
Standard
  9
$CMLJUST
 70
     0
  9
$CMLSCALE
 40
20.0
  9
$PROXYGRAPHICS
 70
     1
  9
$MEASUREMENT
 70
     1
  9
$CELWEIGHT
370
    -1
  9
$ENDCAPS
280
     0
  9
$JOINSTYLE
280
     0
  9
$LWDISPLAY
290
     1
  9
$INSUNITS
 70
     4
  9
$HYPERLINKBASE
  1

  9
$STYLESHEET
  1

  9
$XEDIT
290
     1
  9
$CEPSNTYPE
380
     0
  9
$PSTYLEMODE
290
     1
  9
$FINGERPRINTGUID
  2
{1B5A5E66-EA9A-4457-A78F-3BA37BF25088}
  9
$VERSIONGUID
  2
{FAEB1C32-E019-11D5-929B-00C0DF256EC4}
  9
$EXTNAMES
290
     1
  9
$PSVPSCALE
 40
0.0
  9
$OLESTARTUP
290
     0
  9
$SORTENTS
280
   127
  9
$INDEXCTL
280
     0
  9
$HIDETEXT
280
     1
  9
$XCLIPFRAME
290
     0
  9
$HALOGAP
280
     0
  9
$OBSCOLOR
 70
   257
  9
$OBSLTYPE
280
     0
  9
$INTERSECTIONDISPLAY
280
     0
  9
$INTERSECTIONCOLOR
 70
   257
  9
$DIMASSOC
280
     2
  9
$PROJECTNAME
  1

  9
$CAMERADISPLAY
290
     0
  9
$LENSLENGTH
 40
50.0
  9
$CAMERAHEIGHT
 40
0.0
  9
$STEPSPERSEC
 40
2.0
  9
$STEPSIZE
 40
6.0
  9
$3DDWFPREC
 40
2.0
  9
$PSOLWIDTH
 40
5.0
  9
$PSOLHEIGHT
 40
80.0
  9
$LOFTANG1
 40
1.5707963268
  9
$LOFTANG2
 40
1.5707963268
  9
$LOFTMAG1
 40
0.0
  9
$LOFTMAG2
 40
0.0
  9
$LOFTPARAM
 70
     7
  9
$LOFTNORMALS
280
     1
  9
$LATITUDE
 40
37.795
  9
$LONGITUDE
 40
-122.394
  9
$NORTHDIRECTION
 40
0.0
  9
$TIMEZONE
 70
 -8000
  9
$LIGHTGLYPHDISPLAY
280
     1
  9
$TILEMODELIGHTSYNCH
280
     1
  9
$SOLIDHIST
280
     1
  9
$SHOWHIST
280
     1
  9
$DWFFRAME
280
     2
  9
$DGNFRAME
280
     2
  9
$REALWORLDSCALE
290
     1
  9
$INTERFERECOLOR
 62
   256
  9
$CSHADOW
280
     0
  9
$SHADOWPLANELOCATION
 40
0.0
  0
ENDSEC
  0
SECTION
  2
CLASSES
  0
CLASS
  1
ACDBDICTIONARYWDFLT
  2
AcDbDictionaryWithDefault
  3
ObjectDBX Classes
 90
        0
 91
        4
280
     0
281
     0
  0
CLASS
  1
VISUALSTYLE
  2
AcDbVisualStyle
  3
ObjectDBX Classes
 90
     4095
 91
        4
280
     0
281
     0
  0
CLASS
  1
MATERIAL
  2
AcDbMaterial
  3
ObjectDBX Classes
 90
     1153
 91
        4
280
     0
281
     0
  0
ENDSEC
  0
SECTION
  2
TABLES
  0
TABLE
  2
VPORT
  5
8
330
0
100
AcDbSymbolTable
 70
     1
  0
VPORT
  5
29
330
8
100
AcDbSymbolTableRecord
100
AcDbViewportTableRecord
  2
*Active
 70
     0
 10
0.0
 20
0.0
 11
1.0
 21
1.0
 12
1050.0
 22
742.5
 13
0.0
 23
0.0
 14
10.0
 24
10.0
 15
10.0
 25
10.0
 16
0.0
 26
0.0
 36
1.0
 17
0.0
 27
0.0
 37
0.0
 40
1485.0
 41
1.4141414141
 42
50.0
 43
0.0
 44
0.0
 50
0.0
 51
0.0
 71
     0
 72
  2000
 73
     1
 74
     3
 75
     0
 76
     0
 77
     0
 78
     0
281
     0
 65
     1
110
0.0
120
0.0
130
0.0
111
1.0
121
0.0
131
0.0
112
0.0
122
1.0
132
0.0
 79
     0
146
0.0
 60
     3
 61
     5
292
     1
282
     1
141
0.0
142
0.0
 63
   250
  0
ENDTAB
  0
TABLE
  2
LTYPE
  5
5
330
0
100
AcDbSymbolTable
 70
     6
  0
LTYPE
  5
14
330
5
100
AcDbSymbolTableRecord
100
AcDbLinetypeTableRecord
  2
ByBlock
 70
     0
  3

 72
    65
 73
     0
 40
0.0
  0
LTYPE
  5
15
330
5
100
AcDbSymbolTableRecord
100
AcDbLinetypeTableRecord
  2
ByLayer
 70
     0
  3

 72
    65
 73
     0
 40
0.0
  0
LTYPE
  5
16
330
5
100
AcDbSymbolTableRecord
100
AcDbLinetypeTableRecord
  2
Continuous
 70
     0
  3
Solid line
 72
    65
 73
     0
 40
0.0
  0
LTYPE
  5
3F
330
5
100
AcDbSymbolTableRecord
100
AcDbLinetypeTableRecord
  2
HIDDEN
 70
     0
  3
Hidden __ __ __ __ __ __ __ __ __ __ __ __ __ __
 72
    65
 73
     2
 40
1.905
 49
1.27
 74
     0
 49
-0.635
 74
     0
  0
LTYPE
  5
40
330
5
100
AcDbSymbolTableRecord
100
AcDbLinetypeTableRecord
  2
PHANTOM
 70
     0
  3
Phantom ______  __  __  ______  __  __  ______
 72
    65
 73
     6
 40
12.7
 49
6.35
 74
     0
 49
-1.27
 74
     0
 49
1.27
 74
     0
 49
-1.27
 74
     0
 49
1.27
 74
     0
 49
-1.27
 74
     0
  0
LTYPE
  5
41
330
5
100
AcDbSymbolTableRecord
100
AcDbLinetypeTableRecord
  2
CENTER
 70
     0
  3
Center ____ _ ____ _ ____ _ ____ _ ____ _ ____
 72
    65
 73
     4
 40
10.16
 49
6.35
 74
     0
 49
-1.27
 74
     0
 49
1.27
 74
     0
 49
-1.27
 74
     0
  0
LTYPE
  5
42
330
5
100
AcDbSymbolTableRecord
100
AcDbLinetypeTableRecord
  2
CENTERX2
 70
     0
  3
Center (2x) ________  __  ________  __  _____
 72
    65
 73
     4
 40
20.32
 49
12.7
 74
     0
 49
-2.54
 74
     0
 49
2.54
 74
     0
 49
-2.54
 74
     0
  0
LTYPE
  5
43
330
5
100
AcDbSymbolTableRecord
100
AcDbLinetypeTableRecord
  2
DOT2
 70
     0
  3
Dot (.5x) ........................................
 72
    65
 73
     2
 40
0.635
 49
0.0
 74
     0
 49
-0.635
 74
     0
  0
ENDTAB
  0
TABLE
  2
LAYER
  5
2
330
0
100
AcDbSymbolTable
 70
     2
  0
LAYER
  5
10
330
2
100
AcDbSymbolTableRecord
100
AcDbLayerTableRecord
  2
0
 70
     0
 62
     7
  6
Continuous
370
    -3
390
F
347
3E
  0
LAYER
  5
44
330
2
100
AcDbSymbolTableRecord
100
AcDbLayerTableRecord
  2
FORMAT
 70
     0
 62
     7
  6
Continuous
370
    -3
390
F
347
3E
  0
ENDTAB
  0
TABLE
  2
STYLE
  5
3
330
0
100
AcDbSymbolTable
 70
     1
  0
STYLE
  5
11
330
3
100
AcDbSymbolTableRecord
100
AcDbTextStyleTableRecord
  2
Standard
 70
     0
 40
0.0
 41
1.0
 50
0.0
 71
     0
 42
17.5
  3
txt
  4

  0
ENDTAB
  0
TABLE
  2
VIEW
  5
6
330
0
100
AcDbSymbolTable
 70
     0
  0
ENDTAB
  0
TABLE
  2
UCS
  5
7
330
0
100
AcDbSymbolTable
 70
     0
  0
ENDTAB
  0
TABLE
  2
APPID
  5
9
330
0
100
AcDbSymbolTable
 70
     1
  0
APPID
  5
12
330
9
100
AcDbSymbolTableRecord
100
AcDbRegAppTableRecord
  2
ACAD
 70
     0
  0
ENDTAB
  0
TABLE
  2
DIMSTYLE
  5
A
330
0
100
AcDbSymbolTable
 70
     1
100
AcDbDimStyleTable
  0
DIMSTYLE
105
27
330
A
100
AcDbSymbolTableRecord
100
AcDbDimStyleTableRecord
  2
ISO-25
 70
     0
 41
2.5
 42
0.625
 43
3.75
 44
1.25
 73
     0
 74
     0
 77
     1
 78
     8
140
2.5
141
2.5
143
0.0393700787
147
0.625
171
     3
172
     1
178
     0
271
     2
272
     2
274
     3
278
    44
283
     0
284
     8
340
11
  0
ENDTAB
  0
TABLE
  2
BLOCK_RECORD
  5
1
330
0
100
AcDbSymbolTable
 70
     1
  0
BLOCK_RECORD
  5
1F
330
1
100
AcDbSymbolTableRecord
100
AcDbBlockTableRecord
  2
*Model_Space
340
22
 70
     0
280
     1
281
     0
  0
BLOCK_RECORD
  5
1B
330
1
100
AcDbSymbolTableRecord
100
AcDbBlockTableRecord
  2
*Paper_Space
340
1E
 70
     0
280
     1
281
     0
  0
BLOCK_RECORD
  5
23
330
1
100
AcDbSymbolTableRecord
100
AcDbBlockTableRecord
  2
*Paper_Space0
340
26
 70
     0
280
     1
281
     0
  0
ENDTAB
  0
ENDSEC
  0
SECTION
  2
BLOCKS
  0
BLOCK
  5
20
330
1F
100
AcDbEntity
  8
0
100
AcDbBlockBegin
  2
*Model_Space
 70
     0
 10
0.0
 20
0.0
 30
0.0
  3
*Model_Space
  1

  0
ENDBLK
  5
21
330
1F
100
AcDbEntity
  8
0
100
AcDbBlockEnd
  0
BLOCK
  5
1C
330
1B
100
AcDbEntity
 67
     1
  8
0
100
AcDbBlockBegin
  2
*Paper_Space
 70
     0
 10
0.0
 20
0.0
 30
0.0
  3
*Paper_Space
  1

  0
ENDBLK
  5
1D
330
1B
100
AcDbEntity
 67
     1
  8
0
100
AcDbBlockEnd
  0
BLOCK
  5
24
330
23
100
AcDbEntity
  8
0
100
AcDbBlockBegin
  2
*Paper_Space0
 70
     0
 10
0.0
 20
0.0
 30
0.0
  3
*Paper_Space0
  1

  0
ENDBLK
  5
25
330
23
100
AcDbEntity
  8
0
100
AcDbBlockEnd
  0
ENDSEC
  0
SECTION
  2
ENTITIES
  0
LINE
  5
45
330
1F
100
AcDbEntity
  8
0
  6
Continuous
 62
     7
370
     0
100
AcDbLine
 10
2074.25
 20
25.75
 30
0.0
 11
25.75
 21
25.75
 31
0.0
  0
LINE
  5
46
330
1F
100
AcDbEntity
  8
0
  6
Continuous
 62
     7
370
     0
100
AcDbLine
 10
2075.0
 20
25.0
 30
0.0
 11
2075.0
 21
1385.0
 31
0.0
  0
LINE
  5
47
330
1F
100
AcDbEntity
  8
0
  6
Continuous
 62
     7
370
     0
100
AcDbLine
 10
2075.0
 20
1385.0
 30
0.0
 11
25.0
 21
1385.0
 31
0.0
  0
LINE
  5
48
330
1F
100
AcDbEntity
  8
0
  6
Continuous
 62
     7
370
     0
100
AcDbLine
 10
25.75
 20
1384.25
 30
0.0
 11
25.75
 21
25.75
 31
0.0
  0
SPLINE
  5
49
330
1F
100
AcDbEntity
  8
0
  6
Continuous
 62
     7
370
    40
100
AcDbSpline
210
0.0
220
0.0
230
1.0
 70
     8
 71
     3
 72
    29
 73
    25
 74
     0
 42
0.00000001
 43
0.00000001
 12
1.0
 22
0.0
 32
0.0
 13
1.0
 23
0.0
 33
0.0
 40
0.0
 40
0.0
 40
0.0
 40
0.0
 40
0.02530396961919
 40
0.0733847751007822
 40
0.1214658690251268
 40
0.1695466892095305
 40
0.2176272711820435
 40
0.2657076493866972
 40
0.3137878573286831
 40
0.3618679277317837
 40
0.4099478926883208
 40
0.4580277838038809
 40
0.5061076323372365
 40
0.5541874693375083
 40
0.6022673193074176
 40
0.6503472094042834
 40
0.6984271707841418
 40
0.7465072348887134
 40
0.7945874335835754
 40
0.8426677992999094
 40
0.8907483651813926
 40
0.9388291652369627
 40
0.9869102345016553
 40
1.0
 40
1.0
 40
1.0
 40
1.0
 10
161.2475900144789
 20
1324.572786646792
 30
0.0
 10
163.9803584111342
 20
1324.553107112908
 30
0.0
 10
171.9057391798095
 20
1324.496033926766
 30
0.0
 10
185.0714358355874
 20
1324.40982963319
 30
0.0
 10
200.7579088663145
 20
1324.317775241625
 30
0.0
 10
216.494457045911
 20
1324.236764043537
 30
0.0
 10
232.273669450462
 20
1324.166642603384
 30
0.0
 10
248.0896420857273
 20
1324.107488024529
 30
0.0
 10
263.9360652764931
 20
1324.059310111728
 30
0.0
 10
279.8067218582098
 20
1324.022131264153
 30
0.0
 10
295.6953568621904
 20
1323.995965056561
 30
0.0
 10
311.5957156090311
 20
1323.980821969679
 30
0.0
 10
327.5015366904731
 20
1323.976707846931
 30
0.0
 10
343.4065562887358
 20
1323.983624308227
 30
0.0
 10
359.3045104118168
 20
1324.001568617696
 30
0.0
 10
375.1891375591428
 20
1324.030533783227
 30
0.0
 10
391.0541835848351
 20
1324.070508294094
 30
0.0
 10
406.8933976122312
 20
1324.121477100168
 30
0.0
 10
422.7005576773498
 20
1324.18341799569
 30
0.0
 10
438.4693852827035
 20
1324.256315146625
 30
0.0
 10
454.1938761280164
 20
1324.340108650691
 30
0.0
 10
469.8670776139841
 20
1324.434882836897
 30
0.0
 10
481.6967893499987
 20
1324.514623786987
 30
0.0
 10
488.3010547434096
 20
1324.562534397378
 30
0.0
 10
489.714281906705
 20
1324.572786646792
 30
0.0
  0
LINE
  5
4A
330
1F
100
AcDbEntity
  8
0
  6
Continuous
 62
     7
370
    40
100
AcDbLine
 10
179.2951250645
 20
1349.4488465712
 30
0.0
 11
163.2974660687
 21
1349.558539444
 31
0.0
  0
LINE
  5
4B
330
1F
100
AcDbEntity
  8
0
  6
Continuous
 62
     7
370
    40
100
AcDbLine
 10
487.6644058525
 20
1349.558539444
 30
0.0
 11
481.7402685256
 21
1349.5168378283
 31
0.0
  0
SPLINE
  5
4C
330
1F
100
AcDbEntity
  8
0
  6
Continuous
 62
     7
370
    40
100
AcDbSpline
210
0.0
220
0.0
230
1.0
 70
     8
 71
     3
 72
    28
 73
    24
 74
     0
 42
0.00000001
 43
0.00000001
 12
1.0
 22
0.0
 32
0.0
 13
1.0
 23
0.0
 33
0.0
 40
0.0
 40
0.0
 40
0.0
 40
0.0
 40
0.02559945833121
 40
0.074241704234165
 40
0.122884246087641
 40
0.171526515386058
 40
0.2201685479291439
 40
0.2688103784404238
 40
0.3174520407132467
 40
0.3660935677689584
 40
0.4147349920079511
 40
0.4633763453553168
 40
0.5120176594021578
 40
0.5606589655439521
 40
0.6093002873153125
 40
0.6579416534549302
 40
0.7065830955100978
 40
0.7552246453337659
 40
0.8038663352246155
 40
0.8525081980711265
 40
0.9011502675007952
 40
0.9497925780355814
 40
1.0
 40
1.0
 40
1.0
 40
1.0
 10
163.1167362275591
 20
969.7754491262363
 30
0.0
 10
165.8508395513083
 20
969.75599715033
 30
0.0
 10
173.7800889784326
 20
969.699583931608
 30
0.0
 10
186.9516243418912
 20
969.6144759411471
 30
0.0
 10
202.6443257471374
 20
969.5237277083805
 30
0.0
 10
218.3863496727199
 20
969.4440267759627
 30
0.0
 10
234.1702956756726
 20
969.3752190962906
 30
0.0
 10
249.9902544671669
 20
969.3173812849814
 30
0.0
 10
265.8399156794645
 20
969.2705226254632
 30
0.0
 10
281.7130606042813
 20
969.2346650028716
 30
0.0
 10
297.6034333345472
 20
969.2098214754257
 30
0.0
 10
313.504778486925
 20
969.1960020045534
 30
0.0
 10
329.4108342124684
 20
969.1932119238475
 30
0.0
 10
345.3153366361335
 20
969.201452305526
 30
0.0
 10
361.2120213095686
 20
969.2207200059513
 30
0.0
 10
377.09462970608
 20
969.2510071022912
 30
0.0
 10
392.9568994126193
 20
969.29230310685
 30
0.0
 10
408.7926150332444
 20
969.3445867055576
 30
0.0
 10
424.5954277284039
 20
969.4078566273962
 30
0.0
 10
440.3595394715346
 20
969.4820164705861
 30
0.0
 10
456.0771611916192
 20
969.5673045856931
 30
0.0
 10
471.916055942795
 20
969.6637126288105
 30
0.0
 10
482.4796902614166
 20
969.7378125465278
 30
0.0
 10
487.8451356936247
 20
969.7754491262363
 30
0.0
  0
SPLINE
  5
4D
330
1F
100
AcDbEntity
  8
0
  6
Continuous
 62
     7
370
    40
100
AcDbSpline
210
0.0
220
0.0
230
1.0
 70
     8
 71
     3
 72
    10
 73
     6
 74
     0
 42
0.00000001
 43
0.00000001
 12
1.0
 22
0.0
 32
0.0
 13
1.0
 23
0.0
 33
0.0
 40
0.0
 40
0.0
 40
0.0
 40
0.0
 40
0.0768755056815846
 40
0.6981353464250293
 40
1.0
 40
1.0
 40
1.0
 40
1.0
 10
489.7164668410506
 20
1324.549810309278
 30
0.0
 10
489.8735063520142
 20
1324.556387818446
 30
0.0
 10
491.2996411451052
 20
1324.616120650131
 30
0.0
 10
493.3425908686413
 20
1324.506161830046
 30
0.0
 10
495.2008551804805
 20
1324.25341523799
 30
0.0
 10
495.8085135366355
 20
1324.170766296354
 30
0.0
  0
SPLINE
  5
4E
330
1F
100
AcDbEntity
  8
0
  6
Continuous
 62
     7
370
    40
100
AcDbSpline
210
0.0
220
0.0
230
1.0
 70
     8
 71
     3
 72
     9
 73
     5
 74
     0
 42
0.00000001
 43
0.00000001
 12
1.0
 22
0.0
 32
0.0
 13
1.0
 23
0.0
 33
0.0
 40
0.0
 40
0.0
 40
0.0
 40
0.0
 40
0.7175658935438806
 40
1.0
 40
1.0
 40
1.0
 40
1.0
 10
156.0948533153611
 20
1324.317138979054
 30
0.0
 10
157.3233038500285
 20
1324.434325229317
 30
0.0
 10
159.0352728074719
 20
1324.597636015571
 30
0.0
 10
160.759880447544
 20
1324.54909577304
 30
0.0
 10
161.2469684653552
 20
1324.535386353013
 30
0.0
  0
SPLINE
  5
4F
330
1F
100
AcDbEntity
  8
0
  6
Continuous
 62
     7
370
    40
100
AcDbSpline
210
0.0
220
0.0
230
1.0
 70
     8
 71
     3
 72
    24
 73
    20
 74
     0
 42
0.00000001
 43
0.00000001
 12
1.0
 22
0.0
 32
0.0
 13
1.0
 23
0.0
 33
0.0
 40
0.0
 40
0.0
 40
0.0
 40
0.0
 40
0.0728666793809126
 40
0.1423174251765264
 40
0.2083673677813032
 40
0.2706062351199349
 40
0.3296376476195059
 40
0.3858853998775797
 40
0.4638506802672167
 40
0.5342999110130316
 40
0.5980600215571737
 40
0.6548639655223445
 40
0.7042100609657401
 40
0.7464630642749402
 40
0.7819180891573408
 40
0.8175788560062256
 40
0.871497919254858
 40
0.9321847415028994
 40
1.0
 40
1.0
 40
1.0
 40
1.0
 10
560.9655044088857
 20
1277.370577874672
 30
0.0
 10
560.8171119889738
 20
1279.953784106671
 30
0.0
 10
560.527283671051
 20
1284.999097859974
 30
0.0
 10
559.181621965304
 20
1292.27248962846
 30
0.0
 10
557.3175306010587
 20
1299.014816512929
 30
0.0
 10
554.9808875399222
 20
1305.200323559101
 30
0.0
 10
552.2860622268332
 20
1310.837314817759
 30
0.0
 10
548.8708130161716
 20
1316.696962319832
 30
0.0
 10
544.6871382879084
 20
1322.519833608806
 30
0.0
 10
539.7471830352182
 20
1328.037627161157
 30
0.0
 10
534.8541786836221
 20
1332.540033487241
 30
0.0
 10
530.1767657399577
 20
1336.141173467232
 30
0.0
 10
525.8673367626291
 20
1338.958150623181
 30
0.0
 10
522.0260628725999
 20
1341.118917339744
 30
0.0
 10
518.4999828925104
 20
1342.841072369851
 30
0.0
 10
514.495438993083
 20
1344.572500556809
 30
0.0
 10
509.5236096631606
 20
1346.367660400363
 30
0.0
 10
503.3027731307536
 20
1348.096508742085
 30
0.0
 10
498.7939924593178
 20
1348.751014263703
 30
0.0
 10
496.4145436210801
 20
1349.096420819604
 30
0.0
  0
SPLINE
  5
50
330
1F
100
AcDbEntity
  8
0
  6
Continuous
 62
     7
370
    40
100
AcDbSpline
210
0.0
220
0.0
230
1.0
 70
     8
 71
     3
 72
    22
 73
    18
 74
     0
 42
0.00000001
 43
0.00000001
 12
1.0
 22
0.0
 32
0.0
 13
1.0
 23
0.0
 33
0.0
 40
0.0
 40
0.0
 40
0.0
 40
0.0
 40
0.0610041154454537
 40
0.1233392217433113
 40
0.1863824232051862
 40
0.2505348796298782
 40
0.3169638632481564
 40
0.3901678892543907
 40
0.4499549984765412
 40
0.5144366177875251
 40
0.583986556668446
 40
0.6575692024454965
 40
0.7358079620671002
 40
0.8193913097303827
 40
0.8773396060800341
 40
0.9373653931810826
 40
1.0
 40
1.0
 40
1.0
 40
1.0
 10
154.5474654108835
 20
1349.096436476196
 30
0.0
 10
152.4075040732938
 20
1348.792106018495
 30
0.0
 10
148.0808916142527
 20
1348.176805205892
 30
0.0
 10
141.7168046779788
 20
1346.485424513427
 30
0.0
 10
135.4478298811654
 20
1344.243426301447
 30
0.0
 10
129.310987366177
 20
1341.390715670544
 30
0.0
 10
123.19410747072
 20
1337.843460820563
 30
0.0
 10
117.5819782471308
 20
1333.776408420856
 30
0.0
 10
112.4366271465644
 20
1329.225154573179
 30
0.0
 10
107.7961938088039
 20
1324.312172997424
 30
0.0
 10
103.3435904137233
 20
1318.578540162144
 30
0.0
 10
99.22899490811994
 20
1311.990956484754
 30
0.0
 10
95.62237419123696
 20
1304.527832417525
 30
0.0
 10
93.05123560151378
 20
1297.195467269075
 30
0.0
 10
91.37718976874403
 20
1290.262908170389
 30
0.0
 10
90.34693304115666
 20
1283.93794164241
 30
0.0
 10
90.11486792490847
 20
1279.590520376213
 30
0.0
 10
89.99636751211764
 20
1277.370577874951
 30
0.0
  0
SPLINE
  5
51
330
1F
100
AcDbEntity
  8
0
  6
Continuous
 62
     7
370
    40
100
AcDbSpline
210
0.0
220
0.0
230
1.0
 70
     8
 71
     3
 72
     9
 73
     5
 74
     0
 42
0.00000001
 43
0.00000001
 12
1.0
 22
0.0
 32
0.0
 13
1.0
 23
0.0
 33
0.0
 40
0.0
 40
0.0
 40
0.0
 40
0.0
 40
0.6669187448196788
 40
1.0
 40
1.0
 40
1.0
 40
1.0
 10
174.1818953341123
 20
994.7002449856838
 30
0.0
 10
171.3423916802896
 20
994.7190032998077
 30
0.0
 10
167.0847460887109
 20
994.7471301357522
 30
0.0
 10
162.8432529966374
 20
994.7780688753164
 30
0.0
 10
161.4304911536908
 20
994.7883739895243
 30
0.0
  0
LINE
  5
52
330
1F
100
AcDbEntity
  8
0
  6
Continuous
 62
     7
370
    40
100
AcDbLine
 10
489.5313807675
 20
994.7883739895
 30
0.0
 11
483.5969273804
 21
994.7460854041
 31
0.0
  0
SPLINE
  5
53
330
1F
100
AcDbEntity
  8
0
  6
Continuous
 62
     7
370
    40
100
AcDbSpline
210
0.0
220
0.0
230
1.0
 70
     8
 71
     3
 72
    14
 73
    10
 74
     0
 42
0.00000001
 43
0.00000001
 12
1.0
 22
0.0
 32
0.0
 13
1.0
 23
0.0
 33
0.0
 40
0.0
 40
0.0
 40
0.0
 40
0.0
 40
0.0825292118481224
 40
0.2431112135631706
 40
0.4043279952097255
 40
0.566318330474847
 40
0.7274279879830214
 40
0.8874439281859448
 40
1.0
 40
1.0
 40
1.0
 40
1.0
 10
495.8137532357305
 20
1324.170920268142
 30
0.0
 10
496.454714461512
 20
1324.09723652277
 30
0.0
 10
498.3428321104893
 20
1323.88018192651
 30
0.0
 10
501.4209607717651
 20
1323.184542632864
 30
0.0
 10
505.0295411483424
 20
1322.102495788883
 30
0.0
 10
508.5373807908926
 20
1320.713422500052
 30
0.0
 10
511.9018822088939
 20
1319.038340047983
 30
0.0
 10
514.8062929327565
 20
1317.309437362414
 30
0.0
 10
516.509149102734
 20
1316.034155116071
 30
0.0
 10
517.2123276863998
 20
1315.507539198904
 30
0.0
  0
SPLINE
  5
54
330
1F
100
AcDbEntity
  8
0
  6
Continuous
 62
     7
370
    40
100
AcDbSpline
210
0.0
220
0.0
230
1.0
 70
     8
 71
     3
 72
    15
 73
    11
 74
     0
 42
0.00000001
 43
0.00000001
 12
1.0
 22
0.0
 32
0.0
 13
1.0
 23
0.0
 33
0.0
 40
0.0
 40
0.0
 40
0.0
 40
0.0
 40
0.0716122741877838
 40
0.2257853893813483
 40
0.379333869861359
 40
0.53282506738555
 40
0.6867239453845057
 40
0.8419435493612233
 40
0.9965243624848893
 40
1.0
 40
1.0
 40
1.0
 40
1.0
 10
133.6377213869485
 20
1315.418111208299
 30
0.0
 10
134.0994649033292
 20
1315.777965135472
 30
0.0
 10
135.5552899113013
 20
1316.91254380915
 30
0.0
 10
138.1903649094637
 20
1318.541400290038
 30
0.0
 10
141.5119866531205
 20
1320.301468959243
 30
0.0
 10
144.9732729492496
 20
1321.759962740901
 30
0.0
 10
148.5577673582312
 20
1322.93796379513
 30
0.0
 10
152.2470521034007
 20
1323.779091562191
 30
0.0
 10
154.7738083484932
 20
1324.231464986039
 30
0.0
 10
156.0664287868467
 20
1324.315295557431
 30
0.0
 10
156.0948533153628
 20
1324.317138979055
 30
0.0
  0
SPLINE
  5
55
330
1F
100
AcDbEntity
  8
0
  6
Continuous
 62
     7
370
    40
100
AcDbSpline
210
0.0
220
0.0
230
1.0
 70
     8
 71
     3
 72
    15
 73
    11
 74
     0
 42
0.00000001
 43
0.00000001
 12
1.0
 22
0.0
 32
0.0
 13
1.0
 23
0.0
 33
0.0
 40
0.0
 40
0.0
 40
0.0
 40
0.0
 40
0.0179792522897788
 40
0.1251246981438184
 40
0.2830212127950284
 40
0.4351284255075485
 40
0.5828900400524016
 40
0.7267829476428547
 40
0.865176404439955
 40
1.0
 40
1.0
 40
1.0
 40
1.0
 10
107.002935071356
 20
996.9656445969777
 30
0.0
 10
107.227456140554
 20
996.667252623276
 30
0.0
 10
108.7899866928565
 20
994.590625351118
 30
0.0
 10
112.8608019591712
 20
990.3499582448192
 30
0.0
 10
119.3164539138895
 20
984.6206687700129
 30
0.0
 10
127.2024295967649
 20
979.4024279604644
 30
0.0
 10
135.3936571850097
 20
975.3494967788855
 30
0.0
 10
143.7482581764254
 20
972.4681937925152
 30
0.0
 10
152.1193312309131
 20
970.5979023788344
 30
0.0
 10
157.7103937990561
 20
970.1944557608243
 30
0.0
 10
160.4693985973835
 20
969.9953681739134
 30
0.0
  0
SPLINE
  5
56
330
1F
100
AcDbEntity
  8
0
  6
Continuous
 62
     7
370
    40
100
AcDbSpline
210
0.0
220
0.0
230
1.0
 70
     8
 71
     3
 72
    16
 73
    12
 74
     0
 42
0.00000001
 43
0.00000001
 12
1.0
 22
0.0
 32
0.0
 13
1.0
 23
0.0
 33
0.0
 40
0.0
 40
0.0
 40
0.0
 40
0.0
 40
0.112677819034499
 40
0.2228660481985555
 40
0.3309417752554096
 40
0.4359247121419348
 40
0.5386281238238456
 40
0.6398977011373295
 40
0.7876225861786462
 40
0.9299597350660478
 40
1.0
 40
1.0
 40
1.0
 40
1.0
 10
490.4924733247328
 20
969.9953681746955
 30
0.0
 10
492.8012343428234
 20
970.1487604778719
 30
0.0
 10
497.3677448481358
 20
970.4521559174176
 30
0.0
 10
504.0533938531395
 20
971.7230528529047
 30
0.0
 10
510.4470073799545
 20
973.522350173809
 30
0.0
 10
516.5100834332089
 20
975.8558604614901
 30
0.0
 10
522.2217080710727
 20
978.6583325995987
 30
0.0
 10
528.4368869144049
 20
982.4018239884297
 30
0.0
 10
534.8606644942173
 20
987.3243628690345
 30
0.0
 10
540.3193413479904
 20
992.4514294925829
 30
0.0
 10
543.0425183816624
 20
995.9290458596629
 30
0.0
 10
543.9405990083568
 20
997.0759341624549
 30
0.0
  0
SPLINE
  5
57
330
1F
100
AcDbEntity
  8
0
  6
Continuous
 62
     7
370
    40
100
AcDbSpline
210
0.0
220
0.0
230
1.0
 70
     8
 71
     3
 72
     9
 73
     5
 74
     0
 42
0.00000001
 43
0.00000001
 12
1.0
 22
0.0
 32
0.0
 13
1.0
 23
0.0
 33
0.0
 40
0.0
 40
0.0
 40
0.0
 40
0.0
 40
0.7582473420445509
 40
1.0
 40
1.0
 40
1.0
 40
1.0
 10
496.4076135542232
 20
1349.097262295841
 30
0.0
 10
495.2601120281918
 20
1349.218225845274
 30
0.0
 10
493.7467515949891
 20
1349.377756308127
 30
0.0
 10
492.2308901340854
 20
1349.369786381105
 30
0.0
 10
491.8644265968196
 20
1349.367859630064
 30
0.0
  0
SPLINE
  5
58
330
1F
100
AcDbEntity
  8
0
  6
Continuous
 62
     7
370
    40
100
AcDbSpline
210
0.0
220
0.0
230
1.0
 70
     8
 71
     3
 72
     9
 73
     5
 74
     0
 42
0.00000001
 43
0.00000001
 12
1.0
 22
0.0
 32
0.0
 13
1.0
 23
0.0
 33
0.0
 40
0.0
 40
0.0
 40
0.0
 40
0.0
 40
0.5015781571608201
 40
1.0
 40
1.0
 40
1.0
 40
1.0
 10
161.4759835180466
 20
1349.376534706913
 30
0.0
 10
160.3177894038671
 20
1349.393817133887
 30
0.0
 10
158.0086894208543
 20
1349.428273233553
 30
0.0
 10
155.7030240774469
 20
1349.207331915328
 30
0.0
 10
154.5538301080153
 20
1349.09720993634
 30
0.0
  0
LINE
  5
59
330
1F
100
AcDbEntity
  8
0
  6
Continuous
 62
     7
370
    40
100
AcDbLine
 10
487.842062972
 20
969.8133779018
 30
0.0
 11
490.0952248387
 21
969.8256538058
 31
0.0
  0
SPLINE
  5
5A
330
1F
100
AcDbEntity
  8
0
  6
Continuous
 62
     7
370
    40
100
AcDbSpline
210
0.0
220
0.0
230
1.0
 70
     8
 71
     3
 72
     9
 73
     5
 74
     0
 42
0.00000001
 43
0.00000001
 12
1.0
 22
0.0
 32
0.0
 13
1.0
 23
0.0
 33
0.0
 40
0.0
 40
0.0
 40
0.0
 40
0.0
 40
0.67475112904909
 40
1.0
 40
1.0
 40
1.0
 40
1.0
 10
160.8662794374391
 20
969.8586702694722
 30
0.0
 10
161.3729371924097
 20
969.822025325543
 30
0.0
 10
162.1238181219233
 20
969.7677164961812
 30
0.0
 10
162.8761374831205
 20
969.7878121117126
 30
0.0
 10
163.1208285059444
 20
969.7943481879753
 30
0.0
  0
SPLINE
  5
5B
330
1F
100
AcDbEntity
  8
0
  6
Continuous
 62
     7
370
    40
100
AcDbSpline
210
0.0
220
0.0
230
1.0
 70
     8
 71
     3
 72
     9
 73
     5
 74
     0
 42
0.00000001
 43
0.00000001
 12
1.0
 22
0.0
 32
0.0
 13
1.0
 23
0.0
 33
0.0
 40
0.0
 40
0.0
 40
0.0
 40
0.0
 40
0.2695806835282523
 40
1.0
 40
1.0
 40
1.0
 40
1.0
 10
560.9946924256443
 20
1275.122717596708
 30
0.0
 10
560.9980921477176
 20
1275.326311105215
 30
0.0
 10
561.0107032963681
 20
1276.081534016004
 30
0.0
 10
560.9672380028866
 20
1276.835564424354
 30
0.0
 10
560.9354901129316
 20
1277.38632279982
 30
0.0
  0
LINE
  5
5C
330
1F
100
AcDbEntity
  8
0
  6
Continuous
 62
     7
370
    40
100
AcDbLine
 10
90.0306745448
 20
1277.3858693236
 30
0.0
 11
89.9686933505
 21
1275.1249838413
 31
0.0
  0
LINE
  5
5D
330
1F
100
AcDbEntity
  8
0
  6
Continuous
 62
     7
370
    40
100
AcDbLine
 10
561.0037191581
 20
1045.2635006987
 30
0.0
 11
561.0037191581
 21
1275.1233909131
 31
0.0
  0
LINE
  5
5E
330
1F
100
AcDbEntity
  8
0
  6
Continuous
 62
     7
370
    40
100
AcDbLine
 10
89.9581527631
 20
1275.1233909131
 30
0.0
 11
89.9581527631
 21
1045.2635006987
 31
0.0
  0
SPLINE
  5
5F
330
1F
100
AcDbEntity
  8
0
  6
Continuous
 62
     7
370
    40
100
AcDbSpline
210
0.0
220
0.0
230
1.0
 70
     8
 71
     3
 72
    13
 73
     9
 74
     0
 42
0.00000001
 43
0.00000001
 12
1.0
 22
0.0
 32
0.0
 13
1.0
 23
0.0
 33
0.0
 40
0.0
 40
0.0
 40
0.0
 40
0.0
 40
0.0288151147971824
 40
0.2456987961677207
 40
0.4626306233604346
 40
0.6777381788195165
 40
0.8913992589486871
 40
1.0
 40
1.0
 40
1.0
 40
1.0
 10
161.4300360793992
 20
994.8074891598328
 30
0.0
 10
161.2615135132629
 20
994.8028855256509
 30
0.0
 10
159.8245665526756
 20
994.7636315652053
 30
0.0
 10
157.123482590928
 20
994.9922255724739
 30
0.0
 10
153.3662536118479
 20
995.5035043055591
 30
0.0
 10
149.6935305347724
 20
996.3662091807156
 30
0.0
 10
146.6883307089478
 20
997.2914020380011
 30
0.0
 10
144.9548742981683
 20
998.0363059578534
 30
0.0
 10
144.3707075169431
 20
998.2873351285186
 30
0.0
  0
SPLINE
  5
60
330
1F
100
AcDbEntity
  8
0
  6
Continuous
 62
     7
370
    40
100
AcDbSpline
210
0.0
220
0.0
230
1.0
 70
     8
 71
     3
 72
    13
 73
     9
 74
     0
 42
0.00000001
 43
0.00000001
 12
1.0
 22
0.0
 32
0.0
 13
1.0
 23
0.0
 33
0.0
 40
0.0
 40
0.0
 40
0.0
 40
0.0
 40
0.0553622741945514
 40
0.2672056612081858
 40
0.4811584699232586
 40
0.6944905988812359
 40
0.9070765064579825
 40
1.0
 40
1.0
 40
1.0
 40
1.0
 10
506.8795025104596
 20
998.3774985837551
 30
0.0
 10
506.5792327173964
 20
998.2413326716405
 30
0.0
 10
505.1299824876394
 20
997.5841287704286
 30
0.0
 10
502.4042450768588
 20
996.6971505510485
 30
0.0
 10
498.7295403922201
 20
995.729470179898
 30
0.0
 10
494.9760344854116
 20
995.1137396983072
 30
0.0
 10
491.9016276687914
 20
994.8068855892714
 30
0.0
 10
490.0837032904187
 20
994.8227024422567
 30
0.0
 10
489.5307648747269
 20
994.8275132835299
 30
0.0
  0
SPLINE
  5
61
330
1F
100
AcDbEntity
  8
0
  6
Continuous
 62
     7
370
    40
100
AcDbSpline
210
0.0
220
0.0
230
1.0
 70
     8
 71
     3
 72
    13
 73
     9
 74
     0
 42
0.00000001
 43
0.00000001
 12
1.0
 22
0.0
 32
0.0
 13
1.0
 23
0.0
 33
0.0
 40
0.0
 40
0.0
 40
0.0
 40
0.0
 40
0.1651660551353754
 40
0.3309715416978867
 40
0.4984682846853796
 40
0.6651020332433807
 40
0.8317292523944824
 40
1.0
 40
1.0
 40
1.0
 40
1.0
 10
548.820154182336
 20
1003.612527046054
 30
0.0
 10
550.0081878997632
 20
1005.567665304094
 30
0.0
 10
552.3888547427397
 20
1009.485511031932
 30
0.0
 10
555.2828576089495
 20
1015.786775873701
 30
0.0
 10
557.6493815028582
 20
1022.33184767393
 30
0.0
 10
559.3956336444968
 20
1029.089665752461
 30
0.0
 10
560.5801419240936
 20
1035.989455909553
 30
0.0
 10
560.836338133172
 20
1040.648919182375
 30
0.0
 10
560.9650648855404
 20
1042.990084092845
 30
0.0
  0
SPLINE
  5
62
330
1F
100
AcDbEntity
  8
0
  6
Continuous
 62
     7
370
    40
100
AcDbSpline
210
0.0
220
0.0
230
1.0
 70
     8
 71
     3
 72
    13
 73
     9
 74
     0
 42
0.00000001
 43
0.00000001
 12
1.0
 22
0.0
 32
0.0
 13
1.0
 23
0.0
 33
0.0
 40
0.0
 40
0.0
 40
0.0
 40
0.0
 40
0.1682676419916167
 40
0.3358553909262139
 40
0.5032083278966923
 40
0.6687092261507787
 40
0.8338208085048431
 40
1.0
 40
1.0
 40
1.0
 40
1.0
 10
89.99680703552636
 20
1042.990084092945
 30
0.0
 10
90.12554148786343
 20
1040.649155720617
 30
0.0
 10
90.38249023513055
 20
1035.976757603469
 30
0.0
 10
91.5726774661111
 20
1029.054616725492
 30
0.0
 10
93.32245666866243
 20
1022.302833518648
 30
0.0
 10
95.68113610546725
 20
1015.784938151595
 30
0.0
 10
98.56407576600782
 20
1009.504928880655
 30
0.0
 10
100.9454531348414
 20
1005.582733540318
 30
0.0
 10
102.1399789020387
 20
1003.615316087155
 30
0.0
  0
LINE
  5
63
330
1F
100
AcDbEntity
  8
0
  6
Continuous
 62
     7
370
    40
100
AcDbLine
 10
560.931219857
 20
1043.000754454
 30
0.0
 11
560.9915041108
 21
1045.2614900122
 31
0.0
  0
SPLINE
  5
64
330
1F
100
AcDbEntity
  8
0
  6
Continuous
 62
     7
370
    40
100
AcDbSpline
210
0.0
220
0.0
230
1.0
 70
     8
 71
     3
 72
     9
 73
     5
 74
     0
 42
0.00000001
 43
0.00000001
 12
1.0
 22
0.0
 32
0.0
 13
1.0
 23
0.0
 33
0.0
 40
0.0
 40
0.0
 40
0.0
 40
0.0
 40
0.2695397036844803
 40
1.0
 40
1.0
 40
1.0
 40
1.0
 10
89.9671789543932
 20
1045.264129080483
 30
0.0
 10
89.96378014504587
 20
1045.060657180086
 30
0.0
 10
89.95117046528118
 20
1044.305770617492
 30
0.0
 10
89.9946249305955
 20
1043.551374544394
 30
0.0
 10
90.02636669220527
 20
1043.0003181653
 30
0.0
  0
LINE
  5
65
330
1F
100
AcDbEntity
  8
0
  6
Continuous
 62
     7
370
    40
100
AcDbLine
 10
100.4809359606
 20
873.5271228908
 30
0.0
 11
185.6809359606
 21
873.5271228908
 31
0.0
  0
LINE
  5
66
330
1F
100
AcDbEntity
  8
0
  6
Continuous
 62
     7
370
    40
100
AcDbLine
 10
185.6809359606
 20
949.5271228908
 30
0.0
 11
106.9809359606
 21
949.5271228908
 31
0.0
  0
LINE
  5
67
330
1F
100
AcDbEntity
  8
0
  6
Continuous
 62
     7
370
    40
100
AcDbLine
 10
101.9809359606
 20
949.5271228908
 30
0.0
 11
100.4809359606
 21
949.5271228908
 31
0.0
  0
LINE
  5
68
330
1F
100
AcDbEntity
  8
0
  6
Continuous
 62
     7
370
    40
100
AcDbLine
 10
185.6809359606
 20
899.5271228908
 30
0.0
 11
187.6809359606
 21
899.5271228908
 31
0.0
  0
LINE
  5
69
330
1F
100
AcDbEntity
  8
0
  6
Continuous
 62
     7
370
    40
100
AcDbLine
 10
187.6809359606
 20
923.5271228908
 30
0.0
 11
185.6809359606
 21
923.5271228908
 31
0.0
  0
LINE
  5
6A
330
1F
100
AcDbEntity
  8
0
  6
Continuous
 62
     7
370
    40
100
AcDbLine
 10
550.4809359606
 20
949.5271228908
 30
0.0
 11
548.9809359606
 21
949.5271228908
 31
0.0
  0
LINE
  5
6B
330
1F
100
AcDbEntity
  8
0
  6
Continuous
 62
     7
370
    40
100
AcDbLine
 10
543.9809359606
 20
949.5271228908
 30
0.0
 11
465.2809359606
 21
949.5271228908
 31
0.0
  0
LINE
  5
6C
330
1F
100
AcDbEntity
  8
0
  6
Continuous
 62
     7
370
    40
100
AcDbLine
 10
465.2809359606
 20
873.5271228908
 30
0.0
 11
550.4809359606
 21
873.5271228908
 31
0.0
  0
LINE
  5
6D
330
1F
100
AcDbEntity
  8
0
  6
Continuous
 62
     7
370
    40
100
AcDbLine
 10
465.2809359606
 20
923.5271228908
 30
0.0
 11
463.2809359606
 21
923.5271228908
 31
0.0
  0
LINE
  5
6E
330
1F
100
AcDbEntity
  8
0
  6
Continuous
 62
     7
370
    40
100
AcDbLine
 10
463.2809359606
 20
899.5271228908
 30
0.0
 11
465.2809359606
 21
899.5271228908
 31
0.0
  0
LINE
  5
6F
330
1F
100
AcDbEntity
  8
0
  6
Continuous
 62
     7
370
    40
100
AcDbLine
 10
543.9809359606
 20
911.6727482096
 30
0.0
 11
548.9809359606
 21
911.6727482096
 31
0.0
  0
LINE
  5
70
330
1F
100
AcDbEntity
  8
0
  6
Continuous
 62
     7
370
    40
100
AcDbLine
 10
543.9809359606
 20
1176.6448880245
 30
0.0
 11
548.9809359606
 21
1176.6448880245
 31
0.0
  0
LINE
  5
71
330
1F
100
AcDbEntity
  8
0
  6
Continuous
 62
     7
370
    40
100
AcDbLine
 10
543.9809359606
 20
1176.6448880245
 30
0.0
 11
543.9809359606
 21
911.6727482096
 31
0.0
  0
LINE
  5
72
330
1F
100
AcDbEntity
  8
0
  6
Continuous
 62
     7
370
    40
100
AcDbLine
 10
548.9809359606
 20
1176.6448880245
 30
0.0
 11
548.9809359606
 21
911.6727482096
 31
0.0
  0
LINE
  5
73
330
1F
100
AcDbEntity
  8
0
  6
Continuous
 62
     7
370
    40
100
AcDbLine
 10
106.9809359606
 20
1176.6448880245
 30
0.0
 11
101.9809359606
 21
1176.6448880245
 31
0.0
  0
LINE
  5
74
330
1F
100
AcDbEntity
  8
0
  6
Continuous
 62
     7
370
    40
100
AcDbLine
 10
106.9809359606
 20
911.6727482096
 30
0.0
 11
101.9809359606
 21
911.6727482096
 31
0.0
  0
LINE
  5
75
330
1F
100
AcDbEntity
  8
0
  6
Continuous
 62
     7
370
    40
100
AcDbLine
 10
106.9809359606
 20
1176.6448880245
 30
0.0
 11
106.9809359606
 21
911.6727482096
 31
0.0
  0
LINE
  5
76
330
1F
100
AcDbEntity
  8
0
  6
Continuous
 62
     7
370
    40
100
AcDbLine
 10
101.9809359606
 20
1176.6448880245
 30
0.0
 11
101.9809359606
 21
911.6727482096
 31
0.0
  0
LWPOLYLINE
  5
77
330
1F
100
AcDbEntity
  8
0
  6
Continuous
 62
     7
370
    40
100
AcDbPolyline
 90
       20
 70
   128
 43
0.0
 10
481.8234233219
 20
1349.5091874618
 10
470.8753255645
 20
1349.4358137351
 10
453.9286680129
 20
1349.3330676675
 10
436.9226321521
 20
1349.2430607128
 10
419.865079465
 20
1349.1658344792
 10
402.7638952497
 20
1349.1014246666
 10
385.6269849737
 20
1349.0498610499
 10
368.4622706203
 20
1349.0111674659
 10
351.2776870256
 20
1348.9853618017
 10
334.0811782109
 20
1348.9724559865
 10
316.8806937103
 20
1348.9724559865
 10
299.6841848956
 20
1348.9853618017
 10
282.4996013009
 20
1349.0111674659
 10
265.3348869475
 20
1349.0498610499
 10
248.1979766715
 20
1349.1014246666
 10
231.0967924562
 20
1349.1658344792
 10
214.0392397691
 20
1349.2430607128
 10
197.0332039083
 20
1349.3330676675
 10
180.0865463567
 20
1349.4358137351
 10
179.2120335573
 20
1349.4414720289
  0
LWPOLYLINE
  5
78
330
1F
100
AcDbEntity
  8
0
  6
Continuous
 62
     7
370
    40
100
AcDbPolyline
 90
       20
 70
   128
 43
0.0
 10
483.681178925
 20
994.7384433614
 10
472.5538896096
 20
994.6629618076
 10
455.4153625053
 20
994.5578143494
 10
438.215358863
 20
994.4657012342
 10
420.9620166083
 20
994.386666044
 10
403.6634989028
 20
994.3207461732
 10
386.3279902825
 20
994.2679728108
 10
368.9636927851
 20
994.2283709256
 10
351.5788220691
 20
994.2019592547
 10
334.1816035272
 20
994.1887502945
 10
316.780268394
 20
994.1887502945
 10
299.3830498521
 20
994.2019592547
 10
281.9981791361
 20
994.2283709256
 10
264.6338816387
 20
994.2679728108
 10
247.2983730184
 20
994.3207461732
 10
229.9998553129
 20
994.386666044
 10
212.7465130581
 20
994.4657012342
 10
195.5465094159
 20
994.5578143494
 10
178.4079823116
 20
994.6629618076
 10
174.0913343057
 20
994.6915658886
  0
LINE
  5
79
330
1F
100
AcDbEntity
  8
0
  6
Continuous
 62
     7
370
    40
100
AcDbLine
 10
163.2975876856
 20
1349.5585385504
 30
0.0
 11
163.2071011481
 21
1349.5512514187
 31
0.0
  0
SPLINE
  5
7A
330
1F
100
AcDbEntity
  8
0
  6
Continuous
 62
     7
370
    40
100
AcDbSpline
210
0.0
220
0.0
230
1.0
 70
     8
 71
     3
 72
    16
 73
    12
 74
     0
 42
0.00000001
 43
0.00000001
 12
1.0
 22
0.0
 32
0.0
 13
1.0
 23
0.0
 33
0.0
 40
0.0
 40
0.0
 40
0.0
 40
0.0
 40
0.0618792159804172
 40
0.1563257672267503
 40
0.2504695376715214
 40
0.3911862249226418
 40
0.5319046156336458
 40
0.6727853142085028
 40
0.8136673816495952
 40
0.9068336523157895
 40
1.0
 40
1.0
 40
1.0
 40
1.0
 10
144.3772419194219
 20
998.3004460501978
 30
0.0
 10
143.3012069745353
 20
998.7438337518729
 30
0.0
 10
140.5828146087462
 20
999.8639662801392
 30
0.0
 10
136.514581300292
 20
1002.288833628419
 30
0.0
 10
131.4988102880012
 20
1005.973561058213
 30
0.0
 10
126.4243913465127
 20
1011.016226767057
 30
0.0
 10
121.6961906486013
 20
1017.556463318855
 30
0.0
 10
118.1120625712721
 20
1024.831877950839
 30
0.0
 10
116.01487742953
 20
1031.732145425663
 30
0.0
 10
114.9773171426478
 20
1037.937682505694
 30
0.0
 10
114.8653147583153
 20
1041.510919171947
 30
0.0
 10
114.8093135430017
 20
1043.297538243547
 30
0.0
  0
LINE
  5
7B
330
1F
100
AcDbEntity
  8
0
  6
Continuous
 62
     7
370
    40
100
AcDbLine
 10
114.809313543
 20
1043.2975382435
 30
0.0
 11
114.809313543
 21
1276.9551136006
 31
0.0
  0
SPLINE
  5
7C
330
1F
100
AcDbEntity
  8
0
  6
Continuous
 62
     7
370
    40
100
AcDbSpline
210
0.0
220
0.0
230
1.0
 70
     8
 71
     3
 72
    16
 73
    12
 74
     0
 42
0.00000001
 43
0.00000001
 12
1.0
 22
0.0
 32
0.0
 13
1.0
 23
0.0
 33
0.0
 40
0.0
 40
0.0
 40
0.0
 40
0.0
 40
0.1207823661417151
 40
0.2419497114006511
 40
0.3627315306460581
 40
0.4835063048681716
 40
0.6046669099714291
 40
0.7254401834260461
 40
0.8460043728934347
 40
0.9669544849992193
 40
1.0
 40
1.0
 40
1.0
 40
1.0
 10
114.8093135430017
 20
1276.955113600612
 30
0.0
 10
114.8673111271318
 20
1278.76105307578
 30
0.0
 10
114.9834911556447
 20
1282.378688238775
 30
0.0
 10
115.8981470362443
 20
1287.726399224204
 30
0.0
 10
117.338420512376
 20
1292.935450340167
 30
0.0
 10
119.3611462836414
 20
1297.932600761259
 30
0.0
 10
121.909997030451
 20
1302.658398325121
 30
0.0
 10
124.9487043018617
 20
1307.066268435859
 30
0.0
 10
128.4896294814288
 20
1311.037900912918
 30
0.0
 10
131.4117694936687
 20
1313.829401947476
 30
0.0
 10
133.2539863009697
 20
1315.121190175732
 30
0.0
 10
133.64930274134
 20
1315.398391600713
 30
0.0
  0
SPLINE
  5
7D
330
1F
100
AcDbEntity
  8
0
  6
Continuous
 62
     7
370
    40
100
AcDbSpline
210
0.0
220
0.0
230
1.0
 70
     8
 71
     3
 72
    14
 73
    10
 74
     0
 42
0.00000001
 43
0.00000001
 12
1.0
 22
0.0
 32
0.0
 13
1.0
 23
0.0
 33
0.0
 40
0.0
 40
0.0
 40
0.0
 40
0.0
 40
0.0420220474963831
 40
0.2218726215706469
 40
0.4017253728439602
 40
0.5817855704625543
 40
0.7618475176346861
 40
0.8809237095988217
 40
1.0
 40
1.0
 40
1.0
 40
1.0
 10
517.192508809357
 20
1315.47980301901
 30
0.0
 10
517.6955359087403
 20
1315.124636934818
 30
0.0
 10
520.3514736345456
 20
1313.249392036308
 30
0.0
 10
524.5134389188844
 20
1308.987583469497
 30
0.0
 10
529.2721376518933
 20
1302.575651040157
 30
0.0
 10
532.8480555825824
 20
1295.355667287679
 30
0.0
 10
534.9472892522043
 20
1288.497942894445
 30
0.0
 10
535.9844940481302
 20
1282.311668814343
 30
0.0
 10
536.0965369193947
 20
1278.740632497202
 30
0.0
 10
536.1525583781826
 20
1276.955113600612
 30
0.0
  0
LINE
  5
7E
330
1F
100
AcDbEntity
  8
0
  6
Continuous
 62
     7
370
    40
100
AcDbLine
 10
536.1525583782
 20
1276.9551136006
 30
0.0
 11
536.1525583782
 21
1043.2975382435
 31
0.0
  0
SPLINE
  5
7F
330
1F
100
AcDbEntity
  8
0
  6
Continuous
 62
     7
370
    40
100
AcDbSpline
210
0.0
220
0.0
230
1.0
 70
     8
 71
     3
 72
    18
 73
    14
 74
     0
 42
0.00000001
 43
0.00000001
 12
1.0
 22
0.0
 32
0.0
 13
1.0
 23
0.0
 33
0.0
 40
0.0
 40
0.0
 40
0.0
 40
0.0
 40
0.094714450514622
 40
0.1897307918326133
 40
0.2844448134851025
 40
0.3791533106100321
 40
0.4741643664698723
 40
0.5688716867312158
 40
0.6634150486632563
 40
0.7582610412839019
 40
0.8528034997166482
 40
0.9943108545554703
 40
1.0
 40
1.0
 40
1.0
 40
1.0
 10
536.1525583781826
 20
1043.297538243547
 30
0.0
 10
536.0945625981298
 20
1041.490482366255
 30
0.0
 10
535.9783861835216
 20
1037.870610840617
 30
0.0
 10
535.0637031612453
 20
1032.505508286753
 30
0.0
 10
533.6235325726915
 20
1027.269084085418
 30
0.0
 10
531.6004222063973
 20
1022.234447779291
 30
0.0
 10
529.0530098416439
 20
1017.459567265376
 30
0.0
 10
526.008950520669
 20
1013.002973355899
 30
0.0
 10
522.487973343549
 20
1008.942447126762
 30
0.0
 10
518.5598115873171
 20
1005.288084499965
 30
0.0
 10
513.5189755512009
 20
1001.671479122728
 30
0.0
 10
509.5941372722365
 20
999.2704411859723
 30
0.0
 10
506.980584281867
 20
998.4142030498897
 30
0.0
 10
506.8795704462081
 20
998.3811094418083
 30
0.0
  0
SPLINE
  5
80
330
1F
100
AcDbEntity
  8
0
  6
Continuous
 62
     7
370
    40
100
AcDbSpline
210
0.0
220
0.0
230
1.0
 70
     8
 71
     3
 72
    19
 73
    15
 74
     0
 42
0.00000001
 43
0.00000001
 12
1.0
 22
0.0
 32
0.0
 13
1.0
 23
0.0
 33
0.0
 40
0.0
 40
0.0
 40
0.0
 40
0.0
 40
0.0840170580710088
 40
0.1675766225075133
 40
0.2517441764504826
 40
0.3351642511260009
 40
0.4186254578670937
 40
0.5022433941247033
 40
0.5850996279464277
 40
0.6684522252261955
 40
0.7511911118976112
 40
0.833779961611413
 40
0.9169502963389304
 40
1.0
 40
1.0
 40
1.0
 40
1.0
 10
492.1875484523569
 20
1336.645489574518
 30
0.0
 10
494.8180784775186
 20
1336.565616042272
 30
0.0
 10
500.06481464208
 20
1336.406303908893
 30
0.0
 10
507.7964415090225
 20
1334.868672081489
 30
0.0
 10
515.238445354606
 20
1332.406309050312
 30
0.0
 10
522.2801877344514
 20
1328.960162480168
 30
0.0
 10
528.7949193389435
 20
1324.619170944499
 30
0.0
 10
534.6733630638572
 20
1319.447028793332
 30
0.0
 10
539.8294391539969
 20
1313.524434526811
 30
0.0
 10
544.1609534890022
 20
1306.969279691764
 30
0.0
 10
547.6129749604403
 20
1299.879592026438
 30
0.0
 10
550.1066656652733
 20
1292.3765043273
 30
0.0
 10
551.6922586831278
 20
1284.574779541164
 30
0.0
 10
551.8897674374749
 20
1279.259163589749
 30
0.0
 10
551.9884501455167
 20
1276.603284468189
 30
0.0
  0
SPLINE
  5
81
330
1F
100
AcDbEntity
  8
0
  6
Continuous
 62
     7
370
    40
100
AcDbSpline
210
0.0
220
0.0
230
1.0
 70
     8
 71
     3
 72
    19
 73
    15
 74
     0
 42
0.00000001
 43
0.00000001
 12
1.0
 22
0.0
 32
0.0
 13
1.0
 23
0.0
 33
0.0
 40
0.0
 40
0.0
 40
0.0
 40
0.0
 40
0.0827348267038218
 40
0.1651055676528602
 40
0.2482434519015704
 40
0.3308796141789803
 40
0.4138548546372876
 40
0.4972945486414336
 40
0.5803156985204249
 40
0.6641661333886901
 40
0.747683097157424
 40
0.8312980283551883
 40
0.9156660952522083
 40
0.9999999999999999
 40
0.9999999999999999
 40
0.9999999999999999
 40
0.9999999999999999
 10
98.97342177566749
 20
1276.603284468189
 30
0.0
 10
99.07132576660416
 20
1279.249093873089
 30
0.0
 10
99.26670290877112
 20
1284.529069442037
 30
0.0
 10
100.8394226022059
 20
1292.314441545192
 30
0.0
 10
103.3198784919254
 20
1299.810851490637
 30
0.0
 10
106.766038517518
 20
1306.906014223482
 30
0.0
 10
111.0904513811755
 20
1313.469872769529
 30
0.0
 10
116.2318108317068
 20
1319.389918060722
 30
0.0
 10
122.1126146408764
 20
1324.576857666872
 30
0.0
 10
128.6187883396291
 20
1328.925172659109
 30
0.0
 10
135.655342027952
 20
1332.37741221126
 30
0.0
 10
143.10401905551
 20
1334.853187769958
 30
0.0
 10
150.8519106637768
 20
1336.403709551137
 30
0.0
 10
156.1338757331191
 20
1336.564907114227
 30
0.0
 10
158.7743234688274
 20
1336.645489574518
 30
0.0
  0
LINE
  5
82
330
1F
100
AcDbEntity
  8
0
  6
Continuous
 62
     7
370
    40
100
AcDbLine
 10
160.9757990516
 20
1349.5340891788
 30
0.0
 11
163.2071011481
 21
1349.5512514187
 31
0.0
  0
LINE
  5
83
330
1F
100
AcDbEntity
  8
0
  6
Continuous
 62
     7
370
    40
100
AcDbLine
 10
489.9860728696
 20
1349.5340891788
 30
0.0
 11
496.6701900516
 21
1348.9487179017
 31
0.0
  0
LINE
  5
84
330
1F
100
AcDbEntity
  8
0
  6
Continuous
 62
     7
370
    40
100
AcDbLine
 10
560.9099310418
 20
1277.3689545519
 30
0.0
 11
560.9094619713
 21
1277.3852945551
 31
0.0
  0
LINE
  5
85
330
1F
100
AcDbEntity
  8
0
  6
Continuous
 62
     7
370
    40
100
AcDbLine
 10
154.2882396295
 20
1348.9466148575
 30
0.0
 11
154.5634911874
 21
1348.9707945637
 31
0.0
  0
LINE
  5
86
330
1F
100
AcDbEntity
  8
0
  6
Continuous
 62
     7
370
    40
100
AcDbLine
 10
90.0524093435
 20
1277.3852734336
 30
0.0
 11
90.0519408811
 21
1277.3689546145
 31
0.0
  0
SPLINE
  5
87
330
1F
100
AcDbEntity
  8
0
  6
Continuous
 62
     7
370
    40
100
AcDbSpline
210
0.0
220
0.0
230
1.0
 70
     8
 71
     3
 72
    15
 73
    11
 74
     0
 42
0.00000001
 43
0.00000001
 12
1.0
 22
0.0
 32
0.0
 13
1.0
 23
0.0
 33
0.0
 40
0.0
 40
0.0
 40
0.0
 40
0.0
 40
0.1258633508843858
 40
0.2510413447333187
 40
0.3771301488194
 40
0.5020991773803921
 40
0.6271298246140782
 40
0.7523952634791778
 40
0.8758290013199004
 40
1.0
 40
1.0
 40
1.0
 40
1.0
 10
158.7743234688274
 20
981.8617459827373
 30
0.0
 10
156.1437888979798
 20
981.9806605622708
 30
0.0
 10
150.8970436667992
 20
982.2178422020787
 30
0.0
 10
143.1654846795947
 20
983.8773752743449
 30
0.0
 10
135.7232221419142
 20
986.461751786146
 30
0.0
 10
128.6824398147953
 20
990.0289811584106
 30
0.0
 10
122.1641278892716
 20
994.4834307163507
 30
0.0
 10
116.3098503390202
 20
999.7617126749875
 30
0.0
 10
111.1217665987575
 20
1005.727480309637
 30
0.0
 10
108.3639515589629
 20
1010.205745960004
 30
0.0
 10
106.9809382431514
 20
1012.451545963568
 30
0.0
  0
SPLINE
  5
88
330
1F
100
AcDbEntity
  8
0
  6
Continuous
 62
     7
370
    40
100
AcDbSpline
210
0.0
220
0.0
230
1.0
 70
     8
 71
     3
 72
    15
 73
    11
 74
     0
 42
0.00000001
 43
0.00000001
 12
1.0
 22
0.0
 32
0.0
 13
1.0
 23
0.0
 33
0.0
 40
0.0
 40
0.0
 40
0.0
 40
0.0
 40
0.1231210260905285
 40
0.2469067658210036
 40
0.3712791315844156
 40
0.4968938330196215
 40
0.6220089679031378
 40
0.7472708658817703
 40
0.8736610217656917
 40
1.0
 40
1.0
 40
1.0
 40
1.0
 10
543.9806933450933
 20
1012.451120967776
 30
0.0
 10
542.6100425980429
 20
1010.223987545066
 30
0.0
 10
539.8613411473623
 20
1005.757696709829
 30
0.0
 10
534.7006516215766
 20
999.8124245887273
 30
0.0
 10
528.852074505944
 20
994.5267273269984
 30
0.0
 10
522.3423289582138
 20
990.0650643744016
 30
0.0
 10
515.3067318874704
 20
986.4917964141994
 30
0.0
 10
507.8577984308613
 20
983.8938450731281
 30
0.0
 10
500.1099749104666
 20
982.2211134451197
 30
0.0
 10
494.8280007384705
 20
981.9815189642372
 30
0.0
 10
492.1875484523569
 20
981.8617459827373
 30
0.0
  0
SPLINE
  5
89
330
1F
100
AcDbEntity
  8
0
  6
Continuous
 62
     7
370
    40
100
AcDbSpline
210
0.0
220
0.0
230
1.0
 70
     8
 71
     3
 72
     9
 73
     5
 74
     0
 42
0.00000001
 43
0.00000001
 12
1.0
 22
0.0
 32
0.0
 13
1.0
 23
0.0
 33
0.0
 40
0.0
 40
0.0
 40
0.0
 40
0.0
 40
0.6426829408237078
 40
1.0
 40
1.0
 40
1.0
 40
1.0
 10
160.9757990516024
 20
969.8348604775256
 30
0.0
 10
157.9022684913797
 20
970.0263203952994
 30
0.0
 10
153.1199250293245
 20
970.3242276612499
 30
0.0
 10
148.4887091144866
 20
971.5285969852007
 30
0.0
 10
146.8338966633862
 20
971.958938690197
 30
0.0
  0
SPLINE
  5
8A
330
1F
100
AcDbEntity
  8
0
  6
Continuous
 62
     7
370
    40
100
AcDbSpline
210
0.0
220
0.0
230
1.0
 70
     8
 71
     3
 72
     9
 73
     5
 74
     0
 42
0.00000001
 43
0.00000001
 12
1.0
 22
0.0
 32
0.0
 13
1.0
 23
0.0
 33
0.0
 40
0.0
 40
0.0
 40
0.0
 40
0.0
 40
0.0331099495965174
 40
1.0
 40
1.0
 40
1.0
 40
1.0
 10
490.491925514632
 20
970.0014352364715
 30
0.0
 10
490.4878284591399
 20
969.995807143868
 30
0.0
 10
490.3640875431288
 20
969.8258252299079
 30
0.0
 10
490.2270547705595
 20
969.8471709756637
 30
0.0
 10
490.094559146183
 20
969.8678099648534
 30
0.0
  0
LINE
  5
8B
330
1F
100
AcDbEntity
  8
0
  6
Continuous
 62
     7
370
    40
100
AcDbLine
 10
489.986060339
 20
1349.534091249
 30
0.0
 11
487.7547707731
 21
1349.5512514187
 31
0.0
  0
ARC
  5
8C
330
1F
100
AcDbEntity
  8
0
  6
Continuous
 62
     7
370
    40
100
AcDbCircle
 10
548.4654220937
 20
1516.119967654
 30
0.0
 40
339.3731950044045
100
AcDbArc
 50
269.24287006
 51
270.0870333328
  0
ARC
  5
8D
330
1F
100
AcDbEntity
  8
0
  6
Continuous
 62
     7
370
    40
100
AcDbCircle
 10
102.4964498275
 20
1516.1199676539
 30
0.0
 40
339.3731950043847
100
AcDbArc
 50
269.9129666672
 51
270.75712994
  0
LINE
  5
8E
330
1F
100
AcDbEntity
  8
0
  6
Continuous
 62
     7
370
    40
100
AcDbLine
 10
106.9809359606
 20
1176.7764030006
 30
0.0
 11
106.9809359606
 21
1176.6448880245
 31
0.0
  0
LINE
  5
8F
330
1F
100
AcDbEntity
  8
0
  6
Continuous
 62
     7
370
    40
100
AcDbLine
 10
101.9809359606
 20
1176.7471641871
 30
0.0
 11
101.9809359606
 21
1176.6448880245
 31
0.0
  0
LINE
  5
90
330
1F
100
AcDbEntity
  8
0
  6
Continuous
 62
     7
370
    40
100
AcDbLine
 10
543.9809359606
 20
1176.7764030006
 30
0.0
 11
543.9809359606
 21
1176.6448880245
 31
0.0
  0
LINE
  5
91
330
1F
100
AcDbEntity
  8
0
  6
Continuous
 62
     7
370
    40
100
AcDbLine
 10
548.9809359606
 20
1176.7471641871
 30
0.0
 11
548.9809359606
 21
1176.6448880245
 31
0.0
  0
LINE
  5
92
330
1F
100
AcDbEntity
  8
0
  6
Continuous
 62
     7
370
    40
100
AcDbLine
 10
560.9099497387
 20
1042.9916902098
 30
0.0
 11
560.9094945328
 21
1043.001332678
 31
0.0
  0
SPLINE
  5
93
330
1F
100
AcDbEntity
  8
0
  6
Continuous
 62
     7
370
    40
100
AcDbSpline
210
0.0
220
0.0
230
1.0
 70
     8
 71
     3
 72
    10
 73
     6
 74
     0
 42
0.00000001
 43
0.00000001
 12
1.0
 22
0.0
 32
0.0
 13
1.0
 23
0.0
 33
0.0
 40
0.0
 40
0.0
 40
0.0
 40
0.0
 40
0.3341123389594109
 40
0.666142579822568
 40
1.0
 40
1.0
 40
1.0
 40
1.0
 10
551.9884501455167
 20
1042.945709111124
 30
0.0
 10
551.9207886649958
 20
1040.784559003265
 30
0.0
 10
551.7858873520744
 20
1036.475726492869
 30
0.0
 10
550.7750884714359
 20
1030.060582258947
 30
0.0
 10
549.5800926387923
 20
1025.923603710789
 30
0.0
 10
548.9809552029286
 20
1023.849438553172
 30
0.0
  0
LINE
  5
94
330
1F
100
AcDbEntity
  8
0
  6
Continuous
 62
     7
370
    40
100
AcDbLine
 10
90.0523779351
 20
1043.0013442582
 30
0.0
 11
90.0519221825
 21
1042.9916902098
 31
0.0
  0
SPLINE
  5
95
330
1F
100
AcDbEntity
  8
0
  6
Continuous
 62
     7
370
    40
100
AcDbSpline
210
0.0
220
0.0
230
1.0
 70
     8
 71
     3
 72
    10
 73
     6
 74
     0
 42
0.00000001
 43
0.00000001
 12
1.0
 22
0.0
 32
0.0
 13
1.0
 23
0.0
 33
0.0
 40
0.0
 40
0.0
 40
0.0
 40
0.0
 40
0.3331141905429579
 40
0.6665358543649211
 40
1.0
 40
1.0
 40
1.0
 40
1.0
 10
101.9809602645088
 20
1023.849303767923
 30
0.0
 10
101.3830343121018
 20
1025.918818576944
 30
0.0
 10
100.1866305056924
 20
1030.059758412332
 30
0.0
 10
99.17569030301783
 20
1036.47508846868
 30
0.0
 10
99.04084748136016
 20
1040.788743967798
 30
0.0
 10
98.97342177566749
 20
1042.945709111124
 30
0.0
  0
LINE
  5
96
330
1F
100
AcDbEntity
  8
0
  6
Continuous
 62
     7
370
    40
100
AcDbLine
 10
86.4809359606
 20
943.7211048825
 30
0.0
 11
86.4809359606
 21
885.4305048683
 31
0.0
  0
LINE
  5
97
330
1F
100
AcDbEntity
  8
0
  6
Continuous
 62
     7
370
    40
100
AcDbLine
 10
185.6809359606
 20
949.5271228908
 30
0.0
 11
185.6809359606
 21
873.5271228908
 31
0.0
  0
LINE
  5
98
330
1F
100
AcDbEntity
  8
0
  6
Continuous
 62
     7
370
    40
100
AcDbLine
 10
100.4809359606
 20
885.4305048683
 30
0.0
 11
100.4809359606
 21
831.5271228908
 31
0.0
  0
LINE
  5
99
330
1F
100
AcDbEntity
  8
0
  6
Continuous
 62
     7
370
    40
100
AcDbLine
 10
100.4809359606
 20
831.5271228908
 30
0.0
 11
91.4809359606
 21
831.5271228908
 31
0.0
  0
LINE
  5
9A
330
1F
100
AcDbEntity
  8
0
  6
Continuous
 62
     7
370
    40
100
AcDbLine
 10
91.4809359606
 20
831.5271228908
 30
0.0
 11
91.4809359606
 21
748.0798836973
 31
0.0
  0
LINE
  5
9B
330
1F
100
AcDbEntity
  8
0
  6
Continuous
 62
     7
370
    40
100
AcDbLine
 10
86.4809359606
 20
885.4305048683
 30
0.0
 11
86.4809359606
 21
748.0798836973
 31
0.0
  0
LINE
  5
9C
330
1F
100
AcDbEntity
  8
0
  6
Continuous
 62
     7
370
    40
100
AcDbLine
 10
100.4809359606
 20
971.5271228908
 30
0.0
 11
86.4809359606
 21
971.5271228908
 31
0.0
  0
LINE
  5
9D
330
1F
100
AcDbEntity
  8
0
  6
Continuous
 62
     7
370
    40
100
AcDbLine
 10
100.4809359606
 20
971.5271228908
 30
0.0
 11
100.4809359606
 21
943.7211048825
 31
0.0
  0
LINE
  5
9E
330
1F
100
AcDbEntity
  8
0
  6
Continuous
 62
     7
370
    40
100
AcDbLine
 10
86.4809359606
 20
971.5271228908
 30
0.0
 11
86.4809359606
 21
943.7211048825
 31
0.0
  0
LINE
  5
9F
330
1F
100
AcDbEntity
  8
0
  6
Continuous
 62
     7
370
    40
100
AcDbLine
 10
187.6809359606
 20
923.5271228908
 30
0.0
 11
187.6809359606
 21
899.5271228908
 31
0.0
  0
LINE
  5
A0
330
1F
100
AcDbEntity
  8
0
  6
Continuous
 62
     7
370
    40
100
AcDbLine
 10
91.4809359606
 20
671.5271228908
 30
0.0
 11
86.4809359606
 21
671.5271228908
 31
0.0
  0
LINE
  5
A1
330
1F
100
AcDbEntity
  8
0
  6
Continuous
 62
     7
370
    40
100
AcDbLine
 10
91.4809359606
 20
681.5271228908
 30
0.0
 11
91.4809359606
 21
671.5271228908
 31
0.0
  0
LINE
  5
A2
330
1F
100
AcDbEntity
  8
0
  6
Continuous
 62
     7
370
    40
100
AcDbLine
 10
86.4809359606
 20
681.5271228908
 30
0.0
 11
86.4809359606
 21
671.5271228908
 31
0.0
  0
LINE
  5
A3
330
1F
100
AcDbEntity
  8
0
  6
Continuous
 62
     7
370
    40
100
AcDbLine
 10
91.4809359606
 20
748.0798836973
 30
0.0
 11
91.4809359606
 21
681.5271228908
 31
0.0
  0
LINE
  5
A4
330
1F
100
AcDbEntity
  8
0
  6
Continuous
 62
     7
370
    40
100
AcDbLine
 10
86.4809359606
 20
748.0798836973
 30
0.0
 11
86.4809359606
 21
681.5271228908
 31
0.0
  0
LINE
  5
A5
330
1F
100
AcDbEntity
  8
0
  6
Continuous
 62
     7
370
    40
100
AcDbLine
 10
100.4809359606
 20
831.5271228908
 30
0.0
 11
103.4809359606
 21
828.5271228908
 31
0.0
  0
LINE
  5
A6
330
1F
100
AcDbEntity
  8
0
  6
Continuous
 62
     7
370
    40
100
AcDbLine
 10
100.4809359606
 20
971.5271228908
 30
0.0
 11
101.9809359606
 21
971.5271228908
 31
0.0
  0
LINE
  5
A7
330
1F
100
AcDbEntity
  8
0
  6
Continuous
 62
     7
370
    40
100
AcDbLine
 10
91.4809359606
 20
831.5271228908
 30
0.0
 11
94.4809359606
 21
828.5271228908
 31
0.0
  0
LINE
  5
A8
330
1F
100
AcDbEntity
  8
0
  6
Continuous
 62
     7
370
    40
100
AcDbLine
 10
94.4809359606
 20
671.5271228908
 30
0.0
 11
91.4809359606
 21
671.5271228908
 31
0.0
  0
LINE
  5
A9
330
1F
100
AcDbEntity
  8
0
  6
Continuous
 62
     7
370
    40
100
AcDbLine
 10
134.4809359606
 20
956.5271228908
 30
0.0
 11
134.4809359606
 21
949.5271228908
 31
0.0
  0
LINE
  5
AA
330
1F
100
AcDbEntity
  8
0
  6
Continuous
 62
     7
370
    40
100
AcDbLine
 10
134.4809359606
 20
873.5271228908
 30
0.0
 11
134.4809359606
 21
686.5271228908
 31
0.0
  0
ARC
  5
AB
330
1F
100
AcDbEntity
  8
0
  6
Continuous
 62
     7
370
    40
100
AcDbCircle
 10
119.4809359606
 20
686.5271228908
 30
0.0
 40
15.0
100
AcDbArc
 50
270.0
 51
0.0
  0
CIRCLE
  5
AC
330
1F
100
AcDbEntity
  8
0
  6
Continuous
 62
     7
370
    40
100
AcDbCircle
 10
120.4809359606
 20
691.5271228908
 30
0.0
 40
5.5
  0
ARC
  5
AD
330
1F
100
AcDbEntity
  8
0
  6
Continuous
 62
     7
370
    40
100
AcDbCircle
 10
120.4809359606
 20
951.5271228908
 30
0.0
 40
5.50000000000006
100
AcDbArc
 50
338.6763137365
 51
90.0
  0
ARC
  5
AE
330
1F
100
AcDbEntity
  8
0
  6
Continuous
 62
     7
370
    40
100
AcDbCircle
 10
120.4809359606
 20
951.5271228908
 30
0.0
 40
5.500000000000034
100
AcDbArc
 50
90.0
 51
201.3236862635
  0
ARC
  5
AF
330
1F
100
AcDbEntity
  8
0
  6
Continuous
 62
     7
370
    40
100
AcDbCircle
 10
119.4809359606
 20
956.5271228908
 30
0.0
 40
15.00000000000003
100
AcDbArc
 50
0.0
 51
90.0
  0
LINE
  5
B0
330
1F
100
AcDbEntity
  8
0
  6
Continuous
 62
     7
370
    40
100
AcDbLine
 10
106.9809359606
 20
971.5271228908
 30
0.0
 11
119.4809359606
 21
971.5271228908
 31
0.0
  0
LINE
  5
B1
330
1F
100
AcDbEntity
  8
0
  6
Continuous
 62
     7
370
    40
100
AcDbLine
 10
119.4809359606
 20
671.5271228908
 30
0.0
 11
94.4809359606
 21
671.5271228908
 31
0.0
  0
LINE
  5
B2
330
1F
100
AcDbEntity
  8
0
  6
Continuous
 62
     7
370
    40
100
AcDbLine
 10
564.4809359606
 20
943.7211048825
 30
0.0
 11
564.4809359606
 21
885.4305048683
 31
0.0
  0
LINE
  5
B3
330
1F
100
AcDbEntity
  8
0
  6
Continuous
 62
     7
370
    40
100
AcDbLine
 10
465.2809359606
 20
949.5271228908
 30
0.0
 11
465.2809359606
 21
873.5271228908
 31
0.0
  0
LINE
  5
B4
330
1F
100
AcDbEntity
  8
0
  6
Continuous
 62
     7
370
    40
100
AcDbLine
 10
559.4809359606
 20
831.5271228908
 30
0.0
 11
559.4809359606
 21
748.0798836973
 31
0.0
  0
LINE
  5
B5
330
1F
100
AcDbEntity
  8
0
  6
Continuous
 62
     7
370
    40
100
AcDbLine
 10
550.4809359606
 20
831.5271228908
 30
0.0
 11
559.4809359606
 21
831.5271228908
 31
0.0
  0
LINE
  5
B6
330
1F
100
AcDbEntity
  8
0
  6
Continuous
 62
     7
370
    40
100
AcDbLine
 10
550.4809359606
 20
885.4305048683
 30
0.0
 11
550.4809359606
 21
831.5271228908
 31
0.0
  0
LINE
  5
B7
330
1F
100
AcDbEntity
  8
0
  6
Continuous
 62
     7
370
    40
100
AcDbLine
 10
564.4809359606
 20
885.4305048683
 30
0.0
 11
564.4809359606
 21
748.0798836973
 31
0.0
  0
LINE
  5
B8
330
1F
100
AcDbEntity
  8
0
  6
Continuous
 62
     7
370
    40
100
AcDbLine
 10
550.4809359606
 20
971.5271228908
 30
0.0
 11
564.4809359606
 21
971.5271228908
 31
0.0
  0
LINE
  5
B9
330
1F
100
AcDbEntity
  8
0
  6
Continuous
 62
     7
370
    40
100
AcDbLine
 10
550.4809359606
 20
971.5271228908
 30
0.0
 11
550.4809359606
 21
943.7211048825
 31
0.0
  0
LINE
  5
BA
330
1F
100
AcDbEntity
  8
0
  6
Continuous
 62
     7
370
    40
100
AcDbLine
 10
564.4809359606
 20
971.5271228908
 30
0.0
 11
564.4809359606
 21
943.7211048825
 31
0.0
  0
LINE
  5
BB
330
1F
100
AcDbEntity
  8
0
  6
Continuous
 62
     7
370
    40
100
AcDbLine
 10
463.2809359606
 20
923.5271228908
 30
0.0
 11
463.2809359606
 21
899.5271228908
 31
0.0
  0
LINE
  5
BC
330
1F
100
AcDbEntity
  8
0
  6
Continuous
 62
     7
370
    40
100
AcDbLine
 10
559.4809359606
 20
671.5271228908
 30
0.0
 11
564.4809359606
 21
671.5271228908
 31
0.0
  0
LINE
  5
BD
330
1F
100
AcDbEntity
  8
0
  6
Continuous
 62
     7
370
    40
100
AcDbLine
 10
559.4809359606
 20
681.5271228908
 30
0.0
 11
559.4809359606
 21
671.5271228908
 31
0.0
  0
LINE
  5
BE
330
1F
100
AcDbEntity
  8
0
  6
Continuous
 62
     7
370
    40
100
AcDbLine
 10
564.4809359606
 20
681.5271228908
 30
0.0
 11
564.4809359606
 21
671.5271228908
 31
0.0
  0
LINE
  5
BF
330
1F
100
AcDbEntity
  8
0
  6
Continuous
 62
     7
370
    40
100
AcDbLine
 10
559.4809359606
 20
748.0798836973
 30
0.0
 11
559.4809359606
 21
681.5271228908
 31
0.0
  0
LINE
  5
C0
330
1F
100
AcDbEntity
  8
0
  6
Continuous
 62
     7
370
    40
100
AcDbLine
 10
564.4809359606
 20
748.0798836973
 30
0.0
 11
564.4809359606
 21
681.5271228908
 31
0.0
  0
LINE
  5
C1
330
1F
100
AcDbEntity
  8
0
  6
Continuous
 62
     7
370
    40
100
AcDbLine
 10
550.4809359606
 20
831.5271228908
 30
0.0
 11
547.4809359606
 21
828.5271228908
 31
0.0
  0
LINE
  5
C2
330
1F
100
AcDbEntity
  8
0
  6
Continuous
 62
     7
370
    40
100
AcDbLine
 10
550.4809359606
 20
971.5271228908
 30
0.0
 11
548.9809359606
 21
971.5271228908
 31
0.0
  0
LINE
  5
C3
330
1F
100
AcDbEntity
  8
0
  6
Continuous
 62
     7
370
    40
100
AcDbLine
 10
559.4809359606
 20
831.5271228908
 30
0.0
 11
556.4809359606
 21
828.5271228908
 31
0.0
  0
LINE
  5
C4
330
1F
100
AcDbEntity
  8
0
  6
Continuous
 62
     7
370
    40
100
AcDbLine
 10
556.4809359606
 20
671.5271228908
 30
0.0
 11
559.4809359606
 21
671.5271228908
 31
0.0
  0
ARC
  5
C5
330
1F
100
AcDbEntity
  8
0
  6
Continuous
 62
     7
370
    40
100
AcDbCircle
 10
531.4809359606
 20
686.5271228908
 30
0.0
 40
15.0
100
AcDbArc
 50
180.0
 51
270.0
  0
CIRCLE
  5
C6
330
1F
100
AcDbEntity
  8
0
  6
Continuous
 62
     7
370
    40
100
AcDbCircle
 10
530.4809359606
 20
691.5271228908
 30
0.0
 40
5.5
  0
LINE
  5
C7
330
1F
100
AcDbEntity
  8
0
  6
Continuous
 62
     7
370
    40
100
AcDbLine
 10
516.4809359606
 20
956.5271228908
 30
0.0
 11
516.4809359606
 21
949.5271228908
 31
0.0
  0
LINE
  5
C8
330
1F
100
AcDbEntity
  8
0
  6
Continuous
 62
     7
370
    40
100
AcDbLine
 10
516.4809359606
 20
873.5271228908
 30
0.0
 11
516.4809359606
 21
686.5271228908
 31
0.0
  0
ARC
  5
C9
330
1F
100
AcDbEntity
  8
0
  6
Continuous
 62
     7
370
    40
100
AcDbCircle
 10
530.4809359606
 20
951.5271228908
 30
0.0
 40
5.500000000000034
100
AcDbArc
 50
90.0
 51
201.3236862635
  0
ARC
  5
CA
330
1F
100
AcDbEntity
  8
0
  6
Continuous
 62
     7
370
    40
100
AcDbCircle
 10
530.4809359606
 20
951.5271228908
 30
0.0
 40
5.500000000000034
100
AcDbArc
 50
338.6763137365
 51
90.0
  0
ARC
  5
CB
330
1F
100
AcDbEntity
  8
0
  6
Continuous
 62
     7
370
    40
100
AcDbCircle
 10
531.4809359606
 20
956.5271228908
 30
0.0
 40
15.0
100
AcDbArc
 50
90.0
 51
180.0
  0
LINE
  5
CC
330
1F
100
AcDbEntity
  8
0
  6
Continuous
 62
     7
370
    40
100
AcDbLine
 10
543.9809359606
 20
971.5271228908
 30
0.0
 11
531.4809359606
 21
971.5271228908
 31
0.0
  0
LINE
  5
CD
330
1F
100
AcDbEntity
  8
0
  6
Continuous
 62
     7
370
    40
100
AcDbLine
 10
531.4809359606
 20
671.5271228908
 30
0.0
 11
556.4809359606
 21
671.5271228908
 31
0.0
  0
LINE
  5
CE
330
1F
100
AcDbEntity
  8
0
  6
Continuous
 62
     7
370
    40
100
AcDbLine
 10
1330.5214814631
 20
1045.6987672736
 30
0.0
 11
1330.4760049854
 21
1043.6957076448
 31
0.0
  0
LINE
  5
CF
330
1F
100
AcDbEntity
  8
0
  6
Continuous
 62
     7
370
    40
100
AcDbLine
 10
1338.6374025028
 20
1277.5620993942
 30
0.0
 11
1338.5580719857
 21
1275.5594271125
 31
0.0
  0
LINE
  5
D0
330
1F
100
AcDbEntity
  8
0
  6
Continuous
 62
     7
370
    40
100
AcDbLine
 10
1338.5425261849
 20
1275.5596346219
 30
0.0
 11
1330.5156419433
 21
1045.6997444075
 31
0.0
  0
SPLINE
  5
D1
330
1F
100
AcDbEntity
  8
0
  6
Continuous
 62
     7
370
    40
100
AcDbSpline
210
0.0
220
0.0
230
1.0
 70
     8
 71
     3
 72
    11
 73
     7
 74
     0
 42
0.00000001
 43
0.00000001
 12
1.0
 22
0.0
 32
0.0
 13
1.0
 23
0.0
 33
0.0
 40
0.0
 40
0.0
 40
0.0
 40
0.0
 40
0.323342834868323
 40
0.6293936902212399
 40
0.9183659725545547
 40
1.0
 40
1.0
 40
1.0
 40
1.0
 10
1330.46113443581
 20
1043.68280625918
 30
0.0
 10
1330.421201849771
 20
1041.403957041886
 30
0.0
 10
1330.343472223574
 20
1036.968128677498
 30
0.0
 10
1330.47233539924
 20
1030.570218019642
 30
0.0
 10
1330.651672165993
 20
1025.907928892579
 30
0.0
 10
1330.831657950791
 20
1023.445487030923
 30
0.0
 10
1330.871303699146
 20
1022.903081137626
 30
0.0
  0
SPLINE
  5
D2
330
1F
100
AcDbEntity
  8
0
  6
Continuous
 62
     7
370
    40
100
AcDbSpline
210
0.0
220
0.0
230
1.0
 70
     8
 71
     3
 72
    29
 73
    25
 74
     0
 42
0.00000001
 43
0.00000001
 12
1.0
 22
0.0
 32
0.0
 13
1.0
 23
0.0
 33
0.0
 40
0.0
 40
0.0
 40
0.0
 40
0.0
 40
0.0496606572429463
 40
0.0925519017743833
 40
0.1288679514709606
 40
0.1588622200054131
 40
0.1850998734409434
 40
0.209135585052192
 40
0.2319965245904467
 40
0.254692486906651
 40
0.3151434335360208
 40
0.3781951905177172
 40
0.4436619991735004
 40
0.4823980892687475
 40
0.5207890205801905
 40
0.5590120029285103
 40
0.5980383614853284
 40
0.6439745142265839
 40
0.6884510253761699
 40
0.738765747737641
 40
0.7953302882477594
 40
0.85776284410925
 40
0.9257003084042992
 40
1.0
 40
1.0
 40
1.0
 40
1.0
 10
1366.316673423009
 20
1349.442624395202
 30
0.0
 10
1365.346590110265
 20
1349.266096370593
 30
0.0
 10
1363.538658833102
 20
1348.937103455456
 30
0.0
 10
1360.926284090914
 20
1347.77782600108
 30
0.0
 10
1358.728876759705
 20
1346.406367979506
 30
0.0
 10
1356.826997804731
 20
1344.844420155074
 30
0.0
 10
1355.387282430484
 20
1343.356688879029
 30
0.0
 10
1354.336188441806
 20
1342.082074729078
 30
0.0
 10
1353.512659506811
 20
1340.97181186854
 30
0.0
 10
1352.279983130046
 20
1339.149296367498
 30
0.0
 10
1350.747667182817
 20
1336.476321638519
 30
0.0
 10
1348.996130509493
 20
1332.751315797047
 30
0.0
 10
1347.593186101989
 20
1329.186096285075
 30
0.0
 10
1346.443510004731
 20
1325.843771137772
 30
0.0
 10
1345.552497960359
 20
1322.983613760871
 30
0.0
 10
1344.698769707521
 20
1319.966533980131
 30
0.0
 10
1343.836319282522
 20
1316.602967803067
 30
0.0
 10
1342.985630028544
 20
1312.899744995167
 30
0.0
 10
1342.127945408483
 20
1308.687865522829
 30
0.0
 10
1341.287908022044
 20
1303.965705206774
 30
0.0
 10
1340.458964597683
 20
1298.474554561981
 30
0.0
 10
1339.695607814447
 20
1292.202987768202
 30
0.0
 10
1339.03320056763
 20
1285.156565163449
 30
0.0
 10
1338.767591033831
 20
1280.176744940333
 30
0.0
 10
1338.628845947693
 20
1277.575461861644
 30
0.0
  0
SPLINE
  5
D3
330
1F
100
AcDbEntity
  8
0
  6
Continuous
 62
     7
370
    40
100
AcDbSpline
210
0.0
220
0.0
230
1.0
 70
     8
 71
     3
 72
    27
 73
    23
 74
     0
 42
0.00000001
 43
0.00000001
 12
1.0
 22
0.0
 32
0.0
 13
1.0
 23
0.0
 33
0.0
 40
0.0
 40
0.0
 40
0.0
 40
0.0
 40
0.0497900719307092
 40
0.1061669424235615
 40
0.1623463072926979
 40
0.218235810815489
 40
0.2737587892963809
 40
0.3298492486895248
 40
0.3863106323974902
 40
0.4427497702673396
 40
0.4986916835841198
 40
0.5537283041713765
 40
0.6074550359778192
 40
0.6597291001247781
 40
0.7128492765313752
 40
0.764928004493815
 40
0.8157331220626415
 40
0.8648123630411808
 40
0.9066732634397929
 40
0.9460006691822966
 40
0.9827925599493147
 40
1.0
 40
1.0
 40
1.0
 40
1.0
 10
1363.60282013864
 20
1276.58525726358
 30
0.0
 10
1363.64947785746
 20
1277.802809626471
 30
0.0
 10
1363.748965710268
 20
1280.398986064791
 30
0.0
 10
1364.001385063527
 20
1284.345831991416
 30
0.0
 10
1364.335834178082
 20
1288.393528917501
 30
0.0
 10
1364.7496693668
 20
1292.347360103992
 30
0.0
 10
1365.236786255422
 20
1296.202501120181
 30
0.0
 10
1365.792755078018
 20
1299.954157082787
 30
0.0
 10
1366.413077535388
 20
1303.587324438382
 30
0.0
 10
1367.087490351343
 20
1307.056744453192
 30
0.0
 10
1367.802847655554
 20
1310.31466874275
 30
0.0
 10
1368.544475035916
 20
1313.31899393177
 30
0.0
 10
1369.295209561777
 20
1316.028664359335
 30
0.0
 10
1370.055548254696
 20
1318.477718489135
 30
0.0
 10
1370.810252563701
 20
1320.653311189593
 30
0.0
 10
1371.544961275139
 20
1322.539554483323
 30
0.0
 10
1372.228469434198
 20
1324.095114682665
 30
0.0
 10
1372.809995858037
 20
1325.260778936766
 30
0.0
 10
1373.270077019684
 20
1326.069418369154
 30
0.0
 10
1373.579387345402
 20
1326.549558541758
 30
0.0
 10
1373.750889860188
 20
1326.772340774605
 30
0.0
 10
1373.737452471759
 20
1326.756648474446
 30
0.0
 10
1373.733170510254
 20
1326.751647962214
 30
0.0
  0
LINE
  5
D4
330
1F
100
AcDbEntity
  8
0
  6
Continuous
 62
     7
370
    40
100
AcDbLine
 10
1360.1071461835
 20
1176.7468461565
 30
0.0
 11
1363.5936059041
 21
1276.5859897757
 31
0.0
  0
LINE
  5
D5
330
1F
100
AcDbEntity
  8
0
  6
Continuous
 62
     7
370
    40
100
AcDbLine
 10
1376.0185961853
 20
1124.7720103983
 30
0.0
 11
1382.977132584
 21
1324.0384211893
 31
0.0
  0
ARC
  5
D6
330
1F
100
AcDbEntity
  8
0
  6
Continuous
 62
     7
370
    40
100
AcDbCircle
 10
1384.9124625333
 20
1336.478457282
 30
0.0
 40
12.50000000000013
100
AcDbArc
 50
268.0
 51
358.0
  0
ARC
  5
D7
330
1F
100
AcDbEntity
  8
0
  6
Continuous
 62
     7
370
    40
100
AcDbCircle
 10
1384.9124625333
 20
1336.478457282
 30
0.0
 40
12.50000000000013
100
AcDbArc
 50
358.0
 51
88.0
  0
SPLINE
  5
D8
330
1F
100
AcDbEntity
  8
0
  6
Continuous
 62
     7
370
    40
100
AcDbSpline
210
0.0
220
0.0
230
1.0
 70
     8
 71
     3
 72
     9
 73
     5
 74
     0
 42
0.00000001
 43
0.00000001
 12
1.0
 22
0.0
 32
0.0
 13
1.0
 23
0.0
 33
0.0
 40
0.0
 40
0.0
 40
0.0
 40
0.0
 40
0.0310599199544918
 40
1.0
 40
1.0
 40
1.0
 40
1.0
 10
1368.688736106128
 20
1349.549973875276
 30
0.0
 10
1368.666105459541
 20
1349.552255648076
 30
0.0
 10
1367.937492938325
 20
1349.625719224394
 30
0.0
 10
1367.214640344897
 20
1349.543670959573
 30
0.0
 10
1366.51423949516
 20
1349.46417110729
 30
0.0
  0
SPLINE
  5
D9
330
1F
100
AcDbEntity
  8
0
  6
Continuous
 62
     7
370
    40
100
AcDbSpline
210
0.0
220
0.0
230
1.0
 70
     8
 71
     3
 72
    10
 73
     6
 74
     0
 42
0.00000001
 43
0.00000001
 12
1.0
 22
0.0
 32
0.0
 13
1.0
 23
0.0
 33
0.0
 40
0.0
 40
0.0
 40
0.0
 40
0.0
 40
0.3331141905429714
 40
0.6665358543649262
 40
1.0
 40
1.0
 40
1.0
 40
1.0
 10
1355.139286651718
 20
1023.849303767923
 30
0.0
 10
1355.039872855811
 20
1025.918818576945
 30
0.0
 10
1354.840953502411
 20
1030.059758412332
 30
0.0
 10
1354.771597689641
 20
1036.47508846868
 30
0.0
 10
1354.883095782532
 20
1040.788743967798
 30
0.0
 10
1354.938848380291
 20
1042.945709111124
 30
0.0
  0
SPLINE
  5
DA
330
1F
100
AcDbEntity
  8
0
  6
Continuous
 62
     7
370
    40
100
AcDbSpline
210
0.0
220
0.0
230
1.0
 70
     8
 71
     3
 72
    16
 73
    12
 74
     0
 42
0.00000001
 43
0.00000001
 12
1.0
 22
0.0
 32
0.0
 13
1.0
 23
0.0
 33
0.0
 40
0.0
 40
0.0
 40
0.0
 40
0.0
 40
0.087100776197389
 40
0.1746753025780805
 40
0.2559951737248691
 40
0.3598701449787362
 40
0.4383492984920303
 40
0.5170064138278935
 40
0.6671894258120273
 40
0.8178363779646448
 40
0.9999999999999999
 40
0.9999999999999999
 40
0.9999999999999999
 40
0.9999999999999999
 10
1341.239317414395
 20
1004.698929097392
 30
0.0
 10
1342.004501259016
 20
1004.388223761899
 30
0.0
 10
1343.539030862794
 20
1003.765123132269
 30
0.0
 10
1346.020949199899
 20
1003.839937514419
 30
0.0
 10
1348.440924083241
 20
1004.803179736693
 30
0.0
 10
1350.334968767117
 20
1006.480385122218
 30
0.0
 10
1351.748078157094
 20
1008.497765587327
 30
0.0
 10
1353.033333042822
 20
1011.095852303174
 30
0.0
 10
1354.083831787166
 20
1014.525938429058
 30
0.0
 10
1354.830123977599
 20
1019.014222406805
 30
0.0
 10
1355.029918890945
 20
1022.138914238468
 30
0.0
 10
1355.139276489236
 20
1023.849212005265
 30
0.0
  0
SPLINE
  5
DB
330
1F
100
AcDbEntity
  8
0
  6
Continuous
 62
     7
370
    40
100
AcDbSpline
210
0.0
220
0.0
230
1.0
 70
     8
 71
     3
 72
    19
 73
    15
 74
     0
 42
0.00000001
 43
0.00000001
 12
1.0
 22
0.0
 32
0.0
 13
1.0
 23
0.0
 33
0.0
 40
0.0
 40
0.0
 40
0.0
 40
0.0
 40
0.0827348267038218
 40
0.1651055676528602
 40
0.2482434519015704
 40
0.330879614178979
 40
0.4138548546372859
 40
0.4972945486414315
 40
0.5803156985204214
 40
0.6641661333886882
 40
0.7476830971574221
 40
0.8312980283551868
 40
0.9156660952522083
 40
1.0
 40
1.0
 40
1.0
 40
1.0
 10
1363.098350709334
 20
1276.603284468188
 30
0.0
 10
1363.219216713587
 20
1279.249093873088
 30
0.0
 10
1363.46041683495
 20
1284.529069442036
 30
0.0
 10
1364.187514986566
 20
1292.314441545192
 30
0.0
 10
1365.160149146814
 20
1299.810851490637
 30
0.0
 10
1366.381372804886
 20
1306.906014223482
 30
0.0
 10
1367.808836093384
 20
1313.469872769529
 30
0.0
 10
1369.406573082369
 20
1319.389918060722
 30
0.0
 10
1371.134301602831
 20
1324.576857666872
 30
0.0
 10
1372.942141459273
 20
1328.925172659109
 30
0.0
 10
1374.78938469021
 20
1332.37741221126
 30
0.0
 10
1376.629533796904
 20
1334.853187769958
 30
0.0
 10
1378.4350365747
 20
1336.403709551136
 30
0.0
 10
1379.564610770544
 20
1336.564907114225
 30
0.0
 10
1380.129283499079
 20
1336.645489574517
 30
0.0
  0
LINE
  5
DC
330
1F
100
AcDbEntity
  8
0
  6
Continuous
 62
     7
370
    40
100
AcDbLine
 10
1330.5118825098
 20
1043.6949039331
 30
0.0
 11
1330.5164990681
 21
1043.681357111
 31
0.0
  0
LINE
  5
DD
330
1F
100
AcDbEntity
  8
0
  6
Continuous
 62
     7
370
    40
100
AcDbLine
 10
1338.678879305
 20
1277.5604544847
 30
0.0
 11
1338.6841765725
 21
1277.5730448925
 31
0.0
  0
ELLIPSE
  5
DE
330
1F
100
AcDbEntity
  8
0
  6
Continuous
 62
     7
370
    40
100
AcDbEllipse
 10
1557.1963230863
 20
1037.7838805931
 30
0.0
 11
255.1636154091307
 21
-8.910509796381575
 31
0.0
210
0.0
220
0.0
230
1.0
 40
0.29375
 41
3.713325654845184
 42
3.713640632423538
  0
SPLINE
  5
DF
330
1F
100
AcDbEntity
  8
0
  6
Continuous
 62
     7
370
    40
100
AcDbSpline
210
0.0
220
0.0
230
1.0
 70
     8
 71
     3
 72
    14
 73
    10
 74
     0
 42
0.00000001
 43
0.00000001
 12
1.0
 22
0.0
 32
0.0
 13
1.0
 23
0.0
 33
0.0
 40
0.0
 40
0.0
 40
0.0
 40
0.0
 40
0.2231005893547256
 40
0.4028091174529524
 40
0.584882722211938
 40
0.698336555906963
 40
0.8136147846333349
 40
0.9054834800158181
 40
1.0
 40
1.0
 40
1.0
 40
1.0
 10
1331.395629913799
 20
1023.391948153556
 30
0.0
 10
1331.68253323448
 20
1021.794849377747
 30
0.0
 10
1332.20053847029
 20
1018.91128035523
 30
0.0
 10
1333.44609422857
 20
1014.837904644135
 30
0.0
 10
1334.824580416802
 20
1011.659561012937
 30
0.0
 10
1336.367441227093
 20
1009.094907017994
 30
0.0
 10
1337.826127475238
 20
1007.27111985473
 30
0.0
 10
1339.427380732017
 20
1005.75165188296
 30
0.0
 10
1340.601230587115
 20
1005.067342891253
 30
0.0
 10
1341.196493484279
 20
1004.720327682118
 30
0.0
  0
LINE
  5
E0
330
1F
100
AcDbEntity
  8
0
  6
Continuous
 62
     7
370
    40
100
AcDbLine
 10
1366.317942792
 20
1349.4042913393
 30
0.0
 11
1366.5171683029
 21
1349.4178432519
 31
0.0
  0
SPLINE
  5
E1
330
1F
100
AcDbEntity
  8
0
  6
Continuous
 62
     7
370
    40
100
AcDbSpline
210
0.0
220
0.0
230
1.0
 70
     8
 71
     3
 72
     9
 73
     5
 74
     0
 42
0.00000001
 43
0.00000001
 12
1.0
 22
0.0
 32
0.0
 13
1.0
 23
0.0
 33
0.0
 40
0.0
 40
0.0
 40
0.0
 40
0.0
 40
0.3275965949993535
 40
0.9999999999999999
 40
0.9999999999999999
 40
0.9999999999999999
 40
0.9999999999999999
 10
1355.13928232072
 20
1023.849378993768
 30
0.0
 10
1355.174942618241
 20
1025.932753968184
 30
0.0
 10
1355.283796916686
 20
1032.292328537085
 30
0.0
 10
1355.368225979951
 20
1038.652279659142
 30
0.0
 10
1355.424996369571
 20
1042.928732449251
 30
0.0
  0
LINE
  5
E2
330
1F
100
AcDbEntity
  8
0
  6
Continuous
 62
     7
370
    40
100
AcDbLine
 10
1355.4249963696
 20
1042.9287324493
 30
0.0
 11
1360.098038978
 21
1176.7471641871
 31
0.0
  0
LINE
  5
E3
330
1F
100
AcDbEntity
  8
0
  6
Continuous
 62
     7
370
    40
100
AcDbLine
 10
1360.098038978
 20
1176.7471641871
 30
0.0
 11
1363.0268450751
 21
1176.6448880245
 31
0.0
  0
ARC
  5
E4
330
1F
100
AcDbEntity
  8
0
  6
Continuous
 62
     7
370
    40
100
AcDbCircle
 10
399.8306501876
 20
907.84553878
 30
0.0
 40
1000.0
100
AcDbArc
 50
0.219283483
 51
15.5928336287
  0
ARC
  5
E5
330
1F
100
AcDbEntity
  8
0
  6
Continuous
 62
     7
370
    40
100
AcDbCircle
 10
1361.773605065
 20
911.5271228908
 30
0.0
 40
38.04999999999993
100
AcDbArc
 50
0.219283483
 51
61.1737931362
  0
LINE
  5
E6
330
1F
100
AcDbEntity
  8
0
  6
Continuous
 62
     7
370
    40
100
AcDbLine
 10
1325.6703387183
 20
967.9384460816
 30
0.0
 11
1327.4792852693
 21
1019.73989769
 31
0.0
  0
LINE
  5
E7
330
1F
100
AcDbEntity
  8
0
  6
Continuous
 62
     7
370
    40
100
AcDbLine
 10
1327.4792852693
 20
1019.73989769
 30
0.0
 11
1331.3956299138
 21
1023.3919481536
 31
0.0
  0
LINE
  5
E8
330
1F
100
AcDbEntity
  8
0
  6
Continuous
 62
     7
370
    40
100
AcDbLine
 10
1372.5165938057
 20
1324.4037112528
 30
0.0
 11
1384.4762188245
 21
1323.9860719443
 31
0.0
  0
LINE
  5
E9
330
1F
100
AcDbEntity
  8
0
  6
Continuous
 62
     7
370
    40
100
AcDbLine
 10
1385.3487062421
 20
1348.9708426198
 30
0.0
 11
1368.7279728672
 21
1349.5512514187
 31
0.0
  0
LWPOLYLINE
  5
EA
330
1F
100
AcDbEntity
  8
0
  6
Continuous
 62
     7
370
    40
100
AcDbPolyline
 90
        3
 70
   128
 43
0.0
 10
1368.7279728672
 20
1349.5512514187
 10
1366.5971616474
 20
1349.4356421445
 10
1366.4119721254
 20
1349.4074539947
  0
LINE
  5
EB
330
1F
100
AcDbEntity
  8
0
  6
Continuous
 62
     7
370
    40
100
AcDbLine
 10
1298.773605065
 20
671.5271228908
 30
0.0
 11
1298.773605065
 21
971.5271228908
 31
0.0
  0
LINE
  5
EC
330
1F
100
AcDbEntity
  8
0
  6
Continuous
 62
     7
370
    40
100
AcDbLine
 10
1304.773605065
 20
671.5271228908
 30
0.0
 11
1298.773605065
 21
671.5271228908
 31
0.0
  0
LINE
  5
ED
330
1F
100
AcDbEntity
  8
0
  6
Continuous
 62
     7
370
    40
100
AcDbLine
 10
1298.773605065
 20
971.5271228908
 30
0.0
 11
1304.773605065
 21
971.5271228908
 31
0.0
  0
ARC
  5
EE
330
1F
100
AcDbEntity
  8
0
  6
Continuous
 62
     7
370
    40
100
AcDbCircle
 10
1275.7097992265
 20
774.2790944001
 30
0.0
 40
200.0
100
AcDbArc
 50
57.9095036079
 51
80.4842319814
  0
ARC
  5
EF
330
1F
100
AcDbEntity
  8
0
  6
Continuous
 62
     7
370
    40
100
AcDbCircle
 10
1361.773605065
 20
911.5271228908
 30
0.0
 40
38.00000000000003
100
AcDbArc
 50
316.626364565
 51
57.9095036079
  0
ARC
  5
F0
330
1F
100
AcDbEntity
  8
0
  6
Continuous
 62
     7
370
    40
100
AcDbCircle
 10
1534.773605065
 20
748.0798836973
 30
0.0
 40
200.0
100
AcDbArc
 50
136.626364565
 51
180.0
  0
LINE
  5
F1
330
1F
100
AcDbEntity
  8
0
  6
Continuous
 62
     7
370
    40
100
AcDbLine
 10
1334.773605065
 20
748.0798836973
 30
0.0
 11
1334.773605065
 21
681.5271228908
 31
0.0
  0
ARC
  5
F2
330
1F
100
AcDbEntity
  8
0
  6
Continuous
 62
     7
370
    40
100
AcDbCircle
 10
1324.773605065
 20
681.5271228908
 30
0.0
 40
10.0
100
AcDbArc
 50
270.0
 51
0.0
  0
LINE
  5
F3
330
1F
100
AcDbEntity
  8
0
  6
Continuous
 62
     7
370
    40
100
AcDbLine
 10
1324.773605065
 20
671.5271228908
 30
0.0
 11
1304.773605065
 21
671.5271228908
 31
0.0
  0
LINE
  5
F4
330
1F
100
AcDbEntity
  8
0
  6
Continuous
 62
     7
370
    40
100
AcDbLine
 10
1304.773605065
 20
971.5271228908
 30
0.0
 11
1308.773605065
 21
971.5271228908
 31
0.0
  0
LINE
  5
F5
330
1F
100
AcDbEntity
  8
0
  6
Continuous
 62
     7
370
    40
100
AcDbLine
 10
1734.6003323226
 20
947.4427314042
 30
0.0
 11
1732.5969057975
 21
947.4182744059
 31
0.0
  0
LINE
  5
F6
330
1F
100
AcDbEntity
  8
0
  6
Continuous
 62
     7
370
    40
100
AcDbLine
 10
1966.6056611256
 20
947.423667959
 30
0.0
 11
1964.6014402227
 21
947.4330578954
 31
0.0
  0
LINE
  5
F7
330
1F
100
AcDbEntity
  8
0
  6
Continuous
 62
     7
370
    40
100
AcDbLine
 10
1964.601105065
 20
947.4486014682
 30
0.0
 11
1734.601105065
 21
947.4486014682
 31
0.0
  0
SPLINE
  5
F8
330
1F
100
AcDbEntity
  8
0
  6
Continuous
 62
     7
370
    40
100
AcDbSpline
210
0.0
220
0.0
230
1.0
 70
     8
 71
     3
 72
    11
 73
     7
 74
     0
 42
0.00000001
 43
0.00000001
 12
1.0
 22
0.0
 32
0.0
 13
1.0
 23
0.0
 33
0.0
 40
0.0
 40
0.0
 40
0.0
 40
0.0
 40
0.3233428348683278
 40
0.6293936902212431
 40
0.9183659725545565
 40
0.9999999999999999
 40
0.9999999999999999
 40
0.9999999999999999
 40
0.9999999999999999
 10
1732.583493296348
 20
947.4326856449234
 30
0.0
 10
1730.30463866527
 20
947.3930632143662
 30
0.0
 10
1725.868799762837
 20
947.3159373123989
 30
0.0
 10
1719.479283799262
 20
946.9638687747905
 30
0.0
 10
1714.826093575664
 20
946.6219297111347
 30
0.0
 10
1712.371433180361
 20
946.3561155871824
 30
0.0
 10
1711.830741322742
 20
946.2975642972622
 30
0.0
  0
SPLINE
  5
F9
330
1F
100
AcDbEntity
  8
0
  6
Continuous
 62
     7
370
    40
100
AcDbSpline
210
0.0
220
0.0
230
1.0
 70
     8
 71
     3
 72
    29
 73
    25
 74
     0
 42
0.00000001
 43
0.00000001
 12
1.0
 22
0.0
 32
0.0
 13
1.0
 23
0.0
 33
0.0
 40
0.0
 40
0.0
 40
0.0
 40
0.0
 40
0.0496606572429389
 40
0.0925519017743722
 40
0.1288679514709492
 40
0.1588622200054046
 40
0.1850998734409376
 40
0.2091355850521882
 40
0.2319965245904423
 40
0.2546924869066458
 40
0.3151434335360153
 40
0.3781951905177126
 40
0.4436619991734964
 40
0.4823980892687439
 40
0.5207890205801872
 40
0.5590120029285074
 40
0.5980383614853252
 40
0.6439745142265805
 40
0.6884510253761685
 40
0.73876574773764
 40
0.79533028824776
 40
0.8577628441092502
 40
0.9257003084042992
 40
1.0
 40
1.0
 40
1.0
 40
1.0
 10
2039.408391077165
 20
922.2698526480867
 30
0.0
 10
2039.198115169286
 20
923.233184273074
 30
0.0
 10
2038.806226776097
 20
925.0285325201944
 30
0.0
 10
2037.556484958524
 20
927.5988576745762
 30
0.0
 10
2036.109173982211
 20
929.7470632099097
 30
0.0
 10
2034.481803035873
 20
931.5932723986626
 30
0.0
 10
2032.944732703568
 20
932.9801896644417
 30
0.0
 10
2031.634212362927
 20
933.986159962738
 30
0.0
 10
2030.495885099174
 20
934.7704396111163
 30
0.0
 10
2028.631460040187
 20
935.9387602010194
 30
0.0
 10
2025.906636559843
 20
937.3768572300348
 30
0.0
 10
2022.122772142929
 20
938.9973260854619
 30
0.0
 10
2018.510762412632
 20
940.2749914905369
 30
0.0
 10
2015.130350202337
 20
941.3073217707223
 30
0.0
 10
2012.240839284126
 20
942.0979729816878
 30
0.0
 10
2009.195802740525
 20
942.8458866004825
 30
0.0
 10
2005.804186471333
 20
943.5904248772798
 30
0.0
 10
2002.073530939895
 20
944.3113553021759
 30
0.0
 10
1997.834284469161
 20
945.021524970184
 30
0.0
 10
1993.085683883584
 20
945.6962496101658
 30
0.0
 10
1987.568948591093
 20
946.3330496707689
 30
0.0
 10
1981.274561498813
 20
946.8770669130391
 30
0.0
 10
1974.209313704797
 20
947.2931540368003
 30
0.0
 10
1969.223257414562
 20
947.384808548992
 30
0.0
 10
1966.618716833563
 20
947.4326856451456
 30
0.0
  0
SPLINE
  5
FA
330
1F
100
AcDbEntity
  8
0
  6
Continuous
 62
     7
370
    40
100
AcDbSpline
210
0.0
220
0.0
230
1.0
 70
     8
 71
     3
 72
    27
 73
    23
 74
     0
 42
0.00000001
 43
0.00000001
 12
1.0
 22
0.0
 32
0.0
 13
1.0
 23
0.0
 33
0.0
 40
0.0
 40
0.0
 40
0.0
 40
0.0
 40
0.0497900719307417
 40
0.1061669424235844
 40
0.1623463072927247
 40
0.2182358108155097
 40
0.2737587892964004
 40
0.3298492486895391
 40
0.3863106323974984
 40
0.4427497702673353
 40
0.4986916835841165
 40
0.5537283041713739
 40
0.6074550359778121
 40
0.6597291001247646
 40
0.7128492765313507
 40
0.7649280044937947
 40
0.8157331220626282
 40
0.8648123630411668
 40
0.9066732634397695
 40
0.9460006691822784
 40
0.9827925599492973
 40
1.0
 40
1.0
 40
1.0
 40
1.0
 10
1966.500694571311
 20
922.439367282396
 30
0.0
 10
1967.719133565105
 20
922.4352299508718
 30
0.0
 10
1970.317200558876
 20
922.4264079544236
 30
0.0
 10
1974.270451481991
 20
922.3118853046159
 30
0.0
 10
1978.327354766244
 20
922.1189025129501
 30
0.0
 10
1982.293220025408
 20
921.8433061399023
 30
0.0
 10
1986.163012728101
 20
921.4910284709104
 30
0.0
 10
1989.931786315351
 20
921.066329234395
 30
0.0
 10
1993.584389385113
 20
920.5731803728517
 30
0.0
 10
1997.075232590836
 20
920.0202594033289
 30
0.0
 10
2000.356137850823
 20
919.4190377934596
 30
0.0
 10
2003.384515308428
 20
918.782711629487
 30
0.0
 10
2006.118735335091
 20
918.1270005649665
 30
0.0
 10
2008.592833004992
 20
917.4525958063624
 30
0.0
 10
2010.793439193702
 20
916.7742783331065
 30
0.0
 10
2012.704174403235
 20
916.1058461279753
 30
0.0
 10
2014.282641088077
 20
915.4770426116654
 30
0.0
 10
2015.467890230521
 20
914.9365515338038
 30
0.0
 10
2016.292093662598
 20
914.5049717503738
 30
0.0
 10
2016.782736121475
 20
914.212606498519
 30
0.0
 10
2017.011367992855
 20
914.0489834462323
 30
0.0
 10
2016.995216293928
 20
914.0618649955901
 30
0.0
 10
2016.990069389572
 20
914.0659698332794
 30
0.0
  0
LINE
  5
FB
330
1F
100
AcDbEntity
  8
0
  6
Continuous
 62
     7
370
    40
100
AcDbLine
 10
1866.601105065
 20
922.4486014682
 30
0.0
 11
1966.501105065
 21
922.4486014682
 31
0.0
  0
LINE
  5
FC
330
1F
100
AcDbEntity
  8
0
  6
Continuous
 62
     7
370
    40
100
AcDbLine
 10
1815.2132325693
 20
904.7329486827
 30
0.0
 11
2014.601105065
 21
904.7329486827
 31
0.0
  0
ARC
  5
FD
330
1F
100
AcDbEntity
  8
0
  6
Continuous
 62
     7
370
    40
100
AcDbCircle
 10
2027.101105065
 20
903.2329486827
 30
0.0
 40
12.5
100
AcDbArc
 50
180.0
 51
270.0
  0
ARC
  5
FE
330
1F
100
AcDbEntity
  8
0
  6
Continuous
 62
     7
370
    40
100
AcDbCircle
 10
2027.101105065
 20
903.2329486827
 30
0.0
 40
12.5
100
AcDbArc
 50
270.0
 51
360.0
  0
SPLINE
  5
FF
330
1F
100
AcDbEntity
  8
0
  6
Continuous
 62
     7
370
    40
100
AcDbSpline
210
0.0
220
0.0
230
1.0
 70
     8
 71
     3
 72
     9
 73
     5
 74
     0
 42
0.00000001
 43
0.00000001
 12
1.0
 22
0.0
 32
0.0
 13
1.0
 23
0.0
 33
0.0
 40
0.0
 40
0.0
 40
0.0
 40
0.0
 40
0.0310599199545991
 40
1.0
 40
1.0
 40
1.0
 40
1.0
 10
2039.598458956625
 20
919.902981404287
 30
0.0
 10
2039.599949541255
 20
919.9256778976177
 30
0.0
 10
2039.647940155265
 20
920.6564104096122
 30
0.0
 10
2039.540714680329
 20
921.3759592176235
 30
0.0
 10
2039.436819620062
 20
922.0731588972544
 30
0.0
  0
SPLINE
  5
100
330
1F
100
AcDbEntity
  8
0
  6
Continuous
 62
     7
370
    40
100
AcDbSpline
210
0.0
220
0.0
230
1.0
 70
     8
 71
     3
 72
    10
 73
     6
 74
     0
 42
0.00000001
 43
0.00000001
 12
1.0
 22
0.0
 32
0.0
 13
1.0
 23
0.0
 33
0.0
 40
0.0
 40
0.0
 40
0.0
 40
0.0
 40
0.3331141905429668
 40
0.6665358543649255
 40
1.0
 40
1.0
 40
1.0
 40
1.0
 10
1713.623327930809
 20
922.0773874377713
 30
0.0
 10
1715.688112555883
 20
922.248965698734
 30
0.0
 10
1719.819587657288
 20
922.5922805919685
 30
0.0
 10
1726.228589184943
 20
922.885485945198
 30
0.0
 10
1730.543508149007
 20
922.9246001797999
 30
0.0
 10
1732.701105065049
 20
922.9441585429239
 30
0.0
  0
SPLINE
  5
101
330
1F
100
AcDbEntity
  8
0
  6
Continuous
 62
     7
370
    40
100
AcDbSpline
210
0.0
220
0.0
230
1.0
 70
     8
 71
     3
 72
    16
 73
    12
 74
     0
 42
0.00000001
 43
0.00000001
 12
1.0
 22
0.0
 32
0.0
 13
1.0
 23
0.0
 33
0.0
 40
0.0
 40
0.0
 40
0.0
 40
0.0
 40
0.0871007761973893
 40
0.1746753025780815
 40
0.2559951737248691
 40
0.3598701449787394
 40
0.438349298492034
 40
0.5170064138278946
 40
0.6671894258120299
 40
0.8178363779646494
 40
1.0
 40
1.0
 40
1.0
 40
1.0
 10
1693.999517220538
 20
935.3005507517341
 30
0.0
 10
1693.715705689403
 20
934.5249895766055
 30
0.0
 10
1693.146538946687
 20
932.9696488684314
 30
0.0
 10
1693.307925454759
 20
930.4918534332007
 30
0.0
 10
1694.355036801358
 20
928.106969401932
 30
0.0
 10
1696.097321684879
 20
926.2726121427239
 30
0.0
 10
1698.162790022811
 20
924.9307691436965
 30
0.0
 10
1700.804148803076
 20
923.7369691192906
 30
0.0
 10
1704.268807290634
 20
922.8068185898372
 30
0.0
 10
1708.78040234889
 20
922.2176198723239
 30
0.0
 10
1711.910163444635
 20
922.126996840917
 30
0.0
 10
1713.623235869384
 20
922.0773943915922
 30
0.0
  0
SPLINE
  5
102
330
1F
100
AcDbEntity
  8
0
  6
Continuous
 62
     7
370
    40
100
AcDbSpline
210
0.0
220
0.0
230
1.0
 70
     8
 71
     3
 72
    19
 73
    15
 74
     0
 42
0.00000001
 43
0.00000001
 12
1.0
 22
0.0
 32
0.0
 13
1.0
 23
0.0
 33
0.0
 40
0.0
 40
0.0
 40
0.0
 40
0.0
 40
0.0827348267038217
 40
0.1651055676528596
 40
0.2482434519015702
 40
0.3308796141789794
 40
0.4138548546372863
 40
0.4972945486414323
 40
0.5803156985204221
 40
0.6641661333886887
 40
0.7476830971574224
 40
0.8312980283551873
 40
0.9156660952522085
 40
0.9999999999999999
 40
0.9999999999999999
 40
0.9999999999999999
 40
0.9999999999999999
 10
1966.501105065049
 20
922.9441585429239
 30
0.0
 10
1969.149520877064
 20
922.9157035835776
 30
0.0
 10
1974.434697790396
 20
922.8589188847685
 30
0.0
 10
1982.240702614764
 20
922.4039692297424
 30
0.0
 10
1989.766490392485
 20
921.6935485061173
 30
0.0
 10
1996.899951034926
 20
920.7206863928998
 30
0.0
 10
2003.509628806026
 20
919.5231680361519
 30
0.0
 10
2009.481827982361
 20
918.13301094649
 30
0.0
 10
2014.725904700852
 20
916.5873564932418
 30
0.0
 10
2019.134663518191
 20
914.9323719287272
 30
0.0
 10
2022.64926791833
 20
913.2067354113226
 30
0.0
 10
2025.187755579132
 20
911.4541105946913
 30
0.0
 10
2026.800343962575
 20
909.7038201101947
 30
0.0
 10
2027.000864899388
 20
908.5805597342517
 30
0.0
 10
2027.10110506505
 20
908.0190432763932
 30
0.0
  0
LINE
  5
103
330
1F
100
AcDbEntity
  8
0
  6
Continuous
 62
     7
370
    40
100
AcDbLine
 10
1732.597354683
 20
947.3823906881
 30
0.0
 11
1732.5839772287
 21
947.3773041647
 31
0.0
  0
LINE
  5
104
330
1F
100
AcDbEntity
  8
0
  6
Continuous
 62
     7
370
    40
100
AcDbLine
 10
1966.6054647377
 20
947.3821590169
 30
0.0
 11
1966.6182323477
 21
947.3773043753
 31
0.0
  0
ELLIPSE
  5
105
330
1F
100
AcDbEntity
  8
0
  6
Continuous
 62
     7
370
    40
100
AcDbEllipse
 10
1734.601105065
 20
720.6297484083
 30
0.0
 11
0.0
 21
-255.31914893617
 31
0.0
210
0.0
220
0.0
230
1.0
 40
0.29375
 41
3.713325654845177
 42
3.71364063242353
  0
SPLINE
  5
106
330
1F
100
AcDbEntity
  8
0
  6
Continuous
 62
     7
370
    40
100
AcDbSpline
210
0.0
220
0.0
230
1.0
 70
     8
 71
     3
 72
    14
 73
    10
 74
     0
 42
0.00000001
 43
0.00000001
 12
1.0
 22
0.0
 32
0.0
 13
1.0
 23
0.0
 33
0.0
 40
0.0
 40
0.0
 40
0.0
 40
0.0
 40
0.2231005893547261
 40
0.4028091174529501
 40
0.5848827222119398
 40
0.6983365559069652
 40
0.8136147846333377
 40
0.9054834800158187
 40
1.0
 40
1.0
 40
1.0
 40
1.0
 10
1712.337609255094
 20
945.7906187007824
 30
0.0
 10
1710.751496170201
 20
945.4481522103923
 30
0.0
 10
1707.887761862041
 20
944.8298274217838
 30
0.0
 10
1703.860336810448
 20
943.4428716602208
 30
0.0
 10
1700.732037814495
 20
941.9543026154528
 30
0.0
 10
1698.222791203233
 20
940.3228765406406
 30
0.0
 10
1696.451022457738
 20
938.8014296306553
 30
0.0
 10
1694.988363037557
 20
937.1481231466255
 30
0.0
 10
1694.345437677545
 20
935.9511063297437
 30
0.0
 10
1694.019408236216
 20
935.3440953945058
 30
0.0
  0
LINE
  5
107
330
1F
100
AcDbEntity
  8
0
  6
Continuous
 62
     7
370
    40
100
AcDbLine
 10
2039.3701256731
 20
922.267246248
 30
0.0
 11
2039.3906222002
 21
922.0686150548
 31
0.0
  0
SPLINE
  5
108
330
1F
100
AcDbEntity
  8
0
  6
Continuous
 62
     7
370
    40
100
AcDbSpline
210
0.0
220
0.0
230
1.0
 70
     8
 71
     3
 72
     9
 73
     5
 74
     0
 42
0.00000001
 43
0.00000001
 12
1.0
 22
0.0
 32
0.0
 13
1.0
 23
0.0
 33
0.0
 40
0.0
 40
0.0
 40
0.0
 40
0.0
 40
0.3275965949993558
 40
1.0
 40
1.0
 40
1.0
 40
1.0
 10
1713.623402959678
 20
922.0773943914757
 30
0.0
 10
1715.706753324787
 20
922.1144645552934
 30
0.0
 10
1722.06625277292
 20
922.2276225196429
 30
0.0
 10
1728.425276116409
 20
922.3652039814946
 30
0.0
 10
1732.701105065049
 20
922.4577142249088
 30
0.0
  0
LINE
  5
109
330
1F
100
AcDbEntity
  8
0
  6
Continuous
 62
     7
370
    40
100
AcDbLine
 10
1732.701105065
 20
922.4577142249
 30
0.0
 11
1866.601105065
 21
922.4577142249
 31
0.0
  0
LINE
  5
10A
330
1F
100
AcDbEntity
  8
0
  6
Continuous
 62
     7
370
    40
100
AcDbLine
 10
1866.601105065
 20
922.4577142249
 30
0.0
 11
1866.601105065
 21
919.5271228908
 31
0.0
  0
ARC
  5
10B
330
1F
100
AcDbEntity
  8
0
  6
Continuous
 62
     7
370
    40
100
AcDbCircle
 10
1564.3504386941
 20
1872.7556026785
 30
0.0
 40
1000.000000000001
100
AcDbArc
 50
273.1579923422
 51
287.5928336287
  0
ARC
  5
10C
330
1F
100
AcDbEntity
  8
0
  6
Continuous
 62
     7
370
    40
100
AcDbCircle
 10
1601.601105065
 20
911.5271228908
 30
0.0
 40
38.05
100
AcDbArc
 50
313.9336851927
 51
61.1737931362
  0
LINE
  5
10D
330
1F
100
AcDbEntity
  8
0
  6
Continuous
 62
     7
370
    40
100
AcDbLine
 10
1611.8212605455
 20
949.5771228908
 30
0.0
 11
1708.551105065
 21
949.5771228908
 31
0.0
  0
LINE
  5
10E
330
1F
100
AcDbEntity
  8
0
  6
Continuous
 62
     7
370
    40
100
AcDbLine
 10
1708.551105065
 20
949.5771228908
 30
0.0
 11
1712.3376092551
 21
945.7906187008
 31
0.0
  0
LINE
  5
10F
330
1F
100
AcDbEntity
  8
0
  6
Continuous
 62
     7
370
    40
100
AcDbLine
 10
2014.601105065
 20
915.1998636227
 30
0.0
 11
2014.601105065
 21
903.2329486827
 31
0.0
  0
LINE
  5
110
330
1F
100
AcDbEntity
  8
0
  6
Continuous
 62
     7
370
    40
100
AcDbLine
 10
2039.601105065
 20
903.2329486827
 30
0.0
 11
2039.601105065
 21
919.8638131308
 31
0.0
  0
LWPOLYLINE
  5
111
330
1F
100
AcDbEntity
  8
0
  6
Continuous
 62
     7
370
    40
100
AcDbPolyline
 90
        3
 70
   128
 43
0.0
 10
2039.601105065
 20
919.8638131308
 10
2039.4112019777
 20
921.9892916125
 10
2039.3765679782
 20
922.1733845698
  0
LINE
  5
112
330
1F
100
AcDbEntity
  8
0
  6
Continuous
 62
     7
370
    40
100
AcDbLine
 10
1538.601105065
 20
671.5271228908
 30
0.0
 11
1538.601105065
 21
971.5271228908
 31
0.0
  0
LINE
  5
113
330
1F
100
AcDbEntity
  8
0
  6
Continuous
 62
     7
370
    40
100
AcDbLine
 10
1544.601105065
 20
671.5271228908
 30
0.0
 11
1538.601105065
 21
671.5271228908
 31
0.0
  0
LINE
  5
114
330
1F
100
AcDbEntity
  8
0
  6
Continuous
 62
     7
370
    40
100
AcDbLine
 10
1538.601105065
 20
971.5271228908
 30
0.0
 11
1544.601105065
 21
971.5271228908
 31
0.0
  0
ARC
  5
115
330
1F
100
AcDbEntity
  8
0
  6
Continuous
 62
     7
370
    40
100
AcDbCircle
 10
1515.5372992265
 20
774.2790944001
 30
0.0
 40
200.0
100
AcDbArc
 50
57.9095036079
 51
80.4842319814
  0
ARC
  5
116
330
1F
100
AcDbEntity
  8
0
  6
Continuous
 62
     7
370
    40
100
AcDbCircle
 10
1601.601105065
 20
911.5271228908
 30
0.0
 40
38.00000000000003
100
AcDbArc
 50
316.626364565
 51
57.9095036079
  0
ARC
  5
117
330
1F
100
AcDbEntity
  8
0
  6
Continuous
 62
     7
370
    40
100
AcDbCircle
 10
1774.601105065
 20
748.0798836973
 30
0.0
 40
200.0000000000002
100
AcDbArc
 50
136.626364565
 51
180.0
  0
LINE
  5
118
330
1F
100
AcDbEntity
  8
0
  6
Continuous
 62
     7
370
    40
100
AcDbLine
 10
1574.601105065
 20
748.0798836973
 30
0.0
 11
1574.601105065
 21
681.5271228908
 31
0.0
  0
ARC
  5
119
330
1F
100
AcDbEntity
  8
0
  6
Continuous
 62
     7
370
    40
100
AcDbCircle
 10
1564.601105065
 20
681.5271228908
 30
0.0
 40
10.0
100
AcDbArc
 50
270.0
 51
0.0
  0
LINE
  5
11A
330
1F
100
AcDbEntity
  8
0
  6
Continuous
 62
     7
370
    40
100
AcDbLine
 10
1564.601105065
 20
671.5271228908
 30
0.0
 11
1544.601105065
 21
671.5271228908
 31
0.0
  0
LINE
  5
11B
330
1F
100
AcDbEntity
  8
0
  6
Continuous
 62
     7
370
    40
100
AcDbLine
 10
1544.601105065
 20
971.5271228908
 30
0.0
 11
1548.601105065
 21
971.5271228908
 31
0.0
  0
LINE
  5
11C
330
1F
100
AcDbEntity
  8
0
  6
Continuous
 62
     7
370
    40
100
AcDbLine
 10
657.6741502463
 20
873.5271228908
 30
0.0
 11
659.1741502463
 21
873.5271228908
 31
0.0
  0
LINE
  5
11D
330
1F
100
AcDbEntity
  8
0
  6
Continuous
 62
     7
370
    40
100
AcDbLine
 10
664.1741502463
 20
873.5271228908
 30
0.0
 11
742.8741502463
 21
873.5271228908
 31
0.0
  0
LINE
  5
11E
330
1F
100
AcDbEntity
  8
0
  6
Continuous
 62
     7
370
    40
100
AcDbLine
 10
742.8741502463
 20
949.5271228908
 30
0.0
 11
664.1741502463
 21
949.5271228908
 31
0.0
  0
LINE
  5
11F
330
1F
100
AcDbEntity
  8
0
  6
Continuous
 62
     7
370
    40
100
AcDbLine
 10
659.1741502463
 20
949.5271228908
 30
0.0
 11
657.6741502463
 21
949.5271228908
 31
0.0
  0
LINE
  5
120
330
1F
100
AcDbEntity
  8
0
  6
Continuous
 62
     7
370
    40
100
AcDbLine
 10
742.8741502463
 20
899.5271228908
 30
0.0
 11
744.8741502463
 21
899.5271228908
 31
0.0
  0
LINE
  5
121
330
1F
100
AcDbEntity
  8
0
  6
Continuous
 62
     7
370
    40
100
AcDbLine
 10
1107.6741502463
 20
949.5271228908
 30
0.0
 11
1106.1741502463
 21
949.5271228908
 31
0.0
  0
LINE
  5
122
330
1F
100
AcDbEntity
  8
0
  6
Continuous
 62
     7
370
    40
100
AcDbLine
 10
1101.1741502463
 20
949.5271228908
 30
0.0
 11
1022.4741502463
 21
949.5271228908
 31
0.0
  0
LINE
  5
123
330
1F
100
AcDbEntity
  8
0
  6
Continuous
 62
     7
370
    40
100
AcDbLine
 10
1022.4741502463
 20
873.5271228908
 30
0.0
 11
1101.1741502463
 21
873.5271228908
 31
0.0
  0
LINE
  5
124
330
1F
100
AcDbEntity
  8
0
  6
Continuous
 62
     7
370
    40
100
AcDbLine
 10
1106.1741502463
 20
873.5271228908
 30
0.0
 11
1107.6741502463
 21
873.5271228908
 31
0.0
  0
LINE
  5
125
330
1F
100
AcDbEntity
  8
0
  6
Continuous
 62
     7
370
    40
100
AcDbLine
 10
1020.4741502463
 20
899.5271228908
 30
0.0
 11
1022.4741502463
 21
899.5271228908
 31
0.0
  0
ARC
  5
126
330
1F
100
AcDbEntity
  8
0
  6
Continuous
 62
     7
370
    40
100
AcDbCircle
 10
882.6741502463
 20
1703.2329486827
 30
0.0
 40
812.5000000000009
100
AcDbArc
 50
258.1601177315
 51
258.2967819574
  0
ARC
  5
127
330
1F
100
AcDbEntity
  8
0
  6
Continuous
 62
     7
370
    40
100
AcDbCircle
 10
882.6741502463
 20
1703.2329486827
 30
0.0
 40
812.5000000000009
100
AcDbArc
 50
281.7032180426
 51
281.8398822685
  0
ARC
  5
128
330
1F
100
AcDbEntity
  8
0
  6
Continuous
 62
     7
370
    40
100
AcDbCircle
 10
882.6741502463
 20
1703.2329486827
 30
0.0
 40
787.5000000000009
100
AcDbArc
 50
281.7032180426
 51
281.8398822685
  0
ARC
  5
129
330
1F
100
AcDbEntity
  8
0
  6
Continuous
 62
     7
370
    40
100
AcDbCircle
 10
882.6741502463
 20
1703.2329486827
 30
0.0
 40
787.5000000000009
100
AcDbArc
 50
258.1601177315
 51
258.2967819574
  0
SPLINE
  5
12A
330
1F
100
AcDbEntity
  8
0
  6
Continuous
 62
     7
370
    40
100
AcDbSpline
210
0.0
220
0.0
230
1.0
 70
     8
 71
     3
 72
    19
 73
    15
 74
     0
 42
0.00000001
 43
0.00000001
 12
1.0
 22
0.0
 32
0.0
 13
1.0
 23
0.0
 33
0.0
 40
0.0
 40
0.0
 40
0.0
 40
0.0
 40
0.0843498470352449
 40
0.1682403883178715
 40
0.2527413273345648
 40
0.3364918263415835
 40
0.4202836203370148
 40
0.504232764649722
 40
0.587417189446791
 40
0.6710999437821846
 40
0.7541665566205219
 40
0.8370825382095034
 40
0.9205823080563214
 40
1.0
 40
1.0
 40
1.0
 40
1.0
 10
1049.38076273807
 20
908.0190432763934
 30
0.0
 10
1052.011292766607
 20
908.5784180907779
 30
0.0
 10
1057.258028937899
 20
909.6941217855097
 30
0.0
 10
1064.989655754449
 20
911.4399944477005
 30
0.0
 10
1072.431659792082
 20
913.1903073354225
 30
0.0
 10
1079.473401459195
 20
914.9167167921997
 30
0.0
 10
1085.988135721679
 20
916.5732641693745
 30
0.0
 10
1091.866569537175
 20
918.1178921704218
 30
0.0
 10
1097.022682371682
 20
919.511681015031
 30
0.0
 10
1101.354059384499
 20
920.7108748816185
 30
0.0
 10
1104.806590071662
 20
921.6854196399555
 30
0.0
 10
1107.298382278629
 20
922.3989780769094
 30
0.0
 10
1108.865847526381
 20
922.8523939325721
 30
0.0
 10
1109.061839807694
 20
922.9093522792815
 30
0.0
 10
1109.157380546235
 20
922.9371178753255
 30
0.0
  0
SPLINE
  5
12B
330
1F
100
AcDbEntity
  8
0
  6
Continuous
 62
     7
370
    40
100
AcDbSpline
210
0.0
220
0.0
230
1.0
 70
     8
 71
     3
 72
    19
 73
    15
 74
     0
 42
0.00000001
 43
0.00000001
 12
1.0
 22
0.0
 32
0.0
 13
1.0
 23
0.0
 33
0.0
 40
0.0
 40
0.0
 40
0.0
 40
0.0
 40
0.0788012371913484
 40
0.1615252158868582
 40
0.2450196276906206
 40
0.3280101659442999
 40
0.4113412364778825
 40
0.4951387523145954
 40
0.5785159291462977
 40
0.6627259472635701
 40
0.7466010642276486
 40
0.8305745687431638
 40
0.9153044386964826
 40
1.0
 40
1.0
 40
1.0
 40
1.0
 10
656.1928190784331
 20
922.9365671864259
 30
0.0
 10
656.287330223976
 20
922.9091011166843
 30
0.0
 10
656.4810572989768
 20
922.8528017107013
 30
0.0
 10
658.0342705913437
 20
922.4034971514435
 30
0.0
 10
660.512656330079
 20
921.6936746229011
 30
0.0
 10
663.959369962242
 20
920.7206525383913
 30
0.0
 10
668.2836340193699
 20
919.5231771810841
 30
0.0
 10
673.425033567168
 20
918.1330085048335
 30
0.0
 10
679.3058266418714
 20
916.5873571534389
 30
0.0
 10
685.8120032373279
 20
914.9323717518868
 30
0.0
 10
692.8485561498516
 20
913.2067354586587
 30
0.0
 10
700.2972333853687
 20
911.4541105819352
 30
0.0
 10
708.0451249384176
 20
909.7038201133942
 30
0.0
 10
713.327090015142
 20
908.5805597353182
 30
0.0
 10
715.9675377545406
 20
908.0190432763934
 30
0.0
  0
ARC
  5
12C
330
1F
100
AcDbEntity
  8
0
  6
Continuous
 62
     7
370
    40
100
AcDbCircle
 10
882.6741502463
 20
1703.2329486827
 30
0.0
 40
787.5000000000008
100
AcDbArc
 50
258.2967819574
 51
281.7032180426
  0
ARC
  5
12D
330
1F
100
AcDbEntity
  8
0
  6
Continuous
 62
     7
370
    40
100
AcDbCircle
 10
882.6741502463
 20
1703.2329486827
 30
0.0
 40
812.5000000000008
100
AcDbArc
 50
258.2967819574
 51
281.7032180426
  0
SPLINE
  5
12E
330
1F
100
AcDbEntity
  8
0
  6
Continuous
 62
     7
370
    40
100
AcDbSpline
210
0.0
220
0.0
230
1.0
 70
     8
 71
     3
 72
    19
 73
    15
 74
     0
 42
0.00000001
 43
0.00000001
 12
1.0
 22
0.0
 32
0.0
 13
1.0
 23
0.0
 33
0.0
 40
0.0
 40
0.0
 40
0.0
 40
0.0
 40
0.08059457780194
 40
0.1653205201016713
 40
0.2492815089310396
 40
0.333152435405037
 40
0.4173465117041786
 40
0.5007095834933026
 40
0.584496414890657
 40
0.6677970562099893
 40
0.7507641663605521
 40
0.8342344445618912
 40
0.9169341593869887
 40
1.0
 40
1.0
 40
1.0
 40
1.0
 10
1102.188224453152
 20
946.9460924106152
 30
0.0
 10
1102.095754354684
 20
946.9192192500427
 30
0.0
 10
1101.906074041326
 20
946.8640953818647
 30
0.0
 10
1100.388821921669
 20
946.4252025781431
 30
0.0
 10
1097.975832610299
 20
945.7342001213759
 30
0.0
 10
1094.632136188606
 20
944.7903507951904
 30
0.0
 10
1090.436447540323
 20
943.6286757096574
 30
0.0
 10
1085.440851467748
 20
942.2782060770586
 30
0.0
 10
1079.744281588687
 20
940.7812701744576
 30
0.0
 10
1073.429685485455
 20
939.1755080855485
 30
0.0
 10
1066.603166259922
 20
937.5017555960097
 30
0.0
 10
1059.387473395317
 20
935.8045844644976
 30
0.0
 10
1051.890198419797
 20
934.1115619784614
 30
0.0
 10
1046.801365040981
 20
933.0294263243604
 30
0.0
 10
1044.251328507555
 20
932.4871634427407
 30
0.0
  0
SPLINE
  5
12F
330
1F
100
AcDbEntity
  8
0
  6
Continuous
 62
     7
370
    40
100
AcDbSpline
210
0.0
220
0.0
230
1.0
 70
     8
 71
     3
 72
    19
 73
    15
 74
     0
 42
0.00000001
 43
0.00000001
 12
1.0
 22
0.0
 32
0.0
 13
1.0
 23
0.0
 33
0.0
 40
0.0
 40
0.0
 40
0.0
 40
0.0
 40
0.0834022489997362
 40
0.1669263638335895
 40
0.2498736232330633
 40
0.3329620752672916
 40
0.4166776246166163
 40
0.4998925607164684
 40
0.5838689804735471
 40
0.667708354626784
 40
0.7515003542375511
 40
0.8360450259451996
 40
0.9199807725790528
 40
1.0
 40
1.0
 40
1.0
 40
1.0
 10
721.0969719850565
 20
932.4871634427407
 30
0.0
 10
718.5373182306779
 20
933.0315031326359
 30
0.0
 10
713.4142706028764
 20
934.1209778915818
 30
0.0
 10
705.9012527040899
 20
935.8182796007507
 30
0.0
 10
698.6791815060654
 20
937.5176700018151
 30
0.0
 10
691.8575754920865
 20
939.1907019088771
 30
0.0
 10
685.5513922278625
 20
940.7949207722313
 30
0.0
 10
679.8525023461418
 20
942.2928559417795
 30
0.0
 10
674.8711671648158
 20
943.6398172672084
 30
0.0
 10
670.6824238470059
 20
944.7998116599327
 30
0.0
 10
667.3443081921704
 20
945.7422010850755
 30
0.0
 10
664.9443227703176
 20
946.4295797246566
 30
0.0
 10
663.4406213939258
 20
946.8645635987782
 30
0.0
 10
663.2531115553139
 20
946.9190561616214
 30
0.0
 10
663.161596232244
 20
946.9456515900554
 30
0.0
  0
ARC
  5
130
330
1F
100
AcDbEntity
  8
0
  6
Continuous
 62
     7
370
    40
100
AcDbCircle
 10
1105.6969334438
 20
934.9486014682
 30
0.0
 40
12.49999999999999
100
AcDbArc
 50
286.1873140471
 51
17.0825970337
  0
ARC
  5
131
330
1F
100
AcDbEntity
  8
0
  6
Continuous
 62
     7
370
    40
100
AcDbCircle
 10
659.6513670488
 20
934.9486014682
 30
0.0
 40
12.50000000000005
100
AcDbArc
 50
162.9174029663
 51
253.8126859529
  0
ARC
  5
132
330
1F
100
AcDbEntity
  8
0
  6
Continuous
 62
     7
370
    40
100
AcDbCircle
 10
1105.6969334438
 20
934.9486014682
 30
0.0
 40
12.50000000000007
100
AcDbArc
 50
17.0825970337
 51
106.1873140471
  0
ARC
  5
133
330
1F
100
AcDbEntity
  8
0
  6
Continuous
 62
     7
370
    40
100
AcDbCircle
 10
659.6513670488
 20
934.9486014682
 30
0.0
 40
12.49999999999999
100
AcDbArc
 50
73.8126859529
 51
162.9174029663
  0
LINE
  5
134
330
1F
100
AcDbEntity
  8
0
  6
Continuous
 62
     7
370
    40
100
AcDbLine
 10
1101.1741502463
 20
919.5271228908
 30
0.0
 11
1106.1741502463
 21
919.5271228908
 31
0.0
  0
LINE
  5
135
330
1F
100
AcDbEntity
  8
0
  6
Continuous
 62
     7
370
    40
100
AcDbLine
 10
1101.1741502463
 20
920.6642304873
 30
0.0
 11
1101.1741502463
 21
919.5271228908
 31
0.0
  0
LINE
  5
136
330
1F
100
AcDbEntity
  8
0
  6
Continuous
 62
     7
370
    40
100
AcDbLine
 10
1106.1741502463
 20
922.07841777
 30
0.0
 11
1106.1741502463
 21
919.5271228908
 31
0.0
  0
LINE
  5
137
330
1F
100
AcDbEntity
  8
0
  6
Continuous
 62
     7
370
    40
100
AcDbLine
 10
664.1741502463
 20
920.6643200052
 30
0.0
 11
664.1741502463
 21
919.5271228908
 31
0.0
  0
LINE
  5
138
330
1F
100
AcDbEntity
  8
0
  6
Continuous
 62
     7
370
    40
100
AcDbLine
 10
664.1741502463
 20
919.5271228908
 30
0.0
 11
659.1741502463
 21
919.5271228908
 31
0.0
  0
LINE
  5
139
330
1F
100
AcDbEntity
  8
0
  6
Continuous
 62
     7
370
    40
100
AcDbLine
 10
659.1741502463
 20
922.0784323989
 30
0.0
 11
659.1741502463
 21
919.5271228908
 31
0.0
  0
LINE
  5
13A
330
1F
100
AcDbEntity
  8
0
  6
Continuous
 62
     7
370
    40
100
AcDbLine
 10
1101.1741502463
 20
873.5056626736
 30
0.0
 11
1106.1741502463
 21
873.5056626736
 31
0.0
  0
LINE
  5
13B
330
1F
100
AcDbEntity
  8
0
  6
Continuous
 62
     7
370
    40
100
AcDbLine
 10
1101.1741502463
 20
919.5271228908
 30
0.0
 11
1101.1741502463
 21
873.5056626736
 31
0.0
  0
LINE
  5
13C
330
1F
100
AcDbEntity
  8
0
  6
Continuous
 62
     7
370
    40
100
AcDbLine
 10
1106.1741502463
 20
919.5271228908
 30
0.0
 11
1106.1741502463
 21
873.5056626736
 31
0.0
  0
LINE
  5
13D
330
1F
100
AcDbEntity
  8
0
  6
Continuous
 62
     7
370
    40
100
AcDbLine
 10
664.1741502463
 20
873.5056626736
 30
0.0
 11
659.1741502463
 21
873.5056626736
 31
0.0
  0
LINE
  5
13E
330
1F
100
AcDbEntity
  8
0
  6
Continuous
 62
     7
370
    40
100
AcDbLine
 10
664.1741502463
 20
919.5271228908
 30
0.0
 11
664.1741502463
 21
873.5056626736
 31
0.0
  0
LINE
  5
13F
330
1F
100
AcDbEntity
  8
0
  6
Continuous
 62
     7
370
    40
100
AcDbLine
 10
659.1741502463
 20
919.5271228908
 30
0.0
 11
659.1741502463
 21
873.5056626736
 31
0.0
  0
LINE
  5
140
330
1F
100
AcDbEntity
  8
0
  6
Continuous
 62
     7
370
    40
100
AcDbLine
 10
1101.1741502463
 20
949.5771228908
 30
0.0
 11
1106.1741502463
 21
949.5771228908
 31
0.0
  0
LINE
  5
141
330
1F
100
AcDbEntity
  8
0
  6
Continuous
 62
     7
370
    40
100
AcDbLine
 10
1101.1741502463
 20
949.5771228908
 30
0.0
 11
1101.1741502463
 21
946.6528401187
 31
0.0
  0
LINE
  5
142
330
1F
100
AcDbEntity
  8
0
  6
Continuous
 62
     7
370
    40
100
AcDbLine
 10
1106.1741502463
 20
949.5771228908
 30
0.0
 11
1106.1741502463
 21
947.4394887114
 31
0.0
  0
LINE
  5
143
330
1F
100
AcDbEntity
  8
0
  6
Continuous
 62
     7
370
    40
100
AcDbLine
 10
664.1741502463
 20
949.5771228908
 30
0.0
 11
659.1741502463
 21
949.5771228908
 31
0.0
  0
LINE
  5
144
330
1F
100
AcDbEntity
  8
0
  6
Continuous
 62
     7
370
    40
100
AcDbLine
 10
664.1741502463
 20
949.5771228908
 30
0.0
 11
664.1741502463
 21
946.6528401187
 31
0.0
  0
LINE
  5
145
330
1F
100
AcDbEntity
  8
0
  6
Continuous
 62
     7
370
    40
100
AcDbLine
 10
659.1741502463
 20
949.5771228908
 30
0.0
 11
659.1741502463
 21
947.4394887114
 31
0.0
  0
LINE
  5
146
330
1F
100
AcDbEntity
  8
0
  6
Continuous
 62
     7
370
    40
100
AcDbLine
 10
643.6741502463
 20
943.7211048825
 30
0.0
 11
643.6741502463
 21
885.4305048683
 31
0.0
  0
LINE
  5
147
330
1F
100
AcDbEntity
  8
0
  6
Continuous
 62
     7
370
    40
100
AcDbLine
 10
742.8741502463
 20
949.5271228908
 30
0.0
 11
742.8741502463
 21
928.2412003395
 31
0.0
  0
LINE
  5
148
330
1F
100
AcDbEntity
  8
0
  6
Continuous
 62
     7
370
    40
100
AcDbLine
 10
742.8741502463
 20
902.8504088931
 30
0.0
 11
742.8741502463
 21
873.5271228908
 31
0.0
  0
LINE
  5
149
330
1F
100
AcDbEntity
  8
0
  6
Continuous
 62
     7
370
    40
100
AcDbLine
 10
657.6741502463
 20
885.4305048683
 30
0.0
 11
657.6741502463
 21
831.5271228908
 31
0.0
  0
LINE
  5
14A
330
1F
100
AcDbEntity
  8
0
  6
Continuous
 62
     7
370
    40
100
AcDbLine
 10
657.6741502463
 20
831.5271228908
 30
0.0
 11
648.6741502463
 21
831.5271228908
 31
0.0
  0
LINE
  5
14B
330
1F
100
AcDbEntity
  8
0
  6
Continuous
 62
     7
370
    40
100
AcDbLine
 10
648.6741502463
 20
831.5271228908
 30
0.0
 11
648.6741502463
 21
748.0798836973
 31
0.0
  0
LINE
  5
14C
330
1F
100
AcDbEntity
  8
0
  6
Continuous
 62
     7
370
    40
100
AcDbLine
 10
643.6741502463
 20
885.4305048683
 30
0.0
 11
643.6741502463
 21
748.0798836973
 31
0.0
  0
LINE
  5
14D
330
1F
100
AcDbEntity
  8
0
  6
Continuous
 62
     7
370
    40
100
AcDbLine
 10
657.6741502463
 20
971.5271228908
 30
0.0
 11
643.6741502463
 21
971.5271228908
 31
0.0
  0
LINE
  5
14E
330
1F
100
AcDbEntity
  8
0
  6
Continuous
 62
     7
370
    40
100
AcDbLine
 10
657.6741502463
 20
971.5271228908
 30
0.0
 11
657.6741502463
 21
947.2912354543
 31
0.0
  0
LINE
  5
14F
330
1F
100
AcDbEntity
  8
0
  6
Continuous
 62
     7
370
    40
100
AcDbLine
 10
643.6741502463
 20
971.5271228908
 30
0.0
 11
643.6741502463
 21
943.7211048825
 31
0.0
  0
LINE
  5
150
330
1F
100
AcDbEntity
  8
0
  6
Continuous
 62
     7
370
    40
100
AcDbLine
 10
744.8741502463
 20
902.5036498557
 30
0.0
 11
744.8741502463
 21
899.5271228908
 31
0.0
  0
LINE
  5
151
330
1F
100
AcDbEntity
  8
0
  6
Continuous
 62
     7
370
    40
100
AcDbLine
 10
648.6741502463
 20
671.5271228908
 30
0.0
 11
643.6741502463
 21
671.5271228908
 31
0.0
  0
LINE
  5
152
330
1F
100
AcDbEntity
  8
0
  6
Continuous
 62
     7
370
    40
100
AcDbLine
 10
648.6741502463
 20
681.5271228908
 30
0.0
 11
648.6741502463
 21
671.5271228908
 31
0.0
  0
LINE
  5
153
330
1F
100
AcDbEntity
  8
0
  6
Continuous
 62
     7
370
    40
100
AcDbLine
 10
643.6741502463
 20
681.5271228908
 30
0.0
 11
643.6741502463
 21
671.5271228908
 31
0.0
  0
LINE
  5
154
330
1F
100
AcDbEntity
  8
0
  6
Continuous
 62
     7
370
    40
100
AcDbLine
 10
648.6741502463
 20
748.0798836973
 30
0.0
 11
648.6741502463
 21
681.5271228908
 31
0.0
  0
LINE
  5
155
330
1F
100
AcDbEntity
  8
0
  6
Continuous
 62
     7
370
    40
100
AcDbLine
 10
643.6741502463
 20
748.0798836973
 30
0.0
 11
643.6741502463
 21
681.5271228908
 31
0.0
  0
LINE
  5
156
330
1F
100
AcDbEntity
  8
0
  6
Continuous
 62
     7
370
    40
100
AcDbLine
 10
657.6741502463
 20
831.5271228908
 30
0.0
 11
660.6741502463
 21
828.5271228908
 31
0.0
  0
LINE
  5
157
330
1F
100
AcDbEntity
  8
0
  6
Continuous
 62
     7
370
    40
100
AcDbLine
 10
657.6741502463
 20
971.5271228908
 30
0.0
 11
660.6741502463
 21
971.5271228908
 31
0.0
  0
LINE
  5
158
330
1F
100
AcDbEntity
  8
0
  6
Continuous
 62
     7
370
    40
100
AcDbLine
 10
648.6741502463
 20
831.5271228908
 30
0.0
 11
651.6741502463
 21
828.5271228908
 31
0.0
  0
LINE
  5
159
330
1F
100
AcDbEntity
  8
0
  6
Continuous
 62
     7
370
    40
100
AcDbLine
 10
651.6741502463
 20
671.5271228908
 30
0.0
 11
648.6741502463
 21
671.5271228908
 31
0.0
  0
LINE
  5
15A
330
1F
100
AcDbEntity
  8
0
  6
Continuous
 62
     7
370
    40
100
AcDbLine
 10
691.6741502463
 20
956.5271228908
 30
0.0
 11
691.6741502463
 21
949.5271228908
 31
0.0
  0
LINE
  5
15B
330
1F
100
AcDbEntity
  8
0
  6
Continuous
 62
     7
370
    40
100
AcDbLine
 10
691.6741502463
 20
873.5271228908
 30
0.0
 11
691.6741502463
 21
686.5271228908
 31
0.0
  0
ARC
  5
15C
330
1F
100
AcDbEntity
  8
0
  6
Continuous
 62
     7
370
    40
100
AcDbCircle
 10
676.6741502463
 20
686.5271228908
 30
0.0
 40
15.0
100
AcDbArc
 50
270.0
 51
0.0
  0
CIRCLE
  5
15D
330
1F
100
AcDbEntity
  8
0
  6
Continuous
 62
     7
370
    40
100
AcDbCircle
 10
677.6741502463
 20
691.5271228908
 30
0.0
 40
5.5
  0
ARC
  5
15E
330
1F
100
AcDbEntity
  8
0
  6
Continuous
 62
     7
370
    40
100
AcDbCircle
 10
677.6741502463
 20
951.5271228908
 30
0.0
 40
5.500000000000139
100
AcDbArc
 50
338.6763137365
 51
90.0
  0
ARC
  5
15F
330
1F
100
AcDbEntity
  8
0
  6
Continuous
 62
     7
370
    40
100
AcDbCircle
 10
677.6741502463
 20
951.5271228908
 30
0.0
 40
5.500000000000034
100
AcDbArc
 50
90.0
 51
201.3236862635
  0
ARC
  5
160
330
1F
100
AcDbEntity
  8
0
  6
Continuous
 62
     7
370
    40
100
AcDbCircle
 10
676.6741502463
 20
956.5271228908
 30
0.0
 40
15.0
100
AcDbArc
 50
0.0
 51
90.0
  0
LINE
  5
161
330
1F
100
AcDbEntity
  8
0
  6
Continuous
 62
     7
370
    40
100
AcDbLine
 10
660.6741502463
 20
971.5271228908
 30
0.0
 11
676.6741502463
 21
971.5271228908
 31
0.0
  0
LINE
  5
162
330
1F
100
AcDbEntity
  8
0
  6
Continuous
 62
     7
370
    40
100
AcDbLine
 10
676.6741502463
 20
671.5271228908
 30
0.0
 11
651.6741502463
 21
671.5271228908
 31
0.0
  0
LINE
  5
163
330
1F
100
AcDbEntity
  8
0
  6
Continuous
 62
     7
370
    40
100
AcDbLine
 10
1121.6741502463
 20
943.7211048825
 30
0.0
 11
1121.6741502463
 21
885.4305048683
 31
0.0
  0
LINE
  5
164
330
1F
100
AcDbEntity
  8
0
  6
Continuous
 62
     7
370
    40
100
AcDbLine
 10
1022.4741502463
 20
949.5271228908
 30
0.0
 11
1022.4741502463
 21
928.2412003395
 31
0.0
  0
LINE
  5
165
330
1F
100
AcDbEntity
  8
0
  6
Continuous
 62
     7
370
    40
100
AcDbLine
 10
1022.4741502463
 20
902.8504088931
 30
0.0
 11
1022.4741502463
 21
873.5271228908
 31
0.0
  0
LINE
  5
166
330
1F
100
AcDbEntity
  8
0
  6
Continuous
 62
     7
370
    40
100
AcDbLine
 10
1116.6741502463
 20
831.5271228908
 30
0.0
 11
1116.6741502463
 21
748.0798836973
 31
0.0
  0
LINE
  5
167
330
1F
100
AcDbEntity
  8
0
  6
Continuous
 62
     7
370
    40
100
AcDbLine
 10
1107.6741502463
 20
831.5271228908
 30
0.0
 11
1116.6741502463
 21
831.5271228908
 31
0.0
  0
LINE
  5
168
330
1F
100
AcDbEntity
  8
0
  6
Continuous
 62
     7
370
    40
100
AcDbLine
 10
1107.6741502463
 20
885.4305048683
 30
0.0
 11
1107.6741502463
 21
831.5271228908
 31
0.0
  0
LINE
  5
169
330
1F
100
AcDbEntity
  8
0
  6
Continuous
 62
     7
370
    40
100
AcDbLine
 10
1121.6741502463
 20
885.4305048683
 30
0.0
 11
1121.6741502463
 21
748.0798836973
 31
0.0
  0
LINE
  5
16A
330
1F
100
AcDbEntity
  8
0
  6
Continuous
 62
     7
370
    40
100
AcDbLine
 10
1107.6741502463
 20
971.5271228908
 30
0.0
 11
1121.6741502463
 21
971.5271228908
 31
0.0
  0
LINE
  5
16B
330
1F
100
AcDbEntity
  8
0
  6
Continuous
 62
     7
370
    40
100
AcDbLine
 10
1107.6741502463
 20
971.5271228908
 30
0.0
 11
1107.6741502463
 21
947.2912354543
 31
0.0
  0
LINE
  5
16C
330
1F
100
AcDbEntity
  8
0
  6
Continuous
 62
     7
370
    40
100
AcDbLine
 10
1121.6741502463
 20
971.5271228908
 30
0.0
 11
1121.6741502463
 21
943.7211048825
 31
0.0
  0
LINE
  5
16D
330
1F
100
AcDbEntity
  8
0
  6
Continuous
 62
     7
370
    40
100
AcDbLine
 10
1020.4741502463
 20
902.5036498557
 30
0.0
 11
1020.4741502463
 21
899.5271228908
 31
0.0
  0
LINE
  5
16E
330
1F
100
AcDbEntity
  8
0
  6
Continuous
 62
     7
370
    40
100
AcDbLine
 10
1116.6741502463
 20
671.5271228908
 30
0.0
 11
1121.6741502463
 21
671.5271228908
 31
0.0
  0
LINE
  5
16F
330
1F
100
AcDbEntity
  8
0
  6
Continuous
 62
     7
370
    40
100
AcDbLine
 10
1116.6741502463
 20
681.5271228908
 30
0.0
 11
1116.6741502463
 21
671.5271228908
 31
0.0
  0
LINE
  5
170
330
1F
100
AcDbEntity
  8
0
  6
Continuous
 62
     7
370
    40
100
AcDbLine
 10
1121.6741502463
 20
681.5271228908
 30
0.0
 11
1121.6741502463
 21
671.5271228908
 31
0.0
  0
LINE
  5
171
330
1F
100
AcDbEntity
  8
0
  6
Continuous
 62
     7
370
    40
100
AcDbLine
 10
1116.6741502463
 20
748.0798836973
 30
0.0
 11
1116.6741502463
 21
681.5271228908
 31
0.0
  0
LINE
  5
172
330
1F
100
AcDbEntity
  8
0
  6
Continuous
 62
     7
370
    40
100
AcDbLine
 10
1121.6741502463
 20
748.0798836973
 30
0.0
 11
1121.6741502463
 21
681.5271228908
 31
0.0
  0
LINE
  5
173
330
1F
100
AcDbEntity
  8
0
  6
Continuous
 62
     7
370
    40
100
AcDbLine
 10
1107.6741502463
 20
831.5271228908
 30
0.0
 11
1104.6741502463
 21
828.5271228908
 31
0.0
  0
LINE
  5
174
330
1F
100
AcDbEntity
  8
0
  6
Continuous
 62
     7
370
    40
100
AcDbLine
 10
1107.6741502463
 20
971.5271228908
 30
0.0
 11
1104.6741502463
 21
971.5271228908
 31
0.0
  0
LINE
  5
175
330
1F
100
AcDbEntity
  8
0
  6
Continuous
 62
     7
370
    40
100
AcDbLine
 10
1116.6741502463
 20
831.5271228908
 30
0.0
 11
1113.6741502463
 21
828.5271228908
 31
0.0
  0
LINE
  5
176
330
1F
100
AcDbEntity
  8
0
  6
Continuous
 62
     7
370
    40
100
AcDbLine
 10
1113.6741502463
 20
671.5271228908
 30
0.0
 11
1116.6741502463
 21
671.5271228908
 31
0.0
  0
ARC
  5
177
330
1F
100
AcDbEntity
  8
0
  6
Continuous
 62
     7
370
    40
100
AcDbCircle
 10
1088.6741502463
 20
686.5271228908
 30
0.0
 40
15.0
100
AcDbArc
 50
180.0
 51
270.0
  0
CIRCLE
  5
178
330
1F
100
AcDbEntity
  8
0
  6
Continuous
 62
     7
370
    40
100
AcDbCircle
 10
1087.6741502463
 20
691.5271228908
 30
0.0
 40
5.5
  0
LINE
  5
179
330
1F
100
AcDbEntity
  8
0
  6
Continuous
 62
     7
370
    40
100
AcDbLine
 10
1073.6741502463
 20
956.5271228908
 30
0.0
 11
1073.6741502463
 21
949.5271228908
 31
0.0
  0
LINE
  5
17A
330
1F
100
AcDbEntity
  8
0
  6
Continuous
 62
     7
370
    40
100
AcDbLine
 10
1073.6741502463
 20
873.5271228908
 30
0.0
 11
1073.6741502463
 21
686.5271228908
 31
0.0
  0
ARC
  5
17B
330
1F
100
AcDbEntity
  8
0
  6
Continuous
 62
     7
370
    40
100
AcDbCircle
 10
1087.6741502463
 20
951.5271228908
 30
0.0
 40
5.500000000000139
100
AcDbArc
 50
90.0
 51
201.3236862635
  0
ARC
  5
17C
330
1F
100
AcDbEntity
  8
0
  6
Continuous
 62
     7
370
    40
100
AcDbCircle
 10
1087.6741502463
 20
951.5271228908
 30
0.0
 40
5.500000000000139
100
AcDbArc
 50
338.6763137365
 51
90.0
  0
ARC
  5
17D
330
1F
100
AcDbEntity
  8
0
  6
Continuous
 62
     7
370
    40
100
AcDbCircle
 10
1088.6741502463
 20
956.5271228908
 30
0.0
 40
15.0
100
AcDbArc
 50
90.0
 51
180.0
  0
LINE
  5
17E
330
1F
100
AcDbEntity
  8
0
  6
Continuous
 62
     7
370
    40
100
AcDbLine
 10
1104.6741502463
 20
971.5271228908
 30
0.0
 11
1088.6741502463
 21
971.5271228908
 31
0.0
  0
LINE
  5
17F
330
1F
100
AcDbEntity
  8
0
  6
Continuous
 62
     7
370
    40
100
AcDbLine
 10
1088.6741502463
 20
671.5271228908
 30
0.0
 11
1113.6741502463
 21
671.5271228908
 31
0.0
  0
LINE
  5
180
330
1F
100
AcDbEntity
  8
0
  6
CENTERX2
 62
     7
370
     0
100
AcDbLine
 10
658.6741502463
 20
681.5271228908
 30
0.0
 11
633.6741502463
 21
681.5271228908
 31
0.0
  0
SPLINE
  5
181
330
1F
100
AcDbEntity
  8
0
  6
Continuous
 62
     7
370
    40
100
AcDbSpline
210
0.0
220
0.0
230
1.0
 70
     8
 71
     3
 72
     9
 73
     5
 74
     0
 42
0.00000001
 43
0.00000001
 12
1.0
 22
0.0
 32
0.0
 13
1.0
 23
0.0
 33
0.0
 40
0.0
 40
0.0
 40
0.0
 40
0.0
 40
0.5058573948919219
 40
0.9999999999999999
 40
0.9999999999999999
 40
0.9999999999999999
 40
0.9999999999999999
 10
492.2093834186442
 20
415.5789610710085
 30
0.0
 10
494.8964556599393
 20
416.1044886801942
 30
0.0
 10
500.2083721574122
 20
417.1433735803508
 30
0.0
 10
505.214062990843
 20
418.3092717288594
 30
0.0
 10
507.6875880996401
 20
418.8853916772541
 30
0.0
  0
SPLINE
  5
182
330
1F
100
AcDbEntity
  8
0
  6
Continuous
 62
     7
370
    40
100
AcDbSpline
210
0.0
220
0.0
230
1.0
 70
     8
 71
     3
 72
    16
 73
    12
 74
     0
 42
0.00000001
 43
0.00000001
 12
1.0
 22
0.0
 32
0.0
 13
1.0
 23
0.0
 33
0.0
 40
0.0
 40
0.0
 40
0.0
 40
0.0
 40
0.1274437538080934
 40
0.2364855353305678
 40
0.3274027556231238
 40
0.4048689165963599
 40
0.4862944950136902
 40
0.601152380567379
 40
0.728700184811672
 40
0.8614599182925925
 40
1.0
 40
1.0
 40
1.0
 40
1.0
 10
542.0023826218685
 20
428.4363502003193
 30
0.0
 10
543.1509070007228
 20
428.830812843021
 30
0.0
 10
545.2821170008814
 20
429.5627805263308
 30
0.0
 10
547.6848952117866
 20
430.4916376342786
 30
0.0
 10
549.3078902818698
 20
431.1083203209646
 30
0.0
 10
550.1169855626274
 20
431.3676518115562
 30
0.0
 10
551.50327599401
 20
431.9402481799775
 30
0.0
 10
553.480198088444
 20
432.8871869575849
 30
0.0
 10
555.7163469601787
 20
434.2917015535443
 30
0.0
 10
557.5844899192828
 20
435.8172400689677
 30
0.0
 10
558.4215471144831
 20
436.9004940530049
 30
0.0
 10
558.8489929353966
 20
437.4536610183205
 30
0.0
  0
SPLINE
  5
183
330
1F
100
AcDbEntity
  8
0
  6
Continuous
 62
     7
370
    40
100
AcDbSpline
210
0.0
220
0.0
230
1.0
 70
     8
 71
     3
 72
    16
 73
    12
 74
     0
 42
0.00000001
 43
0.00000001
 12
1.0
 22
0.0
 32
0.0
 13
1.0
 23
0.0
 33
0.0
 40
0.0
 40
0.0
 40
0.0
 40
0.0
 40
0.1378490089976822
 40
0.2697517713806197
 40
0.3962922243268016
 40
0.5107382688869474
 40
0.5928557236972628
 40
0.6710941415929321
 40
0.7627669150298336
 40
0.8723611908193938
 40
1.0
 40
1.0
 40
1.0
 40
1.0
 10
92.1131121651047
 20
437.453314254511
 30
0.0
 10
92.54039500364446
 20
436.9000953439263
 30
0.0
 10
93.37652943373371
 20
435.8175211406256
 30
0.0
 10
95.23736514324158
 20
434.2951861363807
 30
0.0
 10
97.46671171219312
 20
432.8926032624433
 30
0.0
 10
99.43301499666677
 20
431.950322663159
 30
0.0
 10
100.8143464765928
 20
431.3795156638061
 30
0.0
 10
101.6323164385575
 20
431.1161948504398
 30
0.0
 10
103.2627118737551
 20
430.4967301184333
 30
0.0
 10
105.672573296689
 20
429.5651879473308
 30
0.0
 10
107.8104811959462
 20
428.8309691000881
 30
0.0
 10
108.9607424187151
 20
428.4359364285205
 30
0.0
  0
SPLINE
  5
184
330
1F
100
AcDbEntity
  8
0
  6
Continuous
 62
     7
370
    40
100
AcDbSpline
210
0.0
220
0.0
230
1.0
 70
     8
 71
     3
 72
     9
 73
     5
 74
     0
 42
0.00000001
 43
0.00000001
 12
1.0
 22
0.0
 32
0.0
 13
1.0
 23
0.0
 33
0.0
 40
0.0
 40
0.0
 40
0.0
 40
0.0
 40
0.4955514069366596
 40
1.0
 40
1.0
 40
1.0
 40
1.0
 10
143.2769476899401
 20
418.8847551640853
 30
0.0
 10
145.7576399327534
 20
418.3068822619385
 30
0.0
 10
150.7635630480727
 20
417.1407612620627
 30
0.0
 10
156.0737647334653
 20
416.102639920998
 30
0.0
 10
158.7524885025443
 20
415.5789610710689
 30
0.0
  0
LINE
  5
185
330
1F
100
AcDbEntity
  8
0
  6
Continuous
 62
     7
370
    40
100
AcDbLine
 10
158.7689867212
 20
415.4243351928
 30
0.0
 11
160.6749172078
 21
415.0175020565
 31
0.0
  0
LINE
  5
186
330
1F
100
AcDbEntity
  8
0
  6
Continuous
 62
     7
370
    40
100
AcDbLine
 10
490.2860506441
 20
415.0212620656
 30
0.0
 11
492.1935883001
 21
415.4233316884
 31
0.0
  0
SPLINE
  5
187
330
1F
100
AcDbEntity
  8
0
  6
Continuous
 62
     7
370
    40
100
AcDbSpline
210
0.0
220
0.0
230
1.0
 70
     8
 71
     3
 72
    29
 73
    25
 74
     0
 42
0.00000001
 43
0.00000001
 12
1.0
 22
0.0
 32
0.0
 13
1.0
 23
0.0
 33
0.0
 40
0.0
 40
0.0
 40
0.0
 40
0.0
 40
0.0255992677599036
 40
0.0738652084422498
 40
0.122131713918506
 40
0.1703982243064854
 40
0.2186647391036969
 40
0.2669312578188578
 40
0.315197779954811
 40
0.3634643050090369
 40
0.4117308324745848
 40
0.4599973618408106
 40
0.5082638925940617
 40
0.556530424218665
 40
0.604796956081845
 40
0.6530634876094843
 40
0.7013300182846378
 40
0.7495965475917082
 40
0.7978630750171131
 40
0.8461296000502321
 40
0.8943961221840618
 40
0.9426626409160788
 40
0.9883891848464277
 40
1.0
 40
1.0
 40
1.0
 40
1.0
 10
160.6730535588466
 20
415.0057884261581
 30
0.0
 10
163.4482456430068
 20
414.4403809173376
 30
0.0
 10
171.455902099683
 20
412.8089302100144
 30
0.0
 10
184.7434546211918
 20
410.3492020698982
 30
0.0
 10
200.5484811963667
 20
407.7281826360492
 30
0.0
 10
216.4030415890762
 20
405.4233167086035
 30
0.0
 10
232.2997675540157
 20
403.4301740692467
 30
0.0
 10
248.2327851823432
 20
401.7509595439009
 30
0.0
 10
264.1958180167719
 20
400.385942865695
 30
0.0
 10
280.1826820102119
 20
399.3357574159447
 30
0.0
 10
296.1871559603038
 20
398.6007840014873
 30
0.0
 10
312.2030192876178
 20
398.1813157656877
 30
0.0
 10
328.2240449870483
 20
398.0775138140292
 30
0.0
 10
344.2440045459743
 20
398.2894191333787
 30
0.0
 10
360.2566698006747
 20
398.8169489065371
 30
0.0
 10
376.255815142222
 20
399.6598992349689
 30
0.0
 10
392.2352214103132
 20
400.8179381239036
 30
0.0
 10
408.1886726856201
 20
402.2906313028528
 30
0.0
 10
424.1099797169873
 20
404.0773467262509
 30
0.0
 10
439.9929038808106
 20
406.177611800307
 30
0.0
 10
455.8314523785825
 20
408.5897813104586
 30
0.0
 10
471.3418577061148
 20
411.2681885367173
 30
0.0
 10
482.8168079332964
 20
413.4705280977064
 30
0.0
 10
489.0305380253073
 20
414.7472518646986
 30
0.0
 10
490.2888183623373
 20
415.005788426158
 30
0.0
  0
SPLINE
  5
188
330
1F
100
AcDbEntity
  8
0
  6
Continuous
 62
     7
370
    40
100
AcDbSpline
210
0.0
220
0.0
230
1.0
 70
     8
 71
     3
 72
    23
 73
    19
 74
     0
 42
0.00000001
 43
0.00000001
 12
1.0
 22
0.0
 32
0.0
 13
1.0
 23
0.0
 33
0.0
 40
0.0
 40
0.0
 40
0.0
 40
0.0
 40
0.0657755102521465
 40
0.1350090118076281
 40
0.2044112980825769
 40
0.2738372049822118
 40
0.3431260193111021
 40
0.4121285312911578
 40
0.4807908218043726
 40
0.5491682419775955
 40
0.6178079535925083
 40
0.6864989169235004
 40
0.7545050599315348
 40
0.8209798333799476
 40
0.8773416527254991
 40
0.9280092840771942
 40
0.9736693437890471
 40
1.0
 40
1.0
 40
1.0
 40
1.0
 10
143.9838433731321
 20
444.4425925867682
 30
0.0
 10
142.7560094031248
 20
444.7524295015168
 30
0.0
 10
140.2357910069609
 20
445.3883922712674
 30
0.0
 10
136.5782731872863
 20
446.3501324129054
 30
0.0
 10
132.9970521406331
 20
447.3188835886722
 30
0.0
 10
129.5874373762171
 20
448.2707070731188
 30
0.0
 10
126.3722721433544
 20
449.195933226311
 30
0.0
 10
123.3762329061549
 20
450.0854827608531
 30
0.0
 10
120.6156032537648
 20
450.9314287063262
 30
0.0
 10
118.0981166202367
 20
451.7273692767182
 30
0.0
 10
115.8275605147331
 20
452.4693806075384
 30
0.0
 10
113.8219572139409
 20
453.1486861526354
 30
0.0
 10
112.1104404972809
 20
453.7521597588394
 30
0.0
 10
110.7787278718282
 20
454.2439917901703
 30
0.0
 10
109.8208637297502
 20
454.6173552823936
 30
0.0
 10
109.2226348154713
 20
454.8641731359892
 30
0.0
 10
108.9112564596142
 20
455.004570878973
 30
0.0
 10
108.9031188995126
 20
455.0086719522209
 30
0.0
 10
108.9001425810431
 20
455.0101719227159
 30
0.0
  0
LINE
  5
189
330
1F
100
AcDbEntity
  8
0
  6
Continuous
 62
     7
370
    40
100
AcDbLine
 10
163.9036129666
 20
439.8749599786
 30
0.0
 11
161.6834103238
 21
440.3454952584
 31
0.0
  0
LINE
  5
18A
330
1F
100
AcDbEntity
  8
0
  6
Continuous
 62
     7
370
    40
100
AcDbLine
 10
489.2988476461
 20
440.3498435701
 30
0.0
 11
487.0581326204
 21
439.8765626254
 31
0.0
  0
SPLINE
  5
18B
330
1F
100
AcDbEntity
  8
0
  6
Continuous
 62
     7
370
    40
100
AcDbSpline
210
0.0
220
0.0
230
1.0
 70
     8
 71
     3
 72
    24
 73
    20
 74
     0
 42
0.00000001
 43
0.00000001
 12
1.0
 22
0.0
 32
0.0
 13
1.0
 23
0.0
 33
0.0
 40
0.0
 40
0.0
 40
0.0
 40
0.0
 40
0.0086216098702434
 40
0.0461975278540601
 40
0.0905313314046842
 40
0.1415937767060632
 40
0.1983614865499601
 40
0.2594141340130845
 40
0.3234098919769232
 40
0.3893124624668316
 40
0.4563923104856755
 40
0.524147520589022
 40
0.5922131828366375
 40
0.6605648322734565
 40
0.7278554767998078
 40
0.7961821629019068
 40
0.8651865131919635
 40
0.9345174402100094
 40
1.0
 40
1.0
 40
1.0
 40
1.0
 10
542.072835516321
 20
455.0149471149829
 30
0.0
 10
542.0780836155776
 20
455.0175991126526
 30
0.0
 10
542.1062047223365
 20
455.0318094211749
 30
0.0
 10
541.9298270362239
 20
454.9478578932633
 30
0.0
 10
541.5467321071535
 20
454.7835379672607
 30
0.0
 10
540.8469904963061
 20
454.499636137124
 30
0.0
 10
539.8362296079085
 20
454.1128156250945
 30
0.0
 10
538.4912579189652
 20
453.6219519838366
 30
0.0
 10
536.8213839280122
 20
453.0379397744944
 30
0.0
 10
534.8412126724993
 20
452.3711942958795
 30
0.0
 10
532.5712281383936
 20
451.6329666776059
 30
0.0
 10
530.0327403387694
 20
450.8339535139714
 30
0.0
 10
527.2465351357995
 20
449.9832784709769
 30
0.0
 10
524.247519517196
 20
449.096658632613
 30
0.0
 10
521.0395112031968
 20
448.1773303708197
 30
0.0
 10
517.6407293208458
 20
447.2318342700336
 30
0.0
 10
514.0397708018394
 20
446.2606356662138
 30
0.0
 10
510.3518679979292
 20
445.2934197105816
 30
0.0
 10
507.8086020798254
 20
444.6534245114318
 30
0.0
 10
506.5732689800946
 20
444.3425615192645
 30
0.0
  0
SPLINE
  5
18C
330
1F
100
AcDbEntity
  8
0
  6
Continuous
 62
     7
370
    40
100
AcDbSpline
210
0.0
220
0.0
230
1.0
 70
     8
 71
     3
 72
    29
 73
    25
 74
     0
 42
0.00000001
 43
0.00000001
 12
1.0
 22
0.0
 32
0.0
 13
1.0
 23
0.0
 33
0.0
 40
0.0
 40
0.0
 40
0.0
 40
0.0
 40
0.025303784602857
 40
0.0737626629939135
 40
0.1222221265353013
 40
0.1706815849238959
 40
0.219141038675825
 40
0.2676004883344322
 40
0.3160599344494971
 40
0.3645193775764294
 40
0.4129788182753402
 40
0.4614382571102663
 40
0.509897694648097
 40
0.5583571314578494
 40
0.6068165679758808
 40
0.6552760047166167
 40
0.7037354422503139
 40
0.7521948811460045
 40
0.8006543219706126
 40
0.8491137652879384
 40
0.8975732116578992
 40
0.946032661635566
 40
0.991941889554588
 40
0.9999999999999999
 40
0.9999999999999999
 40
0.9999999999999999
 40
0.9999999999999999
 10
487.0596108640793
 20
439.8696647028277
 30
0.0
 10
484.3710782543995
 20
439.3152433249178
 30
0.0
 10
476.533779291083
 20
437.6990583195027
 30
0.0
 10
463.5001915549852
 20
435.2563463186796
 30
0.0
 10
447.9453302839559
 20
432.6461104245594
 30
0.0
 10
432.3403809350147
 20
430.3518873628509
 30
0.0
 10
416.6928124250115
 20
428.3693262586419
 30
0.0
 10
401.0085938592758
 20
426.700637503749
 30
0.0
 10
385.2940985530027
 20
425.3461111737709
 30
0.0
 10
369.5556075932735
 20
424.3063921505695
 30
0.0
 10
353.7994396553483
 20
423.5818702137919
 30
0.0
 10
338.0319130108498
 20
423.172843246369
 30
0.0
 10
322.2593524890088
 20
423.0794733181316
 30
0.0
 10
306.488084431203
 20
423.3017984469956
 30
0.0
 10
290.7244347434481
 20
423.8397290742141
 30
0.0
 10
274.9747264837184
 20
424.6930503067114
 30
0.0
 10
259.245276190945
 20
425.8614166862843
 30
0.0
 10
243.5423957116855
 20
427.3443713962156
 30
0.0
 10
227.8723733892211
 20
429.1412754929369
 30
0.0
 10
212.2415323324458
 20
431.2515729002841
 30
0.0
 10
196.6560010020569
 20
433.6738026318218
 30
0.0
 10
181.3950450534754
 20
436.3613007965844
 30
0.0
 10
170.4895667526386
 20
438.4968670442631
 30
0.0
 10
164.7580587635434
 20
439.6913160513599
 30
0.0
 10
163.9022610571046
 20
439.8696647028277
 30
0.0
  0
SPLINE
  5
18D
330
1F
100
AcDbEntity
  8
0
  6
Continuous
 62
     7
370
    40
100
AcDbSpline
210
0.0
220
0.0
230
1.0
 70
     8
 71
     3
 72
    12
 73
     8
 74
     0
 42
0.00000001
 43
0.00000001
 12
1.0
 22
0.0
 32
0.0
 13
1.0
 23
0.0
 33
0.0
 40
0.0
 40
0.0
 40
0.0
 40
0.0
 40
0.2011444612546684
 40
0.4176992383321328
 40
0.6404772753108663
 40
0.866823146036728
 40
1.0
 40
1.0
 40
1.0
 40
1.0
 10
558.5077350560551
 20
436.9860181321702
 30
0.0
 10
558.8075109100338
 20
437.4195236937578
 30
0.0
 10
559.4300293979713
 20
438.3197470544129
 30
0.0
 10
560.1708520154261
 20
439.8920752901161
 30
0.0
 10
560.7071489326308
 20
441.6226909869289
 30
0.0
 10
560.98931904168
 20
443.2009674753494
 30
0.0
 10
560.9746432142268
 20
444.187636314607
 30
0.0
 10
560.9692068943635
 20
444.5531248995902
 30
0.0
  0
SPLINE
  5
18E
330
1F
100
AcDbEntity
  8
0
  6
Continuous
 62
     7
370
    40
100
AcDbSpline
210
0.0
220
0.0
230
1.0
 70
     8
 71
     3
 72
    13
 73
     9
 74
     0
 42
0.00000001
 43
0.00000001
 12
1.0
 22
0.0
 32
0.0
 13
1.0
 23
0.0
 33
0.0
 40
0.0
 40
0.0
 40
0.0
 40
0.0
 40
0.0884128733638282
 40
0.3160826934339829
 40
0.5334884499556745
 40
0.740821865092129
 40
0.9372498407813304
 40
1.0
 40
1.0
 40
1.0
 40
1.0
 10
89.993345919884
 20
444.3666526353035
 30
0.0
 10
89.98695367273918
 20
444.1302169682588
 30
0.0
 10
89.96410090687198
 20
443.2849416184145
 30
0.0
 10
90.20580394850978
 20
441.8727982078482
 30
0.0
 10
90.67371440315368
 20
440.2016415449164
 30
0.0
 10
91.34437856584407
 20
438.7103729789458
 30
0.0
 10
91.95341726268697
 20
437.6478794478447
 30
0.0
 10
92.35313969214853
 20
437.1394022927266
 30
0.0
 10
92.4499173238762
 20
437.0162938273691
 30
0.0
  0
LINE
  5
18F
330
1F
100
AcDbEntity
  8
0
  6
Continuous
 62
     7
370
    40
100
AcDbLine
 10
561.0037191581
 20
444.5030555151
 30
0.0
 11
561.0037191581
 21
452.5299397566
 31
0.0
  0
LINE
  5
190
330
1F
100
AcDbEntity
  8
0
  6
Continuous
 62
     7
370
    40
100
AcDbLine
 10
89.9581527631
 20
452.5299397566
 30
0.0
 11
89.9581527631
 21
444.5030555151
 31
0.0
  0
SPLINE
  5
191
330
1F
100
AcDbEntity
  8
0
  6
Continuous
 62
     7
370
    40
100
AcDbSpline
210
0.0
220
0.0
230
1.0
 70
     8
 71
     3
 72
    11
 73
     7
 74
     0
 42
0.00000001
 43
0.00000001
 12
1.0
 22
0.0
 32
0.0
 13
1.0
 23
0.0
 33
0.0
 40
0.0
 40
0.0
 40
0.0
 40
0.0
 40
0.2054677955585122
 40
0.466437839647171
 40
0.7296593676841902
 40
1.0
 40
1.0
 40
1.0
 40
1.0
 10
94.39011346060812
 20
462.0786784091392
 30
0.0
 10
94.02596931524086
 20
461.7587969928319
 30
0.0
 10
93.19931612599734
 20
461.0326257874611
 30
0.0
 10
92.13118018124317
 20
459.6599485582597
 30
0.0
 10
91.15400338462271
 20
458.0340747870673
 30
0.0
 10
90.73588025965081
 20
456.8324153083158
 30
0.0
 10
90.52402927322412
 20
456.2235689405389
 30
0.0
  0
SPLINE
  5
192
330
1F
100
AcDbEntity
  8
0
  6
Continuous
 62
     7
370
    40
100
AcDbSpline
210
0.0
220
0.0
230
1.0
 70
     8
 71
     3
 72
     9
 73
     5
 74
     0
 42
0.00000001
 43
0.00000001
 12
1.0
 22
0.0
 32
0.0
 13
1.0
 23
0.0
 33
0.0
 40
0.0
 40
0.0
 40
0.0
 40
0.0
 40
0.5060676173627571
 40
1.0
 40
1.0
 40
1.0
 40
1.0
 10
163.7816490227076
 20
452.1122425532411
 30
0.0
 10
161.1780404614472
 20
452.7104289525706
 30
0.0
 10
156.0332564999117
 20
453.8924575566666
 30
0.0
 10
151.1679886537525
 20
454.972911897459
 30
0.0
 10
148.7648753143307
 20
455.5065832843374
 30
0.0
  0
SPLINE
  5
193
330
1F
100
AcDbEntity
  8
0
  6
Continuous
 62
     7
370
    40
100
AcDbSpline
210
0.0
220
0.0
230
1.0
 70
     8
 71
     3
 72
    14
 73
    10
 74
     0
 42
0.00000001
 43
0.00000001
 12
1.0
 22
0.0
 32
0.0
 13
1.0
 23
0.0
 33
0.0
 40
0.0
 40
0.0
 40
0.0
 40
0.0
 40
0.0920120384680668
 40
0.3804993631620759
 40
0.6237499175397775
 40
0.8108362022513049
 40
0.9460993206930156
 40
0.9977224524823319
 40
1.0
 40
1.0
 40
1.0
 40
1.0
 10
106.0355248187644
 20
464.7008744585863
 30
0.0
 10
105.8817948023561
 20
464.7269748698116
 30
0.0
 10
105.2460717565881
 20
464.8349084621416
 30
0.0
 10
104.5875516280185
 20
464.9643923907844
 30
0.0
 10
103.6913917699762
 20
465.0690088934152
 30
0.0
 10
102.8891108136723
 20
465.1187619444126
 30
0.0
 10
102.0739402364428
 20
465.0847111714581
 30
0.0
 10
101.5364716004
 20
465.0508564375386
 30
0.0
 10
101.3212029972517
 20
465.0154607611088
 30
0.0
 10
101.3121069250123
 20
465.0139651336692
 30
0.0
  0
LINE
  5
194
330
1F
100
AcDbEntity
  8
0
  6
Continuous
 62
     7
370
    40
100
AcDbLine
 10
94.3424181588
 20
462.0411911962
 30
0.0
 11
94.0899165252
 21
461.84875736
 31
0.0
  0
SPLINE
  5
195
330
1F
100
AcDbEntity
  8
0
  6
Continuous
 62
     7
370
    40
100
AcDbSpline
210
0.0
220
0.0
230
1.0
 70
     8
 71
     3
 72
    12
 73
     8
 74
     0
 42
0.00000001
 43
0.00000001
 12
1.0
 22
0.0
 32
0.0
 13
1.0
 23
0.0
 33
0.0
 40
0.0
 40
0.0
 40
0.0
 40
0.0
 40
0.1746369866375111
 40
0.3627160581700715
 40
0.5634758648945554
 40
0.7775543336327473
 40
1.0
 40
1.0
 40
1.0
 40
1.0
 10
116.3864187679837
 20
462.8576481302611
 30
0.0
 10
115.6795480965854
 20
463.0075122587239
 30
0.0
 10
114.211397800922
 20
463.3187757944947
 30
0.0
 10
112.1816900790065
 20
463.6800908010055
 30
0.0
 10
110.2414973590974
 20
464.0063387687952
 30
0.0
 10
108.4505945743499
 20
464.2960125126166
 30
0.0
 10
107.4772325635567
 20
464.4571339130551
 30
0.0
 10
106.9812229647859
 20
464.5392387828762
 30
0.0
  0
SPLINE
  5
196
330
1F
100
AcDbEntity
  8
0
  6
Continuous
 62
     7
370
    40
100
AcDbSpline
210
0.0
220
0.0
230
1.0
 70
     8
 71
     3
 72
    12
 73
     8
 74
     0
 42
0.00000001
 43
0.00000001
 12
1.0
 22
0.0
 32
0.0
 13
1.0
 23
0.0
 33
0.0
 40
0.0
 40
0.0
 40
0.0
 40
0.0
 40
0.2215585790562707
 40
0.4362017073276502
 40
0.6368461389273259
 40
0.8244779732970472
 40
1.0
 40
1.0
 40
1.0
 40
1.0
 10
543.9803073916216
 20
464.539855922603
 30
0.0
 10
543.4874107142324
 20
464.4582000647252
 30
0.0
 10
542.5170020163198
 20
464.2974370522014
 30
0.0
 10
540.7290658508709
 20
464.0081134872368
 30
0.0
 10
538.7892491526914
 20
463.682016420711
 30
0.0
 10
536.7550478418186
 20
463.3200424699245
 30
0.0
 10
535.2877758895687
 20
463.0087860609892
 30
0.0
 10
534.578603898329
 20
462.8583474684896
 30
0.0
  0
LINE
  5
197
330
1F
100
AcDbEntity
  8
0
  6
Continuous
 62
     7
370
    40
100
AcDbLine
 10
556.8719635615
 20
461.8487499567
 30
0.0
 11
556.6196945101
 21
462.040949717
 31
0.0
  0
SPLINE
  5
198
330
1F
100
AcDbEntity
  8
0
  6
Continuous
 62
     7
370
    40
100
AcDbSpline
210
0.0
220
0.0
230
1.0
 70
     8
 71
     3
 72
    14
 73
    10
 74
     0
 42
0.00000001
 43
0.00000001
 12
1.0
 22
0.0
 32
0.0
 13
1.0
 23
0.0
 33
0.0
 40
0.0
 40
0.0
 40
0.0
 40
0.0
 40
0.0030441072118008
 40
0.0545488162500042
 40
0.1889276255629978
 40
0.3739080568717891
 40
0.6140273861166088
 40
0.90173480450481
 40
1.0
 40
1.0
 40
1.0
 40
1.0
 10
549.6546226932628
 20
465.0139162847847
 30
0.0
 10
549.6428155499337
 20
465.0157027259989
 30
0.0
 10
549.4312376891424
 20
465.0477148224061
 30
0.0
 10
548.8803948007264
 20
465.0894261083149
 30
0.0
 10
548.079901730693
 20
465.1169304163383
 30
0.0
 10
547.2770884067485
 20
465.0711869205772
 30
0.0
 10
546.3915599757836
 20
464.9669182288015
 30
0.0
 10
545.7302677934398
 20
464.8378464220578
 30
0.0
 10
545.085671928829
 20
464.728439687615
 30
0.0
 10
544.9215635533304
 20
464.700585705851
 30
0.0
  0
SPLINE
  5
199
330
1F
100
AcDbEntity
  8
0
  6
Continuous
 62
     7
370
    40
100
AcDbSpline
210
0.0
220
0.0
230
1.0
 70
     8
 71
     3
 72
     9
 73
     5
 74
     0
 42
0.00000001
 43
0.00000001
 12
1.0
 22
0.0
 32
0.0
 13
1.0
 23
0.0
 33
0.0
 40
0.0
 40
0.0
 40
0.0
 40
0.0
 40
0.4954028275594082
 40
1.0
 40
1.0
 40
1.0
 40
1.0
 10
502.1940006126538
 20
455.5059215936952
 30
0.0
 10
499.7835561604736
 20
454.9707680161462
 30
0.0
 10
494.9179310205137
 20
453.8905287688544
 30
0.0
 10
489.7752202247271
 20
452.7086268962317
 30
0.0
 10
487.1802228984935
 20
452.1122425532041
 30
0.0
  0
LINE
  5
19A
330
1F
100
AcDbEntity
  8
0
  6
Continuous
 62
     7
370
    40
100
AcDbLine
 10
487.0720556273
 20
452.2550892353
 30
0.0
 11
486.7431893708
 21
452.1856316481
 31
0.0
  0
SPLINE
  5
19B
330
1F
100
AcDbEntity
  8
0
  6
Continuous
 62
     7
370
    40
100
AcDbSpline
210
0.0
220
0.0
230
1.0
 70
     8
 71
     3
 72
    28
 73
    24
 74
     0
 42
0.00000001
 43
0.00000001
 12
1.0
 22
0.0
 32
0.0
 13
1.0
 23
0.0
 33
0.0
 40
0.0
 40
0.0
 40
0.0
 40
0.0
 40
0.0255992704577293
 40
0.0746240280161451
 40
0.123649377601316
 40
0.1726747220376656
 40
0.2217000618482819
 40
0.2707253975837269
 40
0.3197507298008562
 40
0.3687760590622323
 40
0.4178013859350188
 40
0.4668267109901732
 40
0.5158520348015886
 40
0.5648773579450664
 40
0.6139026808392539
 40
0.662928004027504
 40
0.7119533280866142
 40
0.7609786535920894
 40
0.8100039811170893
 40
0.8590293112316114
 40
0.908054644501533
 40
0.957079981487842
 40
1.0
 40
1.0
 40
1.0
 40
1.0
 10
485.220723183797
 20
451.8760086618582
 30
0.0
 10
482.5308749159116
 20
451.3279977310769
 30
0.0
 10
474.6897408166679
 20
449.7304997430269
 30
0.0
 10
461.6503600554266
 20
447.3188639460222
 30
0.0
 10
446.089313174763
 20
444.7457149137576
 30
0.0
 10
430.4789325943848
 20
442.4886972100335
 30
0.0
 10
414.8266768229122
 20
440.5434421680404
 30
0.0
 10
399.1385202240569
 20
438.91214594437
 30
0.0
 10
383.4208367871837
 20
437.5950834226285
 30
0.0
 10
367.6799091196386
 20
436.5928845065688
 30
0.0
 10
351.9220568119134
 20
435.9059239274513
 30
0.0
 10
336.1535988169466
 20
435.5344844516723
 30
0.0
 10
320.380860375671
 20
435.4787132762334
 30
0.0
 10
304.6101677440802
 20
435.7386325765417
 30
0.0
 10
288.8478471952782
 20
436.3141405592506
 30
0.0
 10
273.1002190211283
 20
437.2049966436868
 30
0.0
 10
257.3736072573467
 20
438.4108799341834
 30
0.0
 10
241.6742915103661
 20
439.9311707122781
 30
0.0
 10
226.0086747663516
 20
441.7657668580597
 30
0.0
 10
210.382645177971
 20
443.9120378359938
 30
0.0
 10
194.8039459603715
 20
446.3761937984447
 30
0.0
 10
179.918016085541
 20
449.0165071852938
 30
0.0
 10
170.2528435552076
 20
450.965991118734
 30
0.0
 10
165.7411487373869
 20
451.8760086618582
 30
0.0
  0
LINE
  5
19C
330
1F
100
AcDbEntity
  8
0
  6
Continuous
 62
     7
370
    40
100
AcDbLine
 10
86.4809359606
 20
395.7643619727
 30
0.0
 11
101.9809359606
 21
395.7643619727
 31
0.0
  0
LINE
  5
19D
330
1F
100
AcDbEntity
  8
0
  6
Continuous
 62
     7
370
    40
100
AcDbLine
 10
106.9809359606
 20
395.7643619727
 30
0.0
 11
185.6809359606
 21
395.7643619727
 31
0.0
  0
LINE
  5
19E
330
1F
100
AcDbEntity
  8
0
  6
Continuous
 62
     7
370
    40
100
AcDbLine
 10
185.6809359606
 20
471.7643619727
 30
0.0
 11
106.9809359606
 21
471.7643619727
 31
0.0
  0
LINE
  5
19F
330
1F
100
AcDbEntity
  8
0
  6
Continuous
 62
     7
370
    40
100
AcDbLine
 10
101.9809359606
 20
471.7643619727
 30
0.0
 11
100.4809359606
 21
471.7643619727
 31
0.0
  0
LINE
  5
1A0
330
1F
100
AcDbEntity
  8
0
  6
Continuous
 62
     7
370
    40
100
AcDbLine
 10
550.4809359606
 20
471.7643619727
 30
0.0
 11
548.9809359606
 21
471.7643619727
 31
0.0
  0
LINE
  5
1A1
330
1F
100
AcDbEntity
  8
0
  6
Continuous
 62
     7
370
    40
100
AcDbLine
 10
543.9809359606
 20
471.7643619727
 30
0.0
 11
465.2809359606
 21
471.7643619727
 31
0.0
  0
LINE
  5
1A2
330
1F
100
AcDbEntity
  8
0
  6
Continuous
 62
     7
370
    40
100
AcDbLine
 10
465.2809359606
 20
395.7643619727
 30
0.0
 11
543.9809359606
 21
395.7643619727
 31
0.0
  0
LINE
  5
1A3
330
1F
100
AcDbEntity
  8
0
  6
Continuous
 62
     7
370
    40
100
AcDbLine
 10
548.9809359606
 20
395.7643619727
 30
0.0
 11
564.4809359606
 21
395.7643619727
 31
0.0
  0
SPLINE
  5
1A4
330
1F
100
AcDbEntity
  8
0
  6
Continuous
 62
     7
370
    40
100
AcDbSpline
210
0.0
220
0.0
230
1.0
 70
     8
 71
     3
 72
    19
 73
    15
 74
     0
 42
0.00000001
 43
0.00000001
 12
1.0
 22
0.0
 32
0.0
 13
1.0
 23
0.0
 33
0.0
 40
0.0
 40
0.0
 40
0.0
 40
0.0
 40
0.0843477161246714
 40
0.1687277955729365
 40
0.25234604419523
 40
0.3358745981089695
 40
0.4197249827061964
 40
0.5027477550671482
 40
0.5861925571918171
 40
0.6691531539326693
 40
0.7517815810244701
 40
0.8349111221664406
 40
0.917273245476963
 40
1.0
 40
1.0
 40
1.0
 40
1.0
 10
545.0189881705961
 20
456.4338766142763
 30
0.0
 10
544.9234194748199
 20
456.3133535061709
 30
0.0
 10
544.7322454145728
 20
456.0722610465226
 30
0.0
 10
543.1970833072907
 20
455.3555835288893
 30
0.0
 10
540.7822249482621
 20
454.4016726309235
 30
0.0
 10
537.4390277456656
 20
453.2098345892711
 30
0.0
 10
533.243205164328
 20
451.8184631086062
 30
0.0
 10
528.2476447211857
 20
450.260271419075
 30
0.0
 10
522.5510652913667
 20
448.5816785455971
 30
0.0
 10
516.2364717349167
 20
446.8231951548844
 30
0.0
 10
509.4099518300916
 20
445.0279226358381
 30
0.0
 10
502.1942591477302
 20
443.2435863325276
 30
0.0
 10
494.6969841245397
 20
441.4957132727154
 30
0.0
 10
489.6081507520817
 20
440.4073046704893
 30
0.0
 10
487.0581142218412
 20
439.8618983872877
 30
0.0
  0
SPLINE
  5
1A5
330
1F
100
AcDbEntity
  8
0
  6
Continuous
 62
     7
370
    40
100
AcDbSpline
210
0.0
220
0.0
230
1.0
 70
     8
 71
     3
 72
    19
 73
    15
 74
     0
 42
0.00000001
 43
0.00000001
 12
1.0
 22
0.0
 32
0.0
 13
1.0
 23
0.0
 33
0.0
 40
0.0
 40
0.0
 40
0.0
 40
0.0
 40
0.083038826547618
 40
0.1661989879031423
 40
0.2487848074521453
 40
0.3315112043938173
 40
0.414861966095449
 40
0.4977142959527479
 40
0.5813247913282396
 40
0.6647988382714287
 40
0.7482257171050997
 40
0.8324019882926904
 40
0.9159719877767019
 40
1.0
 40
1.0
 40
1.0
 40
1.0
 10
163.9037576993431
 20
439.8618983872877
 30
0.0
 10
161.3441039483994
 20
440.4094076137167
 30
0.0
 10
156.2210563274727
 20
441.5052260769982
 30
0.0
 10
148.7080383771863
 20
443.2578321767461
 30
0.0
 10
141.4859673737279
 20
445.0448562836531
 30
0.0
 10
134.6643606307235
 20
446.8396228754248
 30
0.0
 10
128.3581801030485
 20
448.5968158193084
 30
0.0
 10
122.6592800205587
 20
450.2769254218618
 30
0.0
 10
117.6779831747535
 20
451.8315180460696
 30
0.0
 10
113.4890967614547
 20
453.2215100545341
 30
0.0
 10
110.1515162276731
 20
454.4120722362698
 30
0.0
 10
107.7495214071817
 20
455.3621611095243
 30
0.0
 10
106.2268116045194
 20
456.074673514618
 30
0.0
 10
106.0376986382058
 20
456.3139243057779
 30
0.0
 10
105.942883750588
 20
456.4338766142761
 30
0.0
  0
SPLINE
  5
1A6
330
1F
100
AcDbEntity
  8
0
  6
Continuous
 62
     7
370
    40
100
AcDbSpline
210
0.0
220
0.0
230
1.0
 70
     8
 71
     3
 72
    13
 73
     9
 74
     0
 42
0.00000001
 43
0.00000001
 12
1.0
 22
0.0
 32
0.0
 13
1.0
 23
0.0
 33
0.0
 40
0.0
 40
0.0
 40
0.0
 40
0.0
 40
0.1806362214816136
 40
0.3596682401061526
 40
0.5387885343257275
 40
0.7182451936448208
 40
0.8960671250495805
 40
1.0
 40
1.0
 40
1.0
 40
1.0
 10
507.7328020073016
 20
418.896215777029
 30
0.0
 10
510.246303738449
 20
419.5090923210761
 30
0.0
 10
515.2509851734932
 20
420.7294025456354
 30
0.0
 10
522.2752285653803
 20
422.5790440857419
 30
0.0
 10
528.8022730418002
 20
424.3893963181688
 30
0.0
 10
534.6489635250672
 20
426.1089374259388
 30
0.0
 10
539.1822733704693
 20
427.5082027690947
 30
0.0
 10
541.3914666737645
 20
428.2436875351949
 30
0.0
 10
542.2063873287232
 20
428.5149909681758
 30
0.0
  0
LINE
  5
1A7
330
1F
100
AcDbEntity
  8
0
  6
Continuous
 62
     7
370
    40
100
AcDbLine
 10
492.1909955219
 20
415.4356558091
 30
0.0
 11
492.2093376055
 21
415.5791770313
 31
0.0
  0
LINE
  5
1A8
330
1F
100
AcDbEntity
  8
0
  6
Continuous
 62
     7
370
    40
100
AcDbLine
 10
558.4746948794
 20
437.0082047792
 30
0.0
 11
558.7976525722
 21
437.4869913072
 31
0.0
  0
LINE
  5
1A9
330
1F
100
AcDbEntity
  8
0
  6
Continuous
 62
     7
370
    40
100
AcDbLine
 10
158.7525343157
 20
415.5791770315
 30
0.0
 11
158.7710796754
 21
415.434065235
 31
0.0
  0
SPLINE
  5
1AA
330
1F
100
AcDbEntity
  8
0
  6
Continuous
 62
     7
370
    40
100
AcDbSpline
210
0.0
220
0.0
230
1.0
 70
     8
 71
     3
 72
    13
 73
     9
 74
     0
 42
0.00000001
 43
0.00000001
 12
1.0
 22
0.0
 32
0.0
 13
1.0
 23
0.0
 33
0.0
 40
0.0
 40
0.0
 40
0.0
 40
0.0
 40
0.10187759739557
 40
0.2813967826876602
 40
0.4600154768974956
 40
0.6404183646788281
 40
0.8201037946504092
 40
1.0
 40
1.0
 40
1.0
 40
1.0
 10
108.7567378488643
 20
428.5145335471919
 30
0.0
 10
109.5523133481893
 20
428.2495416404207
 30
0.0
 10
111.7497776741879
 20
427.5176057496069
 30
0.0
 10
116.2564628516828
 20
426.1259985472373
 30
0.0
 10
122.1051472411674
 20
424.4050050378646
 30
0.0
 10
128.6238142646062
 20
422.5959167977819
 30
0.0
 10
135.6427639820964
 20
420.7468871638794
 30
0.0
 10
140.6313321032022
 20
419.5296299823772
 30
0.0
 10
143.127078234156
 20
418.9206446328022
 30
0.0
  0
LINE
  5
1AB
330
1F
100
AcDbEntity
  8
0
  6
Continuous
 62
     7
370
    40
100
AcDbLine
 10
92.1644578255
 20
437.4866377645
 30
0.0
 11
92.4716746465
 21
437.0311871641
 31
0.0
  0
LINE
  5
1AC
330
1F
100
AcDbEntity
  8
0
  6
Continuous
 62
     7
370
    40
100
AcDbLine
 10
114.9040832135
 20
453.7569263614
 30
0.0
 11
114.9040832135
 21
452.7864522293
 31
0.0
  0
SPLINE
  5
1AD
330
1F
100
AcDbEntity
  8
0
  6
Continuous
 62
     7
370
    40
100
AcDbSpline
210
0.0
220
0.0
230
1.0
 70
     8
 71
     3
 72
    21
 73
    17
 74
     0
 42
0.00000001
 43
0.00000001
 12
1.0
 22
0.0
 32
0.0
 13
1.0
 23
0.0
 33
0.0
 40
0.0
 40
0.0
 40
0.0
 40
0.0
 40
0.0711669026142995
 40
0.1425600760798616
 40
0.2137251619381453
 40
0.2848591534722505
 40
0.3562210371831716
 40
0.4273560198656203
 40
0.4983923631692974
 40
0.5696539475874505
 40
0.6406925953486856
 40
0.7120961022903773
 40
0.783725251149718
 40
0.855130494302949
 40
0.9275651664406048
 40
1.0
 40
1.0
 40
1.0
 40
1.0
 10
162.2623387455779
 20
444.0191963922521
 30
0.0
 10
160.4819326541385
 20
444.3939807809679
 30
0.0
 10
156.9154597780569
 20
445.1447411626363
 30
0.0
 10
151.64592024193
 20
446.2745803115859
 30
0.0
 10
146.5150524423601
 20
447.3872823009246
 30
0.0
 10
141.5961775373764
 20
448.4666224567479
 30
0.0
 10
136.9428937755622
 20
449.4943180571823
 30
0.0
 10
132.6114474592704
 20
450.4530063801138
 30
0.0
 10
128.6682524741249
 20
451.3220453316996
 30
0.0
 10
125.1464536659839
 20
452.0876821825933
 30
0.0
 10
122.0784717242663
 20
452.7370296216448
 30
0.0
 10
119.5219966317183
 20
453.2501381294404
 30
0.0
 10
117.4878718988421
 20
453.6213729823502
 30
0.0
 10
116.0117575288513
 20
453.8381813812837
 30
0.0
 10
115.0806143933675
 20
453.9022859866949
 30
0.0
 10
114.9629269838557
 20
453.8053796058117
 30
0.0
 10
114.9040832135328
 20
453.7569263613809
 30
0.0
  0
LWPOLYLINE
  5
1AE
330
1F
100
AcDbEntity
  8
0
  6
Continuous
 62
     7
370
    40
100
AcDbPolyline
 90
       20
 70
   128
 43
0.0
 10
488.6995331756
 20
444.0191963923
 10
471.7266042453
 20
440.6553656034
 10
454.684481356
 20
437.6612733961
 10
437.5812277342
 20
435.0383363807
 10
420.4249355296
 20
432.7877955605
 10
403.2237219862
 20
430.9107157456
 10
385.9857256019
 20
429.4079850482
 10
368.7191022779
 20
428.2803144629
 10
351.4320214597
 20
427.5282375304
 10
334.1326622721
 20
427.1521100846
 10
316.8292096491
 20
427.1521100846
 10
299.5298504614
 20
427.5282375304
 10
282.2427696432
 20
428.2803144629
 10
264.9761463192
 20
429.4079850482
 10
247.738149935
 20
430.9107157456
 10
230.5369363916
 20
432.7877955605
 10
213.380644187
 20
435.0383363807
 10
196.2773905652
 20
437.6612733961
 10
179.2352676759
 20
440.6553656034
 10
162.2623387456
 20
444.0191963923
  0
SPLINE
  5
1AF
330
1F
100
AcDbEntity
  8
0
  6
Continuous
 62
     7
370
    40
100
AcDbSpline
210
0.0
220
0.0
230
1.0
 70
     8
 71
     3
 72
    21
 73
    17
 74
     0
 42
0.00000001
 43
0.00000001
 12
1.0
 22
0.0
 32
0.0
 13
1.0
 23
0.0
 33
0.0
 40
0.0
 40
0.0
 40
0.0
 40
0.0
 40
0.0720656088730961
 40
0.1443607669850587
 40
0.2164255581917571
 40
0.2884782608057235
 40
0.3607617490768329
 40
0.4328122758753415
 40
0.5045587366201921
 40
0.5765360579666144
 40
0.6482803391997582
 40
0.7195539065983272
 40
0.7910564303075578
 40
0.8623299452927117
 40
0.9311646845806155
 40
0.9999999999999999
 40
0.9999999999999999
 40
0.9999999999999999
 40
0.9999999999999999
 10
536.0577887076515
 20
453.7569263613813
 30
0.0
 10
535.9987040986077
 20
453.8049309256263
 30
0.0
 10
535.8803466794177
 20
453.9010929621588
 30
0.0
 10
534.9482122731014
 20
453.8366204853701
 30
0.0
 10
533.480255892168
 20
453.6236555965814
 30
0.0
 10
531.4175994831166
 20
453.2459577184566
 30
0.0
 10
528.8197146390327
 20
452.7233806797479
 30
0.0
 10
525.7161752283054
 20
452.0667455066894
 30
0.0
 10
522.1305344310802
 20
451.2863221971615
 30
0.0
 10
518.1255389546762
 20
450.4033228435513
 30
0.0
 10
513.7525829724716
 20
449.4351217078745
 30
0.0
 10
509.0567709961714
 20
448.3986137308702
 30
0.0
 10
504.1113444685222
 20
447.3145522047615
 30
0.0
 10
499.0230795908478
 20
446.2109723026104
 30
0.0
 10
493.8656803439863
 20
445.1063057967205
 30
0.0
 10
490.4215870360956
 20
444.3815672047208
 30
0.0
 10
488.6995331756063
 20
444.019196392252
 30
0.0
  0
LINE
  5
1B0
330
1F
100
AcDbEntity
  8
0
  6
Continuous
 62
     7
370
    40
100
AcDbLine
 10
536.0577887077
 20
452.7848000922
 30
0.0
 11
536.0577887077
 21
453.7569263614
 31
0.0
  0
LWPOLYLINE
  5
1B1
330
1F
100
AcDbEntity
  8
0
  6
Continuous
 62
     7
370
    40
100
AcDbPolyline
 90
        3
 70
   128
 43
0.0
 10
561.0037191581
 20
452.5299397566
 10
560.9109942862
 20
454.0487257692
 10
560.4522476861
 20
456.1995779496
  0
LWPOLYLINE
  5
1B2
330
1F
100
AcDbEntity
  8
0
  6
Continuous
 62
     7
370
    40
100
AcDbPolyline
 90
        3
 70
   128
 43
0.0
 10
90.5096242351
 20
456.1995779496
 10
90.050877635
 20
454.0487257692
 10
89.9581527631
 20
452.5299397566
  0
LINE
  5
1B3
330
1F
100
AcDbEntity
  8
0
  6
Continuous
 62
     7
370
    40
100
AcDbLine
 10
543.9809359606
 20
395.714640643
 30
0.0
 11
548.9809359606
 21
395.714640643
 31
0.0
  0
LINE
  5
1B4
330
1F
100
AcDbEntity
  8
0
  6
Continuous
 62
     7
370
    40
100
AcDbLine
 10
543.9809359606
 20
428.9726397541
 30
0.0
 11
543.9809359606
 21
395.714640643
 31
0.0
  0
LINE
  5
1B5
330
1F
100
AcDbEntity
  8
0
  6
Continuous
 62
     7
370
    40
100
AcDbLine
 10
548.9809359606
 20
430.8833474919
 30
0.0
 11
548.9809359606
 21
395.714640643
 31
0.0
  0
LINE
  5
1B6
330
1F
100
AcDbEntity
  8
0
  6
Continuous
 62
     7
370
    40
100
AcDbLine
 10
106.9809359606
 20
395.714640643
 30
0.0
 11
101.9809359606
 21
395.714640643
 31
0.0
  0
LINE
  5
1B7
330
1F
100
AcDbEntity
  8
0
  6
Continuous
 62
     7
370
    40
100
AcDbLine
 10
106.9809359606
 20
428.9725785907
 30
0.0
 11
106.9809359606
 21
395.714640643
 31
0.0
  0
LINE
  5
1B8
330
1F
100
AcDbEntity
  8
0
  6
Continuous
 62
     7
370
    40
100
AcDbLine
 10
101.9809359606
 20
430.8831919914
 30
0.0
 11
101.9809359606
 21
395.714640643
 31
0.0
  0
SPLINE
  5
1B9
330
1F
100
AcDbEntity
  8
0
  6
Continuous
 62
     7
370
    40
100
AcDbSpline
210
0.0
220
0.0
230
1.0
 70
     8
 71
     3
 72
    19
 73
    15
 74
     0
 42
0.00000001
 43
0.00000001
 12
1.0
 22
0.0
 32
0.0
 13
1.0
 23
0.0
 33
0.0
 40
0.0
 40
0.0
 40
0.0
 40
0.0
 40
0.083038826547618
 40
0.1661989879031423
 40
0.2487848074521454
 40
0.3315112043938185
 40
0.4148619660954495
 40
0.4977142959527505
 40
0.5813247913282414
 40
0.6647988382714306
 40
0.7482257171051013
 40
0.8324019882926917
 40
0.9159719877767026
 40
1.0
 40
1.0
 40
1.0
 40
1.0
 10
487.0581142218412
 20
452.2512197166732
 30
0.0
 10
489.6177679727848
 20
452.791726673988
 30
0.0
 10
494.7408155937114
 20
453.8735303674542
 30
0.0
 10
502.253833543998
 20
455.5134598151063
 30
0.0
 10
509.4759045474562
 20
457.1231459525184
 30
0.0
 10
516.2975112904606
 20
458.6724052642701
 30
0.0
 10
522.6036918181358
 20
460.1216939729561
 30
0.0
 10
528.3025919006252
 20
461.4356355979534
 30
0.0
 10
533.2838887464306
 20
462.5733024180363
 30
0.0
 10
537.4727751597294
 20
463.5019685690526
 30
0.0
 10
540.8103556935109
 20
464.1947280081898
 30
0.0
 10
543.2123505140023
 20
464.6197195294751
 30
0.0
 10
544.7350603166645
 20
464.7876402068164
 30
0.0
 10
544.9241732829784
 20
464.6582505633874
 30
0.0
 10
545.0189881705961
 20
464.5933789433194
 30
0.0
  0
SPLINE
  5
1BA
330
1F
100
AcDbEntity
  8
0
  6
Continuous
 62
     7
370
    40
100
AcDbSpline
210
0.0
220
0.0
230
1.0
 70
     8
 71
     3
 72
    19
 73
    15
 74
     0
 42
0.00000001
 43
0.00000001
 12
1.0
 22
0.0
 32
0.0
 13
1.0
 23
0.0
 33
0.0
 40
0.0
 40
0.0
 40
0.0
 40
0.0
 40
0.0843477161246693
 40
0.1687277955729341
 40
0.2523460441952288
 40
0.3358745981089706
 40
0.4197249827061959
 40
0.5027477550671462
 40
0.5861925571918146
 40
0.6691531539326668
 40
0.7517815810244688
 40
0.8349111221664403
 40
0.9172732454769627
 40
1.0
 40
1.0
 40
1.0
 40
1.0
 10
105.942883750588
 20
464.5933789433194
 30
0.0
 10
106.0384524463645
 20
464.6583832528818
 30
0.0
 10
106.2296265066118
 20
464.7884168134706
 30
0.0
 10
107.7647886138939
 20
464.6174837792157
 30
0.0
 10
110.1796469729223
 20
464.1891521586882
 30
0.0
 10
113.5228441755189
 20
463.4947298113913
 30
0.0
 10
117.7186667568566
 20
462.5640890889188
 30
0.0
 10
122.7142271999987
 20
461.4230074305699
 30
0.0
 10
128.4108066298175
 20
460.1095467685333
 30
0.0
 10
134.7254001862676
 20
458.658463826101
 30
0.0
 10
141.5519200910926
 20
457.1082701833242
 30
0.0
 10
148.7676127734541
 20
455.5003320704623
 30
0.0
 10
156.2648877966446
 20
453.8642228177785
 30
0.0
 10
161.3537211691026
 20
452.7896785310793
 30
0.0
 10
163.9037576993431
 20
452.2512197166732
 30
0.0
  0
LINE
  5
1BB
330
1F
100
AcDbEntity
  8
0
  6
Continuous
 62
     7
370
    40
100
AcDbLine
 10
560.4189705623
 20
456.2694355818
 30
0.0
 11
560.4410211825
 21
456.2231453998
 31
0.0
  0
SPLINE
  5
1BC
330
1F
100
AcDbEntity
  8
0
  6
Continuous
 62
     7
370
    40
100
AcDbSpline
210
0.0
220
0.0
230
1.0
 70
     8
 71
     3
 72
    13
 73
     9
 74
     0
 42
0.00000001
 43
0.00000001
 12
1.0
 22
0.0
 32
0.0
 13
1.0
 23
0.0
 33
0.0
 40
0.0
 40
0.0
 40
0.0
 40
0.0
 40
0.0456464291356551
 40
0.2365171433085235
 40
0.4273878574813934
 40
0.6182585716542612
 40
0.8091292858271281
 40
0.9999999999999999
 40
0.9999999999999999
 40
0.9999999999999999
 40
0.9999999999999999
 10
556.8400153730362
 20
461.8199594020913
 30
0.0
 10
556.7059119478622
 20
461.9590029402339
 30
0.0
 10
556.0110545487044
 20
462.6794575532177
 30
0.0
 10
554.4443767628455
 20
463.6336397820751
 30
0.0
 10
552.2196004723962
 20
464.6024984774294
 30
0.0
 10
549.8301684768655
 20
465.0838406433928
 30
0.0
 10
547.3876283918044
 20
465.1355790064555
 30
0.0
 10
545.808534910999
 20
464.7741122976977
 30
0.0
 10
545.0189881705963
 20
464.5933789433188
 30
0.0
  0
LINE
  5
1BD
330
1F
100
AcDbEntity
  8
0
  6
Continuous
 62
     7
370
    40
100
AcDbLine
 10
90.5096242351
 20
456.1995779496
 30
0.0
 11
90.5215158016
 21
456.2245415456
 31
0.0
  0
LINE
  5
1BE
330
1F
100
AcDbEntity
  8
0
  6
Continuous
 62
     7
370
    40
100
AcDbLine
 10
94.3849693313
 20
462.0838716619
 30
0.0
 11
94.2501616858
 21
461.948654399
 31
0.0
  0
LINE
  5
1BF
330
1F
100
AcDbEntity
  8
0
  6
Continuous
 62
     7
370
    40
100
AcDbLine
 10
90.5208441208
 20
456.2231238778
 30
0.0
 11
90.5096242351
 21
456.1995779496
 31
0.0
  0
LINE
  5
1C0
330
1F
100
AcDbEntity
  8
0
  6
Continuous
 62
     7
370
    40
100
AcDbLine
 10
560.4522476861
 20
456.1995779496
 30
0.0
 11
560.4410278004
 21
456.2231238778
 31
0.0
  0
LINE
  5
1C1
330
1F
100
AcDbEntity
  8
0
  6
Continuous
 62
     7
370
    40
100
AcDbLine
 10
543.9809359606
 20
468.0586817684
 30
0.0
 11
548.9809359606
 21
468.0586817684
 31
0.0
  0
LINE
  5
1C2
330
1F
100
AcDbEntity
  8
0
  6
Continuous
 62
     7
370
    40
100
AcDbLine
 10
543.9809359606
 20
468.0586817684
 30
0.0
 11
543.9809359606
 21
464.6824643634
 31
0.0
  0
LINE
  5
1C3
330
1F
100
AcDbEntity
  8
0
  6
Continuous
 62
     7
370
    40
100
AcDbLine
 10
548.9809359606
 20
468.0586817684
 30
0.0
 11
548.9809359606
 21
465.0749801541
 31
0.0
  0
LINE
  5
1C4
330
1F
100
AcDbEntity
  8
0
  6
Continuous
 62
     7
370
    40
100
AcDbLine
 10
106.9809359606
 20
468.0586817684
 30
0.0
 11
101.9809359606
 21
468.0586817684
 31
0.0
  0
LINE
  5
1C5
330
1F
100
AcDbEntity
  8
0
  6
Continuous
 62
     7
370
    40
100
AcDbLine
 10
106.9809359606
 20
468.0586817684
 30
0.0
 11
106.9809359606
 21
464.6824710503
 31
0.0
  0
LINE
  5
1C6
330
1F
100
AcDbEntity
  8
0
  6
Continuous
 62
     7
370
    40
100
AcDbLine
 10
101.9809359606
 20
468.0586817684
 30
0.0
 11
101.9809359606
 21
465.0745070107
 31
0.0
  0
LINE
  5
1C7
330
1F
100
AcDbEntity
  8
0
  6
Continuous
 62
     7
370
    40
100
AcDbLine
 10
543.9809359606
 20
471.7911829407
 30
0.0
 11
548.9809359606
 21
471.7911829407
 31
0.0
  0
LINE
  5
1C8
330
1F
100
AcDbEntity
  8
0
  6
Continuous
 62
     7
370
    40
100
AcDbLine
 10
543.9809359606
 20
471.7911829407
 30
0.0
 11
543.9809359606
 21
468.0586817684
 31
0.0
  0
LINE
  5
1C9
330
1F
100
AcDbEntity
  8
0
  6
Continuous
 62
     7
370
    40
100
AcDbLine
 10
548.9809359606
 20
471.7911829407
 30
0.0
 11
548.9809359606
 21
468.0586817684
 31
0.0
  0
LINE
  5
1CA
330
1F
100
AcDbEntity
  8
0
  6
Continuous
 62
     7
370
    40
100
AcDbLine
 10
106.9809359606
 20
471.7911829407
 30
0.0
 11
101.9809359606
 21
471.7911829407
 31
0.0
  0
LINE
  5
1CB
330
1F
100
AcDbEntity
  8
0
  6
Continuous
 62
     7
370
    40
100
AcDbLine
 10
106.9809359606
 20
471.7911829407
 30
0.0
 11
106.9809359606
 21
468.0586817684
 31
0.0
  0
LINE
  5
1CC
330
1F
100
AcDbEntity
  8
0
  6
Continuous
 62
     7
370
    40
100
AcDbLine
 10
101.9809359606
 20
471.7911829407
 30
0.0
 11
101.9809359606
 21
468.0586817684
 31
0.0
  0
LINE
  5
1CD
330
1F
100
AcDbEntity
  8
0
  6
Continuous
 62
     7
370
    40
100
AcDbLine
 10
134.4809359606
 20
491.7643619727
 30
0.0
 11
134.4809359606
 21
496.7643619727
 31
0.0
  0
LINE
  5
1CE
330
1F
100
AcDbEntity
  8
0
  6
Continuous
 62
     7
370
    40
100
AcDbLine
 10
119.4809359606
 20
491.7643619727
 30
0.0
 11
134.4809359606
 21
491.7643619727
 31
0.0
  0
LINE
  5
1CF
330
1F
100
AcDbEntity
  8
0
  6
Continuous
 62
     7
370
    40
100
AcDbLine
 10
119.4809359606
 20
496.7643619727
 30
0.0
 11
134.4809359606
 21
496.7643619727
 31
0.0
  0
LINE
  5
1D0
330
1F
100
AcDbEntity
  8
0
  6
Continuous
 62
     7
370
    40
100
AcDbLine
 10
103.4809359606
 20
491.7643619727
 30
0.0
 11
119.4809359606
 21
491.7643619727
 31
0.0
  0
ARC
  5
1D1
330
1F
100
AcDbEntity
  8
0
  6
Continuous
 62
     7
370
    40
100
AcDbCircle
 10
103.4809359606
 20
488.7643619727
 30
0.0
 40
3.000000000000014
100
AcDbArc
 50
90.0
 51
180.0
  0
LINE
  5
1D2
330
1F
100
AcDbEntity
  8
0
  6
Continuous
 62
     7
370
    40
100
AcDbLine
 10
100.4809359606
 20
488.7643619727
 30
0.0
 11
100.4809359606
 21
486.7643619727
 31
0.0
  0
LINE
  5
1D3
330
1F
100
AcDbEntity
  8
0
  6
Continuous
 62
     7
370
    40
100
AcDbLine
 10
100.4809359606
 20
486.7643619727
 30
0.0
 11
86.4809359606
 21
486.7643619727
 31
0.0
  0
LINE
  5
1D4
330
1F
100
AcDbEntity
  8
0
  6
Continuous
 62
     7
370
    40
100
AcDbLine
 10
86.4809359606
 20
490.7643619727
 30
0.0
 11
86.4809359606
 21
486.7643619727
 31
0.0
  0
ARC
  5
1D5
330
1F
100
AcDbEntity
  8
0
  6
Continuous
 62
     7
370
    40
100
AcDbCircle
 10
92.4809359606
 20
490.7643619727
 30
0.0
 40
6.000000000000057
100
AcDbArc
 50
90.0
 51
180.0
  0
LINE
  5
1D6
330
1F
100
AcDbEntity
  8
0
  6
Continuous
 62
     7
370
    40
100
AcDbLine
 10
119.4809359606
 20
496.7643619727
 30
0.0
 11
92.4809359606
 21
496.7643619727
 31
0.0
  0
LINE
  5
1D7
330
1F
100
AcDbEntity
  8
0
  6
Continuous
 62
     7
370
    40
100
AcDbLine
 10
100.4809359606
 20
486.7643619727
 30
0.0
 11
100.4809359606
 21
464.8289364942
 31
0.0
  0
LINE
  5
1D8
330
1F
100
AcDbEntity
  8
0
  6
Continuous
 62
     7
370
    40
100
AcDbLine
 10
100.4809359606
 20
431.4526670152
 30
0.0
 11
100.4809359606
 21
413.5765556649
 31
0.0
  0
LINE
  5
1D9
330
1F
100
AcDbEntity
  8
0
  6
Continuous
 62
     7
370
    40
100
AcDbLine
 10
86.4809359606
 20
486.7643619727
 30
0.0
 11
86.4809359606
 21
413.5765556649
 31
0.0
  0
LINE
  5
1DA
330
1F
100
AcDbEntity
  8
0
  6
Continuous
 62
     7
370
    40
100
AcDbLine
 10
185.6809359606
 20
471.7643619727
 30
0.0
 11
185.6809359606
 21
448.0871574499
 31
0.0
  0
LINE
  5
1DB
330
1F
100
AcDbEntity
  8
0
  6
Continuous
 62
     7
370
    40
100
AcDbLine
 10
185.6809359606
 20
410.15145363
 30
0.0
 11
185.6809359606
 21
395.7643619727
 31
0.0
  0
LINE
  5
1DC
330
1F
100
AcDbEntity
  8
0
  6
Continuous
 62
     7
370
    40
100
AcDbLine
 10
86.4809359606
 20
413.5765556649
 30
0.0
 11
86.4809359606
 21
395.7643619727
 31
0.0
  0
LINE
  5
1DD
330
1F
100
AcDbEntity
  8
0
  6
Continuous
 62
     7
370
    40
100
AcDbLine
 10
531.4809359606
 20
491.7643619727
 30
0.0
 11
516.4809359606
 21
491.7643619727
 31
0.0
  0
LINE
  5
1DE
330
1F
100
AcDbEntity
  8
0
  6
Continuous
 62
     7
370
    40
100
AcDbLine
 10
516.4809359606
 20
491.7643619727
 30
0.0
 11
516.4809359606
 21
496.7643619727
 31
0.0
  0
LINE
  5
1DF
330
1F
100
AcDbEntity
  8
0
  6
Continuous
 62
     7
370
    40
100
AcDbLine
 10
531.4809359606
 20
496.7643619727
 30
0.0
 11
516.4809359606
 21
496.7643619727
 31
0.0
  0
ARC
  5
1E0
330
1F
100
AcDbEntity
  8
0
  6
Continuous
 62
     7
370
    40
100
AcDbCircle
 10
558.4809359606
 20
490.7643619727
 30
0.0
 40
6.000000000000057
100
AcDbArc
 50
0.0
 51
90.0
  0
LINE
  5
1E1
330
1F
100
AcDbEntity
  8
0
  6
Continuous
 62
     7
370
    40
100
AcDbLine
 10
564.4809359606
 20
490.7643619727
 30
0.0
 11
564.4809359606
 21
486.7643619727
 31
0.0
  0
LINE
  5
1E2
330
1F
100
AcDbEntity
  8
0
  6
Continuous
 62
     7
370
    40
100
AcDbLine
 10
550.4809359606
 20
486.7643619727
 30
0.0
 11
564.4809359606
 21
486.7643619727
 31
0.0
  0
LINE
  5
1E3
330
1F
100
AcDbEntity
  8
0
  6
Continuous
 62
     7
370
    40
100
AcDbLine
 10
550.4809359606
 20
488.7643619727
 30
0.0
 11
550.4809359606
 21
486.7643619727
 31
0.0
  0
ARC
  5
1E4
330
1F
100
AcDbEntity
  8
0
  6
Continuous
 62
     7
370
    40
100
AcDbCircle
 10
547.4809359606
 20
488.7643619727
 30
0.0
 40
3.0
100
AcDbArc
 50
0.0
 51
90.0
  0
LINE
  5
1E5
330
1F
100
AcDbEntity
  8
0
  6
Continuous
 62
     7
370
    40
100
AcDbLine
 10
547.4809359606
 20
491.7643619727
 30
0.0
 11
531.4809359606
 21
491.7643619727
 31
0.0
  0
LINE
  5
1E6
330
1F
100
AcDbEntity
  8
0
  6
Continuous
 62
     7
370
    40
100
AcDbLine
 10
531.4809359606
 20
496.7643619727
 30
0.0
 11
558.4809359606
 21
496.7643619727
 31
0.0
  0
LINE
  5
1E7
330
1F
100
AcDbEntity
  8
0
  6
Continuous
 62
     7
370
    40
100
AcDbLine
 10
550.4809359606
 20
486.7643619727
 30
0.0
 11
550.4809359606
 21
464.822220513
 31
0.0
  0
LINE
  5
1E8
330
1F
100
AcDbEntity
  8
0
  6
Continuous
 62
     7
370
    40
100
AcDbLine
 10
550.4809359606
 20
431.4533754185
 30
0.0
 11
550.4809359606
 21
413.5765556649
 31
0.0
  0
LINE
  5
1E9
330
1F
100
AcDbEntity
  8
0
  6
Continuous
 62
     7
370
    40
100
AcDbLine
 10
564.4809359606
 20
486.7643619727
 30
0.0
 11
564.4809359606
 21
413.5765556649
 31
0.0
  0
LINE
  5
1EA
330
1F
100
AcDbEntity
  8
0
  6
Continuous
 62
     7
370
    40
100
AcDbLine
 10
465.2809359606
 20
471.7643619727
 30
0.0
 11
465.2809359606
 21
448.0773305447
 31
0.0
  0
LINE
  5
1EB
330
1F
100
AcDbEntity
  8
0
  6
Continuous
 62
     7
370
    40
100
AcDbLine
 10
465.2809359606
 20
410.1803871582
 30
0.0
 11
465.2809359606
 21
395.7643619727
 31
0.0
  0
LINE
  5
1EC
330
1F
100
AcDbEntity
  8
0
  6
Continuous
 62
     7
370
    40
100
AcDbLine
 10
564.4809359606
 20
413.5765556649
 30
0.0
 11
564.4809359606
 21
395.7643619727
 31
0.0
  0
LINE
  5
1ED
330
1F
100
AcDbEntity
  8
0
  6
Continuous
 62
     7
370
    40
100
AcDbLine
 10
647.2238726446
 20
379.2224464534
 30
0.0
 11
647.1627464736
 21
376.9604638237
 31
0.0
  0
SPLINE
  5
1EE
330
1F
100
AcDbEntity
  8
0
  6
Continuous
 62
     7
370
    40
100
AcDbSpline
210
0.0
220
0.0
230
1.0
 70
     8
 71
     3
 72
     9
 73
     5
 74
     0
 42
0.00000001
 43
0.00000001
 12
1.0
 22
0.0
 32
0.0
 13
1.0
 23
0.0
 33
0.0
 40
0.0
 40
0.0
 40
0.0
 40
0.0
 40
0.2696010884538301
 40
1.0
 40
1.0
 40
1.0
 40
1.0
 10
1118.187907433102
 20
376.9581208510327
 30
0.0
 10
1118.191307017311
 20
377.1617795750693
 30
0.0
 10
1118.203916700117
 20
377.9171872227332
 30
0.0
 10
1118.160460758947
 20
378.6717552869744
 30
0.0
 10
1118.128720586817
 20
379.2228909797836
 30
0.0
  0
SPLINE
  5
1EF
330
1F
100
AcDbEntity
  8
0
  6
Continuous
 62
     7
370
    40
100
AcDbSpline
210
0.0
220
0.0
230
1.0
 70
     8
 71
     3
 72
     9
 73
     5
 74
     0
 42
0.00000001
 43
0.00000001
 12
1.0
 22
0.0
 32
0.0
 13
1.0
 23
0.0
 33
0.0
 40
0.0
 40
0.0
 40
0.0
 40
0.0
 40
0.2695508017387145
 40
1.0
 40
1.0
 40
1.0
 40
1.0
 10
647.1603914958174
 20
146.9595287618155
 30
0.0
 10
647.1569930330058
 20
146.7559220465156
 30
0.0
 10
647.1443851580161
 20
146.0005664178679
 30
0.0
 10
647.187839047245
 20
145.2460503148426
 30
0.0
 10
647.2195799057937
 20
144.6949146323126
 30
0.0
  0
LINE
  5
1F0
330
1F
100
AcDbEntity
  8
0
  6
Continuous
 62
     7
370
    40
100
AcDbLine
 10
1118.124427848
 20
144.6953591587
 30
0.0
 11
1118.1855388702
 21
146.9567812018
 31
0.0
  0
LINE
  5
1F1
330
1F
100
AcDbEntity
  8
0
  6
Continuous
 62
     7
370
    40
100
AcDbLine
 10
1118.1969334438
 20
146.958902806
 30
0.0
 11
1118.1969334438
 21
376.958902806
 31
0.0
  0
LINE
  5
1F2
330
1F
100
AcDbEntity
  8
0
  6
Continuous
 62
     7
370
    40
100
AcDbLine
 10
647.1513670488
 20
376.958902806
 30
0.0
 11
647.1513670488
 21
146.958902806
 31
0.0
  0
SPLINE
  5
1F3
330
1F
100
AcDbEntity
  8
0
  6
Continuous
 62
     7
370
    40
100
AcDbSpline
210
0.0
220
0.0
230
1.0
 70
     8
 71
     3
 72
    13
 73
     9
 74
     0
 42
0.00000001
 43
0.00000001
 12
1.0
 22
0.0
 32
0.0
 13
1.0
 23
0.0
 33
0.0
 40
0.0
 40
0.0
 40
0.0
 40
0.0
 40
0.1698413454708051
 40
0.3380372632503816
 40
0.5062519852883235
 40
0.6753488206247107
 40
0.842747898777607
 40
1.0
 40
1.0
 40
1.0
 40
1.0
 10
1118.158501316007
 20
379.2203208084052
 30
0.0
 10
1118.029940453082
 20
381.5625741263472
 30
0.0
 10
1117.774064228456
 20
386.2243889467692
 30
0.0
 10
1116.589435205094
 20
393.1201382006935
 30
0.0
 10
1114.84300570455
 20
399.8691657096339
 30
0.0
 10
1112.474143189574
 20
406.398905348007
 30
0.0
 10
1109.637708628662
 20
412.5648620532901
 30
0.0
 10
1107.325313971137
 20
416.3559829297455
 30
0.0
 10
1106.205253605268
 20
418.1922976012581
 30
0.0
  0
SPLINE
  5
1F4
330
1F
100
AcDbEntity
  8
0
  6
Continuous
 62
     7
370
    40
100
AcDbSpline
210
0.0
220
0.0
230
1.0
 70
     8
 71
     3
 72
    13
 73
     9
 74
     0
 42
0.00000001
 43
0.00000001
 12
1.0
 22
0.0
 32
0.0
 13
1.0
 23
0.0
 33
0.0
 40
0.0
 40
0.0
 40
0.0
 40
0.0
 40
0.1581203123309848
 40
0.3248494841646857
 40
0.4919622061964354
 40
0.6609339748034717
 40
0.830130542587466
 40
1.0
 40
1.0
 40
1.0
 40
1.0
 10
659.137662758598
 20
418.1829428060371
 30
0.0
 10
658.0123897599921
 20
416.3365560975403
 30
0.0
 10
655.7005782807912
 20
412.5432561667369
 30
0.0
 10
652.8762778157745
 20
406.4007338227948
 30
0.0
 10
650.5152591480579
 20
399.8980781796423
 30
0.0
 10
648.7653084367156
 20
393.1551519753092
 30
0.0
 10
647.5749949101701
 20
386.2370938289298
 30
0.0
 10
647.3183675168087
 20
381.5623375600554
 30
0.0
 10
647.189799176639
 20
379.2203208083939
 30
0.0
  0
SPLINE
  5
1F5
330
1F
100
AcDbEntity
  8
0
  6
Continuous
 62
     7
370
    40
100
AcDbSpline
210
0.0
220
0.0
230
1.0
 70
     8
 71
     3
 72
    19
 73
    15
 74
     0
 42
0.00000001
 43
0.00000001
 12
1.0
 22
0.0
 32
0.0
 13
1.0
 23
0.0
 33
0.0
 40
0.0
 40
0.0
 40
0.0
 40
0.0
 40
0.0721894920692314
 40
0.1504812654074177
 40
0.2355022615197872
 40
0.3278111992895143
 40
0.4258990134742374
 40
0.530672445626743
 40
0.6141470007500143
 40
0.7006160633655383
 40
0.7908639712235419
 40
0.8855964318500836
 40
0.9833879485248929
 40
1.0
 40
1.0
 40
1.0
 40
1.0
 10
647.189799176604
 20
144.6974848036913
 30
0.0
 10
647.2985137062564
 20
142.6131425104503
 30
0.0
 10
647.525132560626
 20
138.2682654814183
 30
0.0
 10
648.6000180018106
 20
131.5384648199999
 30
0.0
 10
650.3830147358121
 20
124.3726437634908
 30
0.0
 10
653.0761167813104
 20
116.8960383268426
 30
0.0
 10
656.7958557770796
 20
109.2582015555365
 30
0.0
 10
661.2312266409201
 20
102.3388362162103
 30
0.0
 10
666.159468530956
 20
96.22516659973597
 30
0.0
 10
671.3650004625612
 20
90.94157755481547
 30
0.0
 10
677.3160805687635
 20
86.01291433735031
 30
0.0
 10
684.0523938158568
 20
81.67551294452649
 30
0.0
 10
689.2779518405928
 20
78.8250084410673
 30
0.0
 10
692.326006158684
 20
77.74461153202586
 30
0.0
 10
692.7686010536677
 20
77.58773173048846
 30
0.0
  0
SPLINE
  5
1F6
330
1F
100
AcDbEntity
  8
0
  6
Continuous
 62
     7
370
    40
100
AcDbSpline
210
0.0
220
0.0
230
1.0
 70
     8
 71
     3
 72
    21
 73
    17
 74
     0
 42
0.00000001
 43
0.00000001
 12
1.0
 22
0.0
 32
0.0
 13
1.0
 23
0.0
 33
0.0
 40
0.0
 40
0.0
 40
0.0
 40
0.0
 40
0.0061341707381026
 40
0.0788171024026407
 40
0.1578053582620501
 40
0.2419119986489783
 40
0.3318373042114277
 40
0.4036676881122491
 40
0.4782238645899538
 40
0.5561138405370091
 40
0.6380697337397851
 40
0.7228324159538896
 40
0.8111436862636935
 40
0.8725644538076338
 40
0.9354067661605163
 40
1.0
 40
1.0
 40
1.0
 40
1.0
 10
1059.607459918158
 20
73.61398213617078
 30
0.0
 10
1059.806183570118
 20
73.64572838501556
 30
0.0
 10
1062.359555997316
 20
74.05363149905128
 30
0.0
 10
1067.34464311436
 20
75.51587974608101
 30
0.0
 10
1074.59996397531
 20
78.19550281172913
 30
0.0
 10
1082.001866403245
 20
82.00787057759743
 30
0.0
 10
1088.720497041419
 20
86.53426636880332
 30
0.0
 10
1094.664875285638
 20
91.58129482655937
 30
0.0
 10
1099.818049200854
 20
96.92109791913435
 30
0.0
 10
1104.614721594018
 20
103.045809296914
 30
0.0
 10
1108.923584234841
 20
109.9580406575395
 30
0.0
 10
1112.602717930604
 20
117.6419074747941
 30
0.0
 10
1115.171288593699
 20
125.0695486665351
 30
0.0
 10
1116.818731068147
 20
132.0005683164913
 30
0.0
 10
1117.819258130741
 20
138.2630610700765
 30
0.0
 10
1118.044389179299
 20
142.5331204996674
 30
0.0
 10
1118.15850131597
 20
144.6974848037032
 30
0.0
  0
SPLINE
  5
1F7
330
1F
100
AcDbEntity
  8
0
  6
Continuous
 62
     7
370
    40
100
AcDbSpline
210
0.0
220
0.0
230
1.0
 70
     8
 71
     3
 72
    17
 73
    13
 74
     0
 42
0.00000001
 43
0.00000001
 12
1.0
 22
0.0
 32
0.0
 13
1.0
 23
0.0
 33
0.0
 40
0.0
 40
0.0
 40
0.0
 40
0.0
 40
0.1017452346460592
 40
0.2166327107685034
 40
0.3009974483698166
 40
0.3921526279062162
 40
0.4893963270857997
 40
0.5921544466312185
 40
0.7012279412775423
 40
0.8174886384404475
 40
0.9392730012976221
 40
1.0
 40
1.0
 40
1.0
 40
1.0
 10
717.6990564707347
 20
451.7133923302925
 30
0.0
 10
715.6130731443436
 20
451.5951458828263
 30
0.0
 10
711.1716639305757
 20
451.3433793156504
 30
0.0
 10
705.0777690203188
 20
450.2760149621042
 30
0.0
 10
699.3094344180603
 20
448.7906049961161
 30
0.0
 10
694.0115745015756
 20
446.9817119460517
 30
0.0
 10
688.5270922611064
 20
444.6013656438458
 30
0.0
 10
682.9391389378623
 20
441.5785588029982
 30
0.0
 10
677.3076339936754
 20
437.84347680183
 30
0.0
 10
671.7761161471672
 20
433.302637595883
 30
0.0
 10
667.3192080198021
 20
429.0065651113428
 30
0.0
 10
664.9818660173635
 20
426.030377260567
 30
0.0
 10
664.204162297791
 20
425.0401103850821
 30
0.0
  0
SPLINE
  5
1F8
330
1F
100
AcDbEntity
  8
0
  6
Continuous
 62
     7
370
    40
100
AcDbSpline
210
0.0
220
0.0
230
1.0
 70
     8
 71
     3
 72
    17
 73
    13
 74
     0
 42
0.00000001
 43
0.00000001
 12
1.0
 22
0.0
 32
0.0
 13
1.0
 23
0.0
 33
0.0
 40
0.0
 40
0.0
 40
0.0
 40
0.0
 40
0.0138871620642444
 40
0.0982903700018094
 40
0.1884904485968545
 40
0.2850432389748763
 40
0.3886297680345639
 40
0.4979085028393137
 40
0.6130081328527198
 40
0.7351633333440848
 40
0.8642999963255337
 40
1.0
 40
1.0
 40
1.0
 40
1.0
 10
1101.199677519175
 20
425.0806361132852
 30
0.0
 10
1101.027414942339
 20
425.311410825973
 30
0.0
 10
1099.80817717897
 20
426.9447850022243
 30
0.0
 10
1097.121397745767
 20
429.7815922298236
 30
0.0
 10
1093.116524078622
 20
433.6932306915621
 30
0.0
 10
1088.473740990645
 20
437.4795821928256
 30
0.0
 10
1083.220642712071
 20
441.0838380526479
 30
0.0
 10
1077.331777093577
 20
444.3723296737722
 30
0.0
 10
1070.810777793617
 20
447.23415257163
 30
0.0
 10
1063.645758238304
 20
449.5240774542987
 30
0.0
 10
1055.861255903639
 20
451.1801057059637
 30
0.0
 10
1050.431436328165
 20
451.5327172453685
 30
0.0
 10
1047.649244022063
 20
451.7133923301183
 30
0.0
  0
LINE
  5
1F9
330
1F
100
AcDbEntity
  8
0
  6
Continuous
 62
     7
370
    40
100
AcDbLine
 10
643.6741502463
 20
471.958902806
 30
0.0
 11
659.1741502463
 21
471.958902806
 31
0.0
  0
LINE
  5
1FA
330
1F
100
AcDbEntity
  8
0
  6
Continuous
 62
     7
370
    40
100
AcDbLine
 10
664.1741502463
 20
471.958902806
 30
0.0
 11
742.8741502463
 21
471.958902806
 31
0.0
  0
LINE
  5
1FB
330
1F
100
AcDbEntity
  8
0
  6
Continuous
 62
     7
370
    40
100
AcDbLine
 10
742.8741502463
 20
547.958902806
 30
0.0
 11
657.6741502463
 21
547.958902806
 31
0.0
  0
LINE
  5
1FC
330
1F
100
AcDbEntity
  8
0
  6
Continuous
 62
     7
370
    40
100
AcDbLine
 10
742.8741502463
 20
497.958902806
 30
0.0
 11
744.8741502463
 21
497.958902806
 31
0.0
  0
LINE
  5
1FD
330
1F
100
AcDbEntity
  8
0
  6
Continuous
 62
     7
370
    40
100
AcDbLine
 10
744.8741502463
 20
521.958902806
 30
0.0
 11
742.8741502463
 21
521.958902806
 31
0.0
  0
LINE
  5
1FE
330
1F
100
AcDbEntity
  8
0
  6
Continuous
 62
     7
370
    40
100
AcDbLine
 10
1107.6741502463
 20
547.958902806
 30
0.0
 11
1022.4741502463
 21
547.958902806
 31
0.0
  0
LINE
  5
1FF
330
1F
100
AcDbEntity
  8
0
  6
Continuous
 62
     7
370
    40
100
AcDbLine
 10
1022.4741502463
 20
471.958902806
 30
0.0
 11
1101.1741502463
 21
471.958902806
 31
0.0
  0
LINE
  5
200
330
1F
100
AcDbEntity
  8
0
  6
Continuous
 62
     7
370
    40
100
AcDbLine
 10
1106.1741502463
 20
471.958902806
 30
0.0
 11
1121.6741502463
 21
471.958902806
 31
0.0
  0
LINE
  5
201
330
1F
100
AcDbEntity
  8
0
  6
Continuous
 62
     7
370
    40
100
AcDbLine
 10
1022.4741502463
 20
521.958902806
 30
0.0
 11
1020.4741502463
 21
521.958902806
 31
0.0
  0
LINE
  5
202
330
1F
100
AcDbEntity
  8
0
  6
Continuous
 62
     7
370
    40
100
AcDbLine
 10
1020.4741502463
 20
497.958902806
 30
0.0
 11
1022.4741502463
 21
497.958902806
 31
0.0
  0
SPLINE
  5
203
330
1F
100
AcDbEntity
  8
0
  6
Continuous
 62
     7
370
    40
100
AcDbSpline
210
0.0
220
0.0
230
1.0
 70
     8
 71
     3
 72
    19
 73
    15
 74
     0
 42
0.00000001
 43
0.00000001
 12
1.0
 22
0.0
 32
0.0
 13
1.0
 23
0.0
 33
0.0
 40
0.0
 40
0.0
 40
0.0
 40
0.0
 40
0.0843477161246693
 40
0.1687277955729343
 40
0.2523460441952295
 40
0.3358745981089714
 40
0.419724982706196
 40
0.5027477550671468
 40
0.586192557191814
 40
0.6691531539326672
 40
0.7517815810244688
 40
0.8349111221664396
 40
0.9172732454769628
 40
1.0
 40
1.0
 40
1.0
 40
1.0
 10
663.1360980363014
 20
378.8589028060484
 30
0.0
 10
663.231666732078
 20
381.5169270642408
 30
0.0
 10
663.4228407923254
 20
386.833995436327
 30
0.0
 10
664.9580028996074
 20
394.6527970659123
 30
0.0
 10
667.3728612586361
 20
402.1826947306095
 30
0.0
 10
670.7160584612324
 20
409.3090968474605
 30
0.0
 10
674.9118810425703
 20
415.9099192335235
 30
0.0
 10
679.9074414857122
 20
421.8857938247539
 30
0.0
 10
685.604020915531
 20
427.1169897722754
 30
0.0
 10
691.9186144719812
 20
431.5210711677883
 30
0.0
 10
698.745134376806
 20
435.0322804892105
 30
0.0
 10
705.9608270591676
 20
437.5595116403113
 30
0.0
 10
713.458102082358
 20
439.1607354069649
 30
0.0
 10
718.546935454816
 20
439.359367433739
 30
0.0
 10
721.0969719850566
 20
439.4589028060486
 30
0.0
  0
SPLINE
  5
204
330
1F
100
AcDbEntity
  8
0
  6
Continuous
 62
     7
370
    40
100
AcDbSpline
210
0.0
220
0.0
230
1.0
 70
     8
 71
     3
 72
    10
 73
     6
 74
     0
 42
0.00000001
 43
0.00000001
 12
1.0
 22
0.0
 32
0.0
 13
1.0
 23
0.0
 33
0.0
 40
0.0
 40
0.0
 40
0.0
 40
0.0
 40
0.385408000892297
 40
0.7831081945118007
 40
0.9999999999999999
 40
0.9999999999999999
 40
0.9999999999999999
 40
0.9999999999999999
 10
664.1741502463055
 20
399.7446252230078
 30
0.0
 10
663.5192370846728
 20
399.7551280969421
 30
0.0
 10
662.1885229781133
 20
399.7764688231981
 30
0.0
 10
660.5097847992464
 20
399.5418999994239
 30
0.0
 10
659.5225493228221
 20
399.3057402656219
 30
0.0
 10
659.1741502463055
 20
399.2223986160035
 30
0.0
  0
SPLINE
  5
205
330
1F
100
AcDbEntity
  8
0
  6
Continuous
 62
     7
370
    40
100
AcDbSpline
210
0.0
220
0.0
230
1.0
 70
     8
 71
     3
 72
    10
 73
     6
 74
     0
 42
0.00000001
 43
0.00000001
 12
1.0
 22
0.0
 32
0.0
 13
1.0
 23
0.0
 33
0.0
 40
0.0
 40
0.0
 40
0.0
 40
0.0
 40
0.3854176601141586
 40
0.7831279477304199
 40
1.0
 40
1.0
 40
1.0
 40
1.0
 10
1101.174150246306
 20
399.7446187577739
 30
0.0
 10
1101.829079688955
 20
399.7551193539556
 30
0.0
 10
1103.159827092119
 20
399.7764554555117
 30
0.0
 10
1104.838561791847
 20
399.5418778839195
 30
0.0
 10
1105.825782600601
 20
399.3057249330968
 30
0.0
 10
1106.174150246306
 20
399.2223919575609
 30
0.0
  0
SPLINE
  5
206
330
1F
100
AcDbEntity
  8
0
  6
Continuous
 62
     7
370
    40
100
AcDbSpline
210
0.0
220
0.0
230
1.0
 70
     8
 71
     3
 72
    19
 73
    15
 74
     0
 42
0.00000001
 43
0.00000001
 12
1.0
 22
0.0
 32
0.0
 13
1.0
 23
0.0
 33
0.0
 40
0.0
 40
0.0
 40
0.0
 40
0.0
 40
0.0830388265476184
 40
0.1661989879031421
 40
0.2487848074521459
 40
0.3315112043938189
 40
0.4148619660954497
 40
0.49771429595275
 40
0.5813247913282412
 40
0.6647988382714308
 40
0.748225717105102
 40
0.8324019882926914
 40
0.9159719877767025
 40
1.0
 40
1.0
 40
1.0
 40
1.0
 10
1044.251328507554
 20
439.4589028060486
 30
0.0
 10
1046.810982258498
 20
439.3585823175635
 30
0.0
 10
1051.934029879425
 20
439.1577947541385
 30
0.0
 10
1059.447047829711
 20
437.5434927907584
 30
0.0
 10
1066.669118833169
 20
435.0027975623032
 30
0.0
 10
1073.490725576174
 20
431.4854505628206
 30
0.0
 10
1079.796906103849
 20
427.074151485606
 30
0.0
 10
1085.495806186339
 20
421.8281162680007
 30
0.0
 10
1090.477103032144
 20
415.8548810709602
 30
0.0
 10
1094.665989445443
 20
409.2455327846384
 30
0.0
 10
1098.003569979224
 20
402.1135854840509
 30
0.0
 10
1100.405564799715
 20
394.5905922952721
 30
0.0
 10
1101.928274602378
 20
386.788306027442
 30
0.0
 10
1102.117387568692
 20
381.5068482784708
 30
0.0
 10
1102.21220245631
 20
378.8589028060484
 30
0.0
  0
SPLINE
  5
207
330
1F
100
AcDbEntity
  8
0
  6
Continuous
 62
     7
370
    40
100
AcDbSpline
210
0.0
220
0.0
230
1.0
 70
     8
 71
     3
 72
    19
 73
    15
 74
     0
 42
0.00000001
 43
0.00000001
 12
1.0
 22
0.0
 32
0.0
 13
1.0
 23
0.0
 33
0.0
 40
0.0
 40
0.0
 40
0.0
 40
0.0
 40
0.0830388265476176
 40
0.1661989879031423
 40
0.248784807452145
 40
0.3315112043938175
 40
0.4148619660954483
 40
0.4977142959527482
 40
0.5813247913282396
 40
0.6647988382714296
 40
0.7482257171050997
 40
0.832401988292691
 40
0.915971987776702
 40
1.0
 40
1.0
 40
1.0
 40
1.0
 10
721.0969719850566
 20
84.45890280604742
 30
0.0
 10
718.5373182341128
 20
84.55922329453261
 30
0.0
 10
713.4142706131863
 20
84.76001085795777
 30
0.0
 10
705.9012526628997
 20
86.37431282133775
 30
0.0
 10
698.6791816594415
 20
88.91500804979302
 30
0.0
 10
691.8575749164369
 20
92.43235504927533
 30
0.0
 10
685.5513943887621
 20
96.84365412649024
 30
0.0
 10
679.8524943062721
 20
102.0896893440952
 30
0.0
 10
674.871197460467
 20
108.0629245411359
 30
0.0
 10
670.6823110471682
 20
114.6722728274576
 30
0.0
 10
667.3447305133865
 20
121.8042201280452
 30
0.0
 10
664.9427356928951
 20
129.3272133168243
 30
0.0
 10
663.420025890233
 20
137.1294995846544
 30
0.0
 10
663.2309129239192
 20
142.4109573336256
 30
0.0
 10
663.1360980363014
 20
145.058902806048
 30
0.0
  0
SPLINE
  5
208
330
1F
100
AcDbEntity
  8
0
  6
Continuous
 62
     7
370
    40
100
AcDbSpline
210
0.0
220
0.0
230
1.0
 70
     8
 71
     3
 72
    19
 73
    15
 74
     0
 42
0.00000001
 43
0.00000001
 12
1.0
 22
0.0
 32
0.0
 13
1.0
 23
0.0
 33
0.0
 40
0.0
 40
0.0
 40
0.0
 40
0.0
 40
0.0843477161246718
 40
0.1687277955729385
 40
0.2523460441952312
 40
0.3358745981089695
 40
0.4197249827061961
 40
0.5027477550671487
 40
0.5861925571918174
 40
0.6691531539326698
 40
0.7517815810244709
 40
0.834911122166441
 40
0.9172732454769629
 40
1.0
 40
1.0
 40
1.0
 40
1.0
 10
1102.21220245631
 20
145.0589028060481
 30
0.0
 10
1102.116633760533
 20
142.4008785478557
 30
0.0
 10
1101.925459700286
 20
137.0838101757693
 30
0.0
 10
1100.390297593004
 20
129.2650085461836
 30
0.0
 10
1097.975439233976
 20
121.7351108814867
 30
0.0
 10
1094.632242031379
 20
114.6087087646357
 30
0.0
 10
1090.436419450041
 20
108.0078863785727
 30
0.0
 10
1085.440859006899
 20
102.0320117873422
 30
0.0
 10
1079.74427957708
 20
96.80081583982054
 30
0.0
 10
1073.42968602063
 20
92.39673444430781
 30
0.0
 10
1066.603166115805
 20
88.88552512288538
 30
0.0
 10
1059.387473433444
 20
86.3582939717851
 30
0.0
 10
1051.890198410253
 20
84.75707020513124
 30
0.0
 10
1046.801365037795
 20
84.55843817835706
 30
0.0
 10
1044.251328507554
 20
84.45890280604735
 30
0.0
  0
LINE
  5
209
330
1F
100
AcDbEntity
  8
0
  6
Continuous
 62
     7
370
    40
100
AcDbLine
 10
1101.1741502463
 20
403.008902806
 30
0.0
 11
1106.1741502463
 21
403.008902806
 31
0.0
  0
LINE
  5
20A
330
1F
100
AcDbEntity
  8
0
  6
Continuous
 62
     7
370
    40
100
AcDbLine
 10
1101.1741502463
 20
509.958902806
 30
0.0
 11
1101.1741502463
 21
403.008902806
 31
0.0
  0
LINE
  5
20B
330
1F
100
AcDbEntity
  8
0
  6
Continuous
 62
     7
370
    40
100
AcDbLine
 10
1101.1741502463
 20
509.958902806
 30
0.0
 11
1106.1741502463
 21
509.958902806
 31
0.0
  0
LINE
  5
20C
330
1F
100
AcDbEntity
  8
0
  6
Continuous
 62
     7
370
    40
100
AcDbLine
 10
1106.1741502463
 20
509.958902806
 30
0.0
 11
1106.1741502463
 21
403.008902806
 31
0.0
  0
LINE
  5
20D
330
1F
100
AcDbEntity
  8
0
  6
Continuous
 62
     7
370
    40
100
AcDbLine
 10
664.1741502463
 20
509.958902806
 30
0.0
 11
659.1741502463
 21
509.958902806
 31
0.0
  0
LINE
  5
20E
330
1F
100
AcDbEntity
  8
0
  6
Continuous
 62
     7
370
    40
100
AcDbLine
 10
664.1741502463
 20
509.958902806
 30
0.0
 11
664.1741502463
 21
403.008902806
 31
0.0
  0
LINE
  5
20F
330
1F
100
AcDbEntity
  8
0
  6
Continuous
 62
     7
370
    40
100
AcDbLine
 10
664.1741502463
 20
403.008902806
 30
0.0
 11
659.1741502463
 21
403.008902806
 31
0.0
  0
LINE
  5
210
330
1F
100
AcDbEntity
  8
0
  6
Continuous
 62
     7
370
    40
100
AcDbLine
 10
659.1741502463
 20
509.958902806
 30
0.0
 11
659.1741502463
 21
403.008902806
 31
0.0
  0
LINE
  5
211
330
1F
100
AcDbEntity
  8
0
  6
Continuous
 62
     7
370
    40
100
AcDbLine
 10
664.1741502463
 20
403.008902806
 30
0.0
 11
664.1741502463
 21
399.744625223
 31
0.0
  0
LINE
  5
212
330
1F
100
AcDbEntity
  8
0
  6
Continuous
 62
     7
370
    40
100
AcDbLine
 10
659.1741502463
 20
403.008902806
 30
0.0
 11
659.1741502463
 21
399.222398616
 31
0.0
  0
LINE
  5
213
330
1F
100
AcDbEntity
  8
0
  6
Continuous
 62
     7
370
    40
100
AcDbLine
 10
1106.1741502463
 20
403.008902806
 30
0.0
 11
1106.1741502463
 21
399.2223919576
 31
0.0
  0
LINE
  5
214
330
1F
100
AcDbEntity
  8
0
  6
Continuous
 62
     7
370
    40
100
AcDbLine
 10
1101.1741502463
 20
403.008902806
 30
0.0
 11
1101.1741502463
 21
399.7446187578
 31
0.0
  0
SPLINE
  5
215
330
1F
100
AcDbEntity
  8
0
  6
Continuous
 62
     7
370
    40
100
AcDbSpline
210
0.0
220
0.0
230
1.0
 70
     8
 71
     3
 72
    21
 73
    17
 74
     0
 42
0.00000001
 43
0.00000001
 12
1.0
 22
0.0
 32
0.0
 13
1.0
 23
0.0
 33
0.0
 40
0.0
 40
0.0
 40
0.0
 40
0.0
 40
0.0720656088730959
 40
0.1443607669850596
 40
0.2164255581917577
 40
0.2884782608057244
 40
0.3607617490768344
 40
0.4328122758753422
 40
0.5045587366201922
 40
0.5765360579666143
 40
0.648280339199758
 40
0.7195539065983271
 40
0.7910564303075579
 40
0.8623299452927119
 40
0.9311646845806156
 40
1.0
 40
1.0
 40
1.0
 40
1.0
 10
1093.251002993365
 20
378.8589028060481
 30
0.0
 10
1093.191918384321
 20
380.7017867040385
 30
0.0
 10
1093.073560965131
 20
384.3934246037027
 30
0.0
 10
1092.141426558815
 20
389.8577060594069
 30
0.0
 10
1090.673470177881
 20
395.1854965275679
 30
0.0
 10
1088.61081376883
 20
400.3014391833828
 30
0.0
 10
1086.012928924746
 20
405.1472615986959
 30
0.0
 10
1082.909389514019
 20
409.6574901364295
 30
0.0
 10
1079.323748716794
 20
413.7608794210736
 30
0.0
 10
1075.31875324039
 20
417.420254052621
 30
0.0
 10
1070.945797258185
 20
420.5893786952863
 30
0.0
 10
1066.249985281885
 20
423.209781576528
 30
0.0
 10
1061.304558754236
 20
425.2758777960109
 30
0.0
 10
1056.216293876561
 20
426.7351842074767
 30
0.0
 10
1051.0588946297
 20
427.6302534924217
 30
0.0
 10
1047.614801321809
 20
427.7414170199775
 30
0.0
 10
1045.89274746132
 20
427.796999016358
 30
0.0
  0
SPLINE
  5
216
330
1F
100
AcDbEntity
  8
0
  6
Continuous
 62
     7
370
    40
100
AcDbSpline
210
0.0
220
0.0
230
1.0
 70
     8
 71
     3
 72
    21
 73
    17
 74
     0
 42
0.00000001
 43
0.00000001
 12
1.0
 22
0.0
 32
0.0
 13
1.0
 23
0.0
 33
0.0
 40
0.0
 40
0.0
 40
0.0
 40
0.0
 40
0.0720656088730947
 40
0.1443607669850569
 40
0.2164255581917544
 40
0.2884782608057213
 40
0.360761749076831
 40
0.4328122758753383
 40
0.50455873662019
 40
0.5765360579666127
 40
0.6482803391997569
 40
0.7195539065983269
 40
0.7910564303075582
 40
0.862329945292712
 40
0.9311646845806162
 40
1.0
 40
1.0
 40
1.0
 40
1.0
 10
672.097297499246
 20
145.0589028060481
 30
0.0
 10
672.1563821082899
 20
143.2160189080577
 30
0.0
 10
672.2747395274798
 20
139.5243810083936
 30
0.0
 10
673.2068739337963
 20
134.0600995526895
 30
0.0
 10
674.6748303147295
 20
128.7323090845286
 30
0.0
 10
676.7374867237809
 20
123.6163664287137
 30
0.0
 10
679.3353715678651
 20
118.7705440134007
 30
0.0
 10
682.4389109785922
 20
114.2603154756671
 30
0.0
 10
686.0245517758174
 20
110.1569261910228
 30
0.0
 10
690.0295472522214
 20
106.4975515594755
 30
0.0
 10
694.4025032344259
 20
103.3284269168098
 30
0.0
 10
699.0983152107264
 20
100.7080240355682
 30
0.0
 10
704.0437417383755
 20
98.64192781608546
 30
0.0
 10
709.1320066160497
 20
97.1826214046194
 30
0.0
 10
714.2894058629113
 20
96.28755211967467
 30
0.0
 10
717.733499170802
 20
96.1763885921187
 30
0.0
 10
719.4555530312913
 20
96.12080659573822
 30
0.0
  0
SPLINE
  5
217
330
1F
100
AcDbEntity
  8
0
  6
Continuous
 62
     7
370
    40
100
AcDbSpline
210
0.0
220
0.0
230
1.0
 70
     8
 71
     3
 72
    21
 73
    17
 74
     0
 42
0.00000001
 43
0.00000001
 12
1.0
 22
0.0
 32
0.0
 13
1.0
 23
0.0
 33
0.0
 40
0.0
 40
0.0
 40
0.0
 40
0.0
 40
0.0711669026142994
 40
0.1425600760798615
 40
0.2137251619381452
 40
0.2848591534722504
 40
0.3562210371831713
 40
0.4273560198656201
 40
0.4983923631692972
 40
0.5696539475874502
 40
0.6406925953486851
 40
0.7120961022903769
 40
0.783725251149718
 40
0.8551304943029487
 40
0.927565166440605
 40
1.0
 40
1.0
 40
1.0
 40
1.0
 10
719.4555530312913
 20
427.796999016358
 30
0.0
 10
717.675146939852
 20
427.7366577774557
 30
0.0
 10
714.1086740637702
 20
427.6157834483409
 30
0.0
 10
708.8391345276434
 20
426.6637304230897
 30
0.0
 10
703.7082667280735
 20
425.164280117455
 30
0.0
 10
698.7893918230898
 20
423.0576776670109
 30
0.0
 10
694.1361080612754
 20
420.4076361524548
 30
0.0
 10
689.8046617449838
 20
417.243457214623
 30
0.0
 10
685.8614667598384
 20
413.5904590208028
 30
0.0
 10
682.3396679516973
 20
409.5133084972646
 30
0.0
 10
679.2716860099797
 20
405.0521296365813
 30
0.0
 10
676.7152109174317
 20
400.2497204206168
 30
0.0
 10
674.6810861845555
 20
395.1769365479195
 30
0.0
 10
673.2049718145647
 20
389.8770419816495
 30
0.0
 10
672.2738286790809
 20
384.4158525573551
 30
0.0
 10
672.156141269569
 20
380.7112207657867
 30
0.0
 10
672.0972974992462
 20
378.8589028060481
 30
0.0
  0
SPLINE
  5
218
330
1F
100
AcDbEntity
  8
0
  6
Continuous
 62
     7
370
    40
100
AcDbSpline
210
0.0
220
0.0
230
1.0
 70
     8
 71
     3
 72
    21
 73
    17
 74
     0
 42
0.00000001
 43
0.00000001
 12
1.0
 22
0.0
 32
0.0
 13
1.0
 23
0.0
 33
0.0
 40
0.0
 40
0.0
 40
0.0
 40
0.0
 40
0.071166902614301
 40
0.1425600760798635
 40
0.2137251619381486
 40
0.2848591534722544
 40
0.3562210371831758
 40
0.4273560198656245
 40
0.4983923631693021
 40
0.5696539475874558
 40
0.6406925953486922
 40
0.7120961022903827
 40
0.7837252511497227
 40
0.8551304943029528
 40
0.9275651664406073
 40
1.0
 40
1.0
 40
1.0
 40
1.0
 10
1045.89274746132
 20
96.12080659573822
 30
0.0
 10
1047.673153552759
 20
96.18114783464061
 30
0.0
 10
1051.239626428841
 20
96.30202216375547
 30
0.0
 10
1056.509165964968
 20
97.25407518900691
 30
0.0
 10
1061.640033764538
 20
98.75352549464179
 30
0.0
 10
1066.558908669522
 20
100.8601279450857
 30
0.0
 10
1071.212192431336
 20
103.510169459642
 30
0.0
 10
1075.543638747627
 20
106.6743483974737
 30
0.0
 10
1079.486833732773
 20
110.3273465912941
 30
0.0
 10
1083.008632540914
 20
114.4044971148323
 30
0.0
 10
1086.076614482631
 20
118.8656759755154
 30
0.0
 10
1088.63308957518
 20
123.6680851914801
 30
0.0
 10
1090.667214308056
 20
128.7408690641772
 30
0.0
 10
1092.143328678046
 20
134.0407636304471
 30
0.0
 10
1093.07447181353
 20
139.5019530547413
 30
0.0
 10
1093.192159223042
 20
143.2065848463096
 30
0.0
 10
1093.251002993365
 20
145.0589028060481
 30
0.0
  0
LINE
  5
219
330
1F
100
AcDbEntity
  8
0
  6
Continuous
 62
     7
370
    40
100
AcDbLine
 10
672.0972974992
 20
378.858902806
 30
0.0
 11
672.0972974992
 21
145.058902806
 31
0.0
  0
LINE
  5
21A
330
1F
100
AcDbEntity
  8
0
  6
Continuous
 62
     7
370
    40
100
AcDbLine
 10
1093.2510029934
 20
145.058902806
 30
0.0
 11
1093.2510029934
 21
378.858902806
 31
0.0
  0
LINE
  5
21B
330
1F
100
AcDbEntity
  8
0
  6
Continuous
 62
     7
370
    40
100
AcDbLine
 10
719.4555530313
 20
96.1208065957
 30
0.0
 11
1045.8927474613
 21
96.1208065957
 31
0.0
  0
LINE
  5
21C
330
1F
100
AcDbEntity
  8
0
  6
Continuous
 62
     7
370
    40
100
AcDbLine
 10
1045.8927474613
 20
427.7969990164
 30
0.0
 11
719.4555530313
 21
427.7969990164
 31
0.0
  0
LINE
  5
21D
330
1F
100
AcDbEntity
  8
0
  6
Continuous
 62
     7
370
    40
100
AcDbLine
 10
647.2456076414
 20
379.221859027
 30
0.0
 11
647.2451458189
 21
379.2187046573
 31
0.0
  0
LINE
  5
21E
330
1F
100
AcDbEntity
  8
0
  6
Continuous
 62
     7
370
    40
100
AcDbLine
 10
647.2456082191
 20
144.6959426397
 30
0.0
 11
647.2451458255
 21
144.6991009093
 31
0.0
  0
SPLINE
  5
21F
330
1F
100
AcDbEntity
  8
0
  6
Continuous
 62
     7
370
    40
100
AcDbSpline
210
0.0
220
0.0
230
1.0
 70
     8
 71
     3
 72
    16
 73
    12
 74
     0
 42
0.00000001
 43
0.00000001
 12
1.0
 22
0.0
 32
0.0
 13
1.0
 23
0.0
 33
0.0
 40
0.0
 40
0.0
 40
0.0
 40
0.0
 40
0.1477649959637531
 40
0.2945824552331021
 40
0.4415435849296875
 40
0.5513602890172749
 40
0.6609833446625553
 40
0.7697299020391339
 40
0.8819256002999981
 40
0.9405039849103252
 40
1.0
 40
1.0
 40
1.0
 40
1.0
 10
718.1690133373158
 20
451.9242389067346
 30
0.0
 10
715.1046334274015
 20
451.7150153075265
 30
0.0
 10
708.9955238122191
 20
451.2979097464604
 30
0.0
 10
700.0470258437581
 20
449.193706333504
 30
0.0
 10
692.1672279903804
 20
446.3143868999908
 30
0.0
 10
685.3558909413265
 20
442.8987653860581
 30
0.0
 10
679.5656609915588
 20
439.2686655820792
 30
0.0
 10
674.0938861336118
 20
435.069355832846
 30
0.0
 10
669.8205203892309
 20
431.0786178244595
 30
0.0
 10
666.5341740428913
 20
427.5502775623262
 30
0.0
 10
664.9651029345879
 20
425.6343370676449
 30
0.0
 10
664.1744702608366
 20
424.6689218305394
 30
0.0
  0
LINE
  5
220
330
1F
100
AcDbEntity
  8
0
  6
Continuous
 62
     7
370
    40
100
AcDbLine
 10
718.1690258679
 20
451.9242386841
 30
0.0
 11
720.4003154338
 21
451.958902806
 31
0.0
  0
LINE
  5
221
330
1F
100
AcDbEntity
  8
0
  6
Continuous
 62
     7
370
    40
100
AcDbLine
 10
1044.9479850588
 20
451.958902806
 30
0.0
 11
1047.1792746248
 21
451.9242386841
 31
0.0
  0
LINE
  5
222
330
1F
100
AcDbEntity
  8
0
  6
Continuous
 62
     7
370
    40
100
AcDbLine
 10
720.4003154338
 20
71.958902806
 30
0.0
 11
718.1690258679
 21
71.993566928
 31
0.0
  0
LINE
  5
223
330
1F
100
AcDbEntity
  8
0
  6
Continuous
 62
     7
370
    40
100
AcDbLine
 10
1047.1792746248
 20
71.993566928
 30
0.0
 11
1044.9479850588
 21
71.958902806
 31
0.0
  0
LINE
  5
224
330
1F
100
AcDbEntity
  8
0
  6
Continuous
 62
     7
370
    40
100
AcDbLine
 10
720.4003154338
 20
451.958902806
 30
0.0
 11
1044.9479850588
 21
451.958902806
 31
0.0
  0
LINE
  5
225
330
1F
100
AcDbEntity
  8
0
  6
Continuous
 62
     7
370
    40
100
AcDbLine
 10
1044.9479850588
 20
71.958902806
 30
0.0
 11
720.4003154338
 21
71.958902806
 31
0.0
  0
LINE
  5
226
330
1F
100
AcDbEntity
  8
0
  6
Continuous
 62
     7
370
    40
100
AcDbLine
 10
1047.1792871553
 20
451.9242389067
 30
0.0
 11
1044.9479850588
 21
451.958902806
 31
0.0
  0
LINE
  5
227
330
1F
100
AcDbEntity
  8
0
  6
Continuous
 62
     7
370
    40
100
AcDbLine
 10
720.4003154338
 20
451.958902806
 30
0.0
 11
718.1690133373
 21
451.9242389067
 31
0.0
  0
LINE
  5
228
330
1F
100
AcDbEntity
  8
0
  6
Continuous
 62
     7
370
    40
100
AcDbLine
 10
718.1690133373
 20
71.9935667054
 30
0.0
 11
720.4003154338
 21
71.958902806
 31
0.0
  0
LINE
  5
229
330
1F
100
AcDbEntity
  8
0
  6
Continuous
 62
     7
370
    40
100
AcDbLine
 10
1044.9479850588
 20
71.958902806
 30
0.0
 11
1047.1792871553
 21
71.9935667054
 31
0.0
  0
LINE
  5
22A
330
1F
100
AcDbEntity
  8
0
  6
Continuous
 62
     7
370
    40
100
AcDbLine
 10
691.6741502463
 20
567.958902806
 30
0.0
 11
691.6741502463
 21
572.958902806
 31
0.0
  0
LINE
  5
22B
330
1F
100
AcDbEntity
  8
0
  6
Continuous
 62
     7
370
    40
100
AcDbLine
 10
676.6741502463
 20
567.958902806
 30
0.0
 11
691.6741502463
 21
567.958902806
 31
0.0
  0
LINE
  5
22C
330
1F
100
AcDbEntity
  8
0
  6
Continuous
 62
     7
370
    40
100
AcDbLine
 10
676.6741502463
 20
572.958902806
 30
0.0
 11
691.6741502463
 21
572.958902806
 31
0.0
  0
LINE
  5
22D
330
1F
100
AcDbEntity
  8
0
  6
Continuous
 62
     7
370
    40
100
AcDbLine
 10
660.6741502463
 20
567.958902806
 30
0.0
 11
676.6741502463
 21
567.958902806
 31
0.0
  0
ARC
  5
22E
330
1F
100
AcDbEntity
  8
0
  6
Continuous
 62
     7
370
    40
100
AcDbCircle
 10
660.6741502463
 20
564.958902806
 30
0.0
 40
3.000000000000114
100
AcDbArc
 50
90.0
 51
180.0
  0
LINE
  5
22F
330
1F
100
AcDbEntity
  8
0
  6
Continuous
 62
     7
370
    40
100
AcDbLine
 10
657.6741502463
 20
564.958902806
 30
0.0
 11
657.6741502463
 21
562.958902806
 31
0.0
  0
LINE
  5
230
330
1F
100
AcDbEntity
  8
0
  6
Continuous
 62
     7
370
    40
100
AcDbLine
 10
657.6741502463
 20
562.958902806
 30
0.0
 11
643.6741502463
 21
562.958902806
 31
0.0
  0
LINE
  5
231
330
1F
100
AcDbEntity
  8
0
  6
Continuous
 62
     7
370
    40
100
AcDbLine
 10
643.6741502463
 20
566.958902806
 30
0.0
 11
643.6741502463
 21
562.958902806
 31
0.0
  0
ARC
  5
232
330
1F
100
AcDbEntity
  8
0
  6
Continuous
 62
     7
370
    40
100
AcDbCircle
 10
649.6741502463
 20
566.958902806
 30
0.0
 40
6.0
100
AcDbArc
 50
90.0
 51
180.0
  0
LINE
  5
233
330
1F
100
AcDbEntity
  8
0
  6
Continuous
 62
     7
370
    40
100
AcDbLine
 10
676.6741502463
 20
572.958902806
 30
0.0
 11
649.6741502463
 21
572.958902806
 31
0.0
  0
LINE
  5
234
330
1F
100
AcDbEntity
  8
0
  6
Continuous
 62
     7
370
    40
100
AcDbLine
 10
657.6741502463
 20
562.958902806
 30
0.0
 11
657.6741502463
 21
489.7710964982
 31
0.0
  0
LINE
  5
235
330
1F
100
AcDbEntity
  8
0
  6
Continuous
 62
     7
370
    40
100
AcDbLine
 10
643.6741502463
 20
562.958902806
 30
0.0
 11
643.6741502463
 21
489.7710964982
 31
0.0
  0
LINE
  5
236
330
1F
100
AcDbEntity
  8
0
  6
Continuous
 62
     7
370
    40
100
AcDbLine
 10
742.8741502463
 20
547.958902806
 30
0.0
 11
742.8741502463
 21
471.958902806
 31
0.0
  0
LINE
  5
237
330
1F
100
AcDbEntity
  8
0
  6
Continuous
 62
     7
370
    40
100
AcDbLine
 10
643.6741502463
 20
489.7710964982
 30
0.0
 11
643.6741502463
 21
471.958902806
 31
0.0
  0
LINE
  5
238
330
1F
100
AcDbEntity
  8
0
  6
Continuous
 62
     7
370
    40
100
AcDbLine
 10
744.8741502463
 20
521.958902806
 30
0.0
 11
744.8741502463
 21
497.958902806
 31
0.0
  0
LINE
  5
239
330
1F
100
AcDbEntity
  8
0
  6
Continuous
 62
     7
370
    40
100
AcDbLine
 10
1088.6741502463
 20
567.958902806
 30
0.0
 11
1073.6741502463
 21
567.958902806
 31
0.0
  0
LINE
  5
23A
330
1F
100
AcDbEntity
  8
0
  6
Continuous
 62
     7
370
    40
100
AcDbLine
 10
1073.6741502463
 20
567.958902806
 30
0.0
 11
1073.6741502463
 21
572.958902806
 31
0.0
  0
LINE
  5
23B
330
1F
100
AcDbEntity
  8
0
  6
Continuous
 62
     7
370
    40
100
AcDbLine
 10
1088.6741502463
 20
572.958902806
 30
0.0
 11
1073.6741502463
 21
572.958902806
 31
0.0
  0
LINE
  5
23C
330
1F
100
AcDbEntity
  8
0
  6
Continuous
 62
     7
370
    40
100
AcDbLine
 10
1121.6741502463
 20
566.958902806
 30
0.0
 11
1121.6741502463
 21
562.958902806
 31
0.0
  0
LINE
  5
23D
330
1F
100
AcDbEntity
  8
0
  6
Continuous
 62
     7
370
    40
100
AcDbLine
 10
1107.6741502463
 20
562.958902806
 30
0.0
 11
1121.6741502463
 21
562.958902806
 31
0.0
  0
LINE
  5
23E
330
1F
100
AcDbEntity
  8
0
  6
Continuous
 62
     7
370
    40
100
AcDbLine
 10
1107.6741502463
 20
564.958902806
 30
0.0
 11
1107.6741502463
 21
562.958902806
 31
0.0
  0
ARC
  5
23F
330
1F
100
AcDbEntity
  8
0
  6
Continuous
 62
     7
370
    40
100
AcDbCircle
 10
1104.6741502463
 20
564.958902806
 30
0.0
 40
3.0
100
AcDbArc
 50
0.0
 51
90.0
  0
LINE
  5
240
330
1F
100
AcDbEntity
  8
0
  6
Continuous
 62
     7
370
    40
100
AcDbLine
 10
1104.6741502463
 20
567.958902806
 30
0.0
 11
1088.6741502463
 21
567.958902806
 31
0.0
  0
ARC
  5
241
330
1F
100
AcDbEntity
  8
0
  6
Continuous
 62
     7
370
    40
100
AcDbCircle
 10
1115.6741502463
 20
566.958902806
 30
0.0
 40
6.0
100
AcDbArc
 50
0.0
 51
90.0
  0
LINE
  5
242
330
1F
100
AcDbEntity
  8
0
  6
Continuous
 62
     7
370
    40
100
AcDbLine
 10
1088.6741502463
 20
572.958902806
 30
0.0
 11
1115.6741502463
 21
572.958902806
 31
0.0
  0
LINE
  5
243
330
1F
100
AcDbEntity
  8
0
  6
Continuous
 62
     7
370
    40
100
AcDbLine
 10
1107.6741502463
 20
562.958902806
 30
0.0
 11
1107.6741502463
 21
489.7710964982
 31
0.0
  0
LINE
  5
244
330
1F
100
AcDbEntity
  8
0
  6
Continuous
 62
     7
370
    40
100
AcDbLine
 10
1121.6741502463
 20
562.958902806
 30
0.0
 11
1121.6741502463
 21
489.7710964982
 31
0.0
  0
LINE
  5
245
330
1F
100
AcDbEntity
  8
0
  6
Continuous
 62
     7
370
    40
100
AcDbLine
 10
1022.4741502463
 20
547.958902806
 30
0.0
 11
1022.4741502463
 21
471.958902806
 31
0.0
  0
LINE
  5
246
330
1F
100
AcDbEntity
  8
0
  6
Continuous
 62
     7
370
    40
100
AcDbLine
 10
1121.6741502463
 20
489.7710964982
 30
0.0
 11
1121.6741502463
 21
471.958902806
 31
0.0
  0
LINE
  5
247
330
1F
100
AcDbEntity
  8
0
  6
Continuous
 62
     7
370
    40
100
AcDbLine
 10
1020.4741502463
 20
521.958902806
 30
0.0
 11
1020.4741502463
 21
497.958902806
 31
0.0
  0
ENDSEC
  0
SECTION
  2
OBJECTS
  0
DICTIONARY
  5
C
330
0
100
AcDbDictionary
281
     1
  3
ACAD_GROUP
350
D
  3
ACAD_LAYOUT
350
1A
  3
ACAD_MATERIAL
350
3B
  3
ACAD_MLEADERSTYLE
350
249
  3
ACAD_MLINESTYLE
350
17
  3
ACAD_PLOTSETTINGS
350
19
  3
ACAD_PLOTSTYLENAME
350
E
  3
ACAD_TABLESTYLE
350
248
  3
ACAD_VISUALSTYLE
350
2A
  0
DICTIONARY
  5
D
102
{ACAD_REACTORS
330
C
102
}
330
C
100
AcDbDictionary
281
     1
  0
DICTIONARY
  5
1A
102
{ACAD_REACTORS
330
C
102
}
330
C
100
AcDbDictionary
281
     1
  3
Layout1
350
1E
  3
Layout2
350
26
  3
Model
350
22
  0
DICTIONARY
  5
3B
102
{ACAD_REACTORS
330
C
102
}
330
C
100
AcDbDictionary
281
     1
  3
ByBlock
350
3D
  3
ByLayer
350
3C
  3
Global
350
3E
  0
DICTIONARY
  5
249
102
{ACAD_REACTORS
330
C
102
}
330
C
100
AcDbDictionary
281
     1
  0
DICTIONARY
  5
17
102
{ACAD_REACTORS
330
C
102
}
330
C
100
AcDbDictionary
281
     1
  3
Standard
350
18
  0
DICTIONARY
  5
19
102
{ACAD_REACTORS
330
C
102
}
330
C
100
AcDbDictionary
281
     1
  0
ACDBDICTIONARYWDFLT
  5
E
102
{ACAD_REACTORS
330
C
102
}
330
C
100
AcDbDictionary
281
     1
  3
Normal
350
F
100
AcDbDictionaryWithDefault
340
F
  0
DICTIONARY
  5
248
102
{ACAD_REACTORS
330
C
102
}
330
C
100
AcDbDictionary
281
     1
  0
DICTIONARY
  5
2A
102
{ACAD_REACTORS
330
C
102
}
330
C
100
AcDbDictionary
281
     1
  3
2dWireframe
350
2F
  3
3D Hidden
350
31
  3
3dWireframe
350
30
  3
Basic
350
32
  3
Brighten
350
36
  3
ColorChange
350
3A
  3
Conceptual
350
34
  3
Dim
350
35
  3
Facepattern
350
39
  3
Flat
350
2B
  3
FlatWithEdges
350
2C
  3
Gouraud
350
2D
  3
GouraudWithEdges
350
2E
  3
Linepattern
350
38
  3
Realistic
350
33
  3
Thicken
350
37
  0
LAYOUT
  5
1E
102
{ACAD_REACTORS
330
1A
102
}
330
1A
100
AcDbPlotSettings
  1

  2
none_device
  4

  6

 40
0.0
 41
0.0
 42
0.0
 43
0.0
 44
0.0
 45
0.0
 46
0.0
 47
0.0
 48
0.0
 49
0.0
140
0.0
141
0.0
142
1.0
143
1.0
 70
   688
 72
     0
 73
     0
 74
     5
  7

 75
    16
 76
     0
 77
     2
 78
   300
147
1.0
148
0.0
149
0.0
100
AcDbLayout
  1
Layout1
 70
     1
 71
     1
 10
0.0
 20
0.0
 11
420.0
 21
297.0
 12
0.0
 22
0.0
 32
0.0
 14
1.0000000000E+20
 24
1.0000000000E+20
 34
1.0000000000E+20
 15
-1.0000000000E+20
 25
-1.0000000000E+20
 35
-1.0000000000E+20
146
0.0
 13
0.0
 23
0.0
 33
0.0
 16
1.0
 26
0.0
 36
0.0
 17
0.0
 27
1.0
 37
0.0
 76
     0
330
1B
  0
LAYOUT
  5
26
102
{ACAD_REACTORS
330
1A
102
}
330
1A
100
AcDbPlotSettings
  1

  2
none_device
  4

  6

 40
0.0
 41
0.0
 42
0.0
 43
0.0
 44
0.0
 45
0.0
 46
0.0
 47
0.0
 48
0.0
 49
0.0
140
0.0
141
0.0
142
1.0
143
1.0
 70
   688
 72
     0
 73
     0
 74
     5
  7

 75
    16
 76
     0
 77
     2
 78
   300
147
1.0
148
0.0
149
0.0
100
AcDbLayout
  1
Layout2
 70
     1
 71
     2
 10
0.0
 20
0.0
 11
0.0
 21
0.0
 12
0.0
 22
0.0
 32
0.0
 14
0.0
 24
0.0
 34
0.0
 15
0.0
 25
0.0
 35
0.0
146
0.0
 13
0.0
 23
0.0
 33
0.0
 16
1.0
 26
0.0
 36
0.0
 17
0.0
 27
1.0
 37
0.0
 76
     0
330
23
  0
LAYOUT
  5
22
102
{ACAD_REACTORS
330
1A
102
}
330
1A
100
AcDbPlotSettings
  1

  2
none_device
  4

  6

 40
0.0
 41
0.0
 42
0.0
 43
0.0
 44
0.0
 45
0.0
 46
0.0
 47
0.0
 48
0.0
 49
0.0
140
0.0
141
0.0
142
1.0
143
1.0
 70
  1712
 72
     0
 73
     0
 74
     0
  7

 75
     0
 76
     0
 77
     2
 78
   300
147
1.0
148
0.0
149
0.0
100
AcDbLayout
  1
Model
 70
     1
 71
     0
 10
0.0
 20
0.0
 11
2100.0
 21
1485.0
 12
0.0
 22
0.0
 32
0.0
 14
0.0
 24
0.0
 34
0.0
 15
2100.0
 25
1485.0
 35
0.0
146
0.0
 13
0.0
 23
0.0
 33
0.0
 16
1.0
 26
0.0
 36
0.0
 17
0.0
 27
1.0
 37
0.0
 76
     0
330
1F
331
29
  0
MATERIAL
  5
3D
102
{ACAD_REACTORS
330
3B
102
}
330
3B
100
AcDbMaterial
  1
ByBlock
 72
     1
 94
      127
  0
MATERIAL
  5
3C
102
{ACAD_REACTORS
330
3B
102
}
330
3B
100
AcDbMaterial
  1
ByLayer
 72
     1
 94
      127
  0
MATERIAL
  5
3E
102
{ACAD_REACTORS
330
3B
102
}
330
3B
100
AcDbMaterial
  1
Global
 72
     1
 94
      127
  0
MLINESTYLE
  5
18
102
{ACAD_REACTORS
330
17
102
}
330
17
100
AcDbMlineStyle
  2
Standard
 70
     0
  3

 62
   256
 51
90.0
 52
90.0
 71
     2
 49
0.5
 62
   256
  6
BYLAYER
 49
-0.5
 62
   256
  6
BYLAYER
  0
ACDBPLACEHOLDER
  5
F
102
{ACAD_REACTORS
330
E
102
}
330
E
  0
VISUALSTYLE
  5
2F
102
{ACAD_REACTORS
330
2A
102
}
330
2A
100
AcDbVisualStyle
  2
2dWireframe
 70
     4
 71
     0
 72
     2
 73
     0
 90
        0
 40
-0.6
 41
-30.0
 62
     5
 63
     7
421
 16777215
 74
     1
 91
        4
 64
     7
 65
   257
 75
     1
175
     1
 42
1.0
 92
        0
 66
   257
 43
1.0
 76
     1
 77
     6
 78
     2
 67
     7
 79
     5
170
     0
171
     0
290
     0
174
     0
 93
        1
 44
0.0
173
     0
291
     0
 45
0.0
  0
VISUALSTYLE
  5
31
102
{ACAD_REACTORS
330
2A
102
}
330
2A
100
AcDbVisualStyle
  2
3D Hidden
 70
     6
 71
     1
 72
     2
 73
     2
 90
        0
 40
-0.6
 41
-30.0
 62
     5
 63
     7
421
 16777215
 74
     2
 91
        2
 64
     7
 65
   257
 75
     2
175
     1
 42
40.0
 92
        0
 66
   257
 43
1.0
 76
     1
 77
     6
 78
     2
 67
     7
 79
     3
170
     0
171
     0
290
     0
174
     0
 93
        1
 44
0.0
173
     0
291
     0
 45
0.0
  0
VISUALSTYLE
  5
30
102
{ACAD_REACTORS
330
2A
102
}
330
2A
100
AcDbVisualStyle
  2
3dWireframe
 70
     5
 71
     0
 72
     2
 73
     0
 90
        0
 40
-0.6
 41
-30.0
 62
     5
 63
     7
421
 16777215
 74
     1
 91
        4
 64
     7
 65
   257
 75
     1
175
     1
 42
1.0
 92
        0
 66
   257
 43
1.0
 76
     1
 77
     6
 78
     2
 67
     7
 79
     5
170
     0
171
     0
290
     0
174
     0
 93
        1
 44
0.0
173
     0
291
     0
 45
0.0
  0
VISUALSTYLE
  5
32
102
{ACAD_REACTORS
330
2A
102
}
330
2A
100
AcDbVisualStyle
  2
Basic
 70
     7
 71
     1
 72
     0
 73
     1
 90
        0
 40
-0.6
 41
-30.0
 62
     5
 63
     7
421
 16777215
 74
     0
 91
        4
 64
     7
 65
   257
 75
     1
175
     1
 42
1.0
 92
        8
 66
     7
 43
1.0
 76
     1
 77
     6
 78
     2
 67
     7
 79
     5
170
     0
171
     0
290
     0
174
     0
 93
        1
 44
0.0
173
     0
291
     1
 45
0.0
  0
VISUALSTYLE
  5
36
102
{ACAD_REACTORS
330
2A
102
}
330
2A
100
AcDbVisualStyle
  2
Brighten
 70
    12
 71
     2
 72
     2
 73
     0
 90
        0
 40
-0.6
 41
-30.0
 62
     5
 63
     7
421
 16777215
 74
     1
 91
        4
 64
     7
 65
   257
 75
     1
175
     1
 42
1.0
 92
        8
 66
     7
 43
1.0
 76
     1
 77
     6
 78
     2
 67
     7
 79
     5
170
     0
171
     0
290
     0
174
     0
 93
        1
 44
50.0
173
     0
291
     1
 45
0.0
  0
VISUALSTYLE
  5
3A
102
{ACAD_REACTORS
330
2A
102
}
330
2A
100
AcDbVisualStyle
  2
ColorChange
 70
    16
 71
     2
 72
     2
 73
     3
 90
        0
 40
-0.6
 41
-30.0
 62
     5
 63
     8
421
  8421504
 74
     1
 91
        4
 64
     7
 65
   257
 75
     1
175
     1
 42
1.0
 92
        8
 66
     8
424
  8421504
 43
1.0
 76
     1
 77
     6
 78
     2
 67
     7
 79
     5
170
     0
171
     0
290
     0
174
     0
 93
        1
 44
0.0
173
     0
291
     1
 45
0.0
  0
VISUALSTYLE
  5
34
102
{ACAD_REACTORS
330
2A
102
}
330
2A
100
AcDbVisualStyle
  2
Conceptual
 70
     9
 71
     3
 72
     2
 73
     0
 90
        0
 40
-0.6
 41
-30.0
 62
     5
 63
     7
421
 16777215
 74
     2
 91
        2
 64
     7
 65
   257
 75
     1
175
     1
 42
40.0
 92
        8
 66
     7
 43
1.0
 76
     1
 77
     6
 78
     2
 67
     7
 79
     3
170
     0
171
     0
290
     0
174
     0
 93
        1
 44
0.0
173
     0
291
     0
 45
0.0
  0
VISUALSTYLE
  5
35
102
{ACAD_REACTORS
330
2A
102
}
330
2A
100
AcDbVisualStyle
  2
Dim
 70
    11
 71
     2
 72
     2
 73
     0
 90
        0
 40
-0.6
 41
-30.0
 62
     5
 63
     7
421
 16777215
 74
     1
 91
        4
 64
     7
 65
   257
 75
     1
175
     1
 42
1.0
 92
        8
 66
     7
 43
1.0
 76
     1
 77
     6
 78
     2
 67
     7
 79
     5
170
     0
171
     0
290
     0
174
     0
 93
        1
 44
-50.0
173
     0
291
     1
 45
0.0
  0
VISUALSTYLE
  5
39
102
{ACAD_REACTORS
330
2A
102
}
330
2A
100
AcDbVisualStyle
  2
Facepattern
 70
    15
 71
     2
 72
     2
 73
     0
 90
        0
 40
-0.6
 41
-30.0
 62
     5
 63
     7
421
 16777215
 74
     1
 91
        4
 64
     7
 65
   257
 75
     1
175
     1
 42
1.0
 92
        8
 66
     7
 43
1.0
 76
     1
 77
     6
 78
     2
 67
     7
 79
     5
170
     0
171
     0
290
     0
174
     0
 93
        1
 44
0.0
173
     0
291
     1
 45
0.0
  0
VISUALSTYLE
  5
2B
102
{ACAD_REACTORS
330
2A
102
}
330
2A
100
AcDbVisualStyle
  2
Flat
 70
     0
 71
     2
 72
     1
 73
     1
 90
        2
 40
-0.6
 41
30.0
 62
     5
 63
     7
421
 16777215
 74
     0
 91
        4
 64
     7
 65
   257
 75
     1
175
     1
 42
1.0
 92
        8
 66
     7
 43
1.0
 76
     1
 77
     6
 78
     2
 67
     7
 79
     5
170
     0
171
     0
290
     0
174
     0
 93
       13
 44
0.0
173
     0
291
     1
 45
0.0
  0
VISUALSTYLE
  5
2C
102
{ACAD_REACTORS
330
2A
102
}
330
2A
100
AcDbVisualStyle
  2
FlatWithEdges
 70
     1
 71
     2
 72
     1
 73
     1
 90
        2
 40
-0.6
 41
30.0
 62
     5
 63
     7
421
 16777215
 74
     1
 91
        4
 64
     7
 65
   257
 75
     1
175
     1
 42
1.0
 92
        0
 66
   257
 43
1.0
 76
     1
 77
     6
 78
     2
 67
     7
 79
     5
170
     0
171
     0
290
     0
174
     0
 93
       13
 44
0.0
173
     0
291
     1
 45
0.0
  0
VISUALSTYLE
  5
2D
102
{ACAD_REACTORS
330
2A
102
}
330
2A
100
AcDbVisualStyle
  2
Gouraud
 70
     2
 71
     2
 72
     2
 73
     1
 90
        2
 40
-0.6
 41
30.0
 62
     5
 63
     7
421
 16777215
 74
     0
 91
        4
 64
     7
 65
   257
 75
     1
175
     1
 42
1.0
 92
        0
 66
     7
 43
1.0
 76
     1
 77
     6
 78
     2
 67
     7
 79
     5
170
     0
171
     0
290
     0
174
     0
 93
       13
 44
0.0
173
     0
291
     1
 45
0.0
  0
VISUALSTYLE
  5
2E
102
{ACAD_REACTORS
330
2A
102
}
330
2A
100
AcDbVisualStyle
  2
GouraudWithEdges
 70
     3
 71
     2
 72
     2
 73
     1
 90
        2
 40
-0.6
 41
30.0
 62
     5
 63
     7
421
 16777215
 74
     1
 91
        4
 64
     7
 65
   257
 75
     1
175
     1
 42
1.0
 92
        0
 66
   257
 43
1.0
 76
     1
 77
     6
 78
     2
 67
     7
 79
     5
170
     0
171
     0
290
     0
174
     0
 93
       13
 44
0.0
173
     0
291
     1
 45
0.0
  0
VISUALSTYLE
  5
38
102
{ACAD_REACTORS
330
2A
102
}
330
2A
100
AcDbVisualStyle
  2
Linepattern
 70
    14
 71
     2
 72
     2
 73
     0
 90
        0
 40
-0.6
 41
-30.0
 62
     5
 63
     7
421
 16777215
 74
     1
 91
        4
 64
     7
 65
   257
 75
     7
175
     7
 42
1.0
 92
        8
 66
     7
 43
1.0
 76
     1
 77
     6
 78
     2
 67
     7
 79
     5
170
     0
171
     0
290
     0
174
     0
 93
        1
 44
0.0
173
     0
291
     1
 45
0.0
  0
VISUALSTYLE
  5
33
102
{ACAD_REACTORS
330
2A
102
}
330
2A
100
AcDbVisualStyle
  2
Realistic
 70
     8
 71
     2
 72
     2
 73
     0
 90
        0
 40
-0.6
 41
-30.0
 62
     5
 63
     7
421
 16777215
 74
     1
 91
        0
 64
     7
 65
   257
 75
     1
175
     1
 42
1.0
 92
        8
 66
     8
424
  7895160
 43
1.0
 76
     1
 77
     6
 78
     2
 67
     7
 79
     5
170
     0
171
     0
290
     0
174
     0
 93
       13
 44
0.0
173
     0
291
     0
 45
0.0
  0
VISUALSTYLE
  5
37
102
{ACAD_REACTORS
330
2A
102
}
330
2A
100
AcDbVisualStyle
  2
Thicken
 70
    13
 71
     2
 72
     2
 73
     0
 90
        0
 40
-0.6
 41
-30.0
 62
     5
 63
     7
421
 16777215
 74
     1
 91
        4
 64
     7
 65
   257
 75
     1
175
     1
 42
1.0
 92
       12
 66
     7
 43
1.0
 76
     1
 77
     6
 78
     2
 67
     7
 79
     5
170
     0
171
     0
290
     0
174
     0
 93
        1
 44
0.0
173
     0
291
     1
 45
0.0
  0
ENDSEC
  0
EOF
