  0
SECTION
  2
HEADER
  9
$ACADVER
  1
AC1009
  9
$DWGCODEPAGE
  3
ansi_1252
  9
$INSBASE
 10
0.0
 20
0.0
 30
0.0
  9
$EXTMIN
 10
0.0
 20
0.0
 30
0.0
  9
$EXTMAX
 10
2100.0
 20
1485.0
 30
0.0
  9
$LIMMIN
 10
0.0
 20
0.0
  9
$LIMMAX
 10
2100.0
 20
1485.0
  9
$ORTHOMODE
 70
     0
  9
$REGENMODE
 70
     1
  9
$FILLMODE
 70
     1
  9
$QTEXTMODE
 70
     0
  9
$MIRRTEXT
 70
     1
  9
$DRAGMODE
 70
     2
  9
$LTSCALE
 40
5.0
  9
$OSMODE
 70
    37
  9
$ATTMODE
 70
     1
  9
$TEXTSIZE
 40
17.5
  9
$TRACEWID
 40
1.0
  9
$TEXTSTYLE
  7
STANDARD
  9
$CLAYER
  8
0
  9
$CELTYPE
  6
BYLAYER
  9
$CECOLOR
 62
   256
  9
$DIMSCALE
 40
1.0
  9
$DIMASZ
 40
20.0
  9
$DIMEXO
 40
0.0
  9
$DIMDLI
 40
3.75
  9
$DIMRND
 40
0.0
  9
$DIMDLE
 40
0.0
  9
$DIMEXE
 40
10.0
  9
$DIMTP
 40
0.0
  9
$DIMTM
 40
0.0
  9
$DIMTXT
 40
17.5
  9
$DIMCEN
 40
2.5
  9
$DIMTSZ
 40
0.0
  9
$DIMTOL
 70
     0
  9
$DIMLIM
 70
     0
  9
$DIMTIH
 70
     1
  9
$DIMTOH
 70
     1
  9
$DIMSE1
 70
     0
  9
$DIMSE2
 70
     0
  9
$DIMTAD
 70
     1
  9
$DIMZIN
 70
     0
  9
$DIMBLK
  1

  9
$DIMASO
 70
     1
  9
$DIMSHO
 70
     1
  9
$DIMPOST
  1

  9
$DIMAPOST
  1

  9
$DIMALT
 70
     0
  9
$DIMALTD
 70
     3
  9
$DIMALTF
 40
0.0393700787
  9
$DIMLFAC
 40
1.0
  9
$DIMTOFL
 70
     1
  9
$DIMTVP
 40
0.0
  9
$DIMTIX
 70
     0
  9
$DIMSOXD
 70
     0
  9
$DIMSAH
 70
     0
  9
$DIMBLK1
  1

  9
$DIMBLK2
  1

  9
$DIMSTYLE
  2
ISO-25
  9
$DIMCLRD
 70
     0
  9
$DIMCLRE
 70
     0
  9
$DIMCLRT
 70
     0
  9
$DIMTFAC
 40
1.0
  9
$DIMGAP
 40
7.62
  9
$LUNITS
 70
     2
  9
$LUPREC
 70
     2
  9
$SKETCHINC
 40
1.0
  9
$FILLETRAD
 40
10.0
  9
$AUNITS
 70
     0
  9
$AUPREC
 70
     2
  9
$MENU
  1
.
  9
$ELEVATION
 40
0.0
  9
$PELEVATION
 40
0.0
  9
$THICKNESS
 40
0.0
  9
$LIMCHECK
 70
     0
  9
$CHAMFERA
 40
10.0
  9
$CHAMFERB
 40
10.0
  9
$SKPOLY
 70
     0
  9
$TDCREATE
 40
2457029.567353495
  9
$TDUPDATE
 40
2457029.567353669
  9
$TDINDWG
 40
0.0000000116
  9
$TDUSRTIMER
 40
0.0000000116
  9
$USRTIMER
 70
     1
  9
$ANGBASE
 50
0.0
  9
$ANGDIR
 70
     0
  9
$PDMODE
 70
     0
  9
$PDSIZE
 40
-1.0
  9
$PLINEWID
 40
0.0
  9
$COORDS
 70
     1
  9
$SPLFRAME
 70
     0
  9
$SPLINETYPE
 70
     6
  9
$SPLINESEGS
 70
     8
  9
$ATTDIA
 70
     0
  9
$ATTREQ
 70
     1
  9
$HANDLING
 70
     1
  9
$HANDSEED
  5
11B
  9
$SURFTAB1
 70
     6
  9
$SURFTAB2
 70
     6
  9
$SURFTYPE
 70
     6
  9
$SURFU
 70
     6
  9
$SURFV
 70
     6
  9
$UCSNAME
  2

  9
$UCSORG
 10
0.0
 20
0.0
 30
0.0
  9
$UCSXDIR
 10
1.0
 20
0.0
 30
0.0
  9
$UCSYDIR
 10
0.0
 20
1.0
 30
0.0
  9
$PUCSNAME
  2

  9
$PUCSORG
 10
0.0
 20
0.0
 30
0.0
  9
$PUCSXDIR
 10
1.0
 20
0.0
 30
0.0
  9
$PUCSYDIR
 10
0.0
 20
1.0
 30
0.0
  9
$USERI1
 70
     0
  9
$USERI2
 70
     0
  9
$USERI3
 70
     0
  9
$USERI4
 70
     0
  9
$USERI5
 70
     0
  9
$USERR1
 40
0.0
  9
$USERR2
 40
0.0
  9
$USERR3
 40
0.0
  9
$USERR4
 40
0.0
  9
$USERR5
 40
0.0
  9
$WORLDVIEW
 70
     1
  9
$SHADEDGE
 70
     3
  9
$SHADEDIF
 70
    70
  9
$TILEMODE
 70
     1
  9
$MAXACTVP
 70
    64
  9
$PLIMCHECK
 70
     0
  9
$PEXTMIN
 10
1.0000000000E+20
 20
1.0000000000E+20
 30
1.0000000000E+20
  9
$PEXTMAX
 10
-1.0000000000E+20
 20
-1.0000000000E+20
 30
-1.0000000000E+20
  9
$PLIMMIN
 10
0.0
 20
0.0
  9
$PLIMMAX
 10
420.0
 20
297.0
  9
$UNITMODE
 70
     0
  9
$VISRETAIN
 70
     1
  9
$PLINEGEN
 70
     0
  9
$PSLTSCALE
 70
     1
  0
ENDSEC
  0
SECTION
  2
TABLES
  0
TABLE
  2
VPORT
 70
     1
  0
VPORT
  2
*ACTIVE
 70
     0
 10
0.0
 20
0.0
 11
1.0
 21
1.0
 12
1050.0
 22
742.5
 13
0.0
 23
0.0
 14
10.0
 24
10.0
 15
10.0
 25
10.0
 16
0.0
 26
0.0
 36
1.0
 17
0.0
 27
0.0
 37
0.0
 40
1485.0
 41
1.4141414141
 42
50.0
 43
0.0
 44
0.0
 50
0.0
 51
0.0
 71
     0
 72
  2000
 73
     1
 74
     3
 75
     0
 76
     0
 77
     0
 78
     0
  0
ENDTAB
  0
TABLE
  2
LTYPE
 70
     6
  0
LTYPE
  2
CONTINUOUS
 70
     0
  3
Solid line
 72
    65
 73
     0
 40
0.0
  0
LTYPE
  2
HIDDEN
 70
     0
  3
Hidden __ __ __ __ __ __ __ __ __ __ __ __ __ __
 72
    65
 73
     2
 40
1.905
 49
1.27
 49
-0.635
  0
LTYPE
  2
PHANTOM
 70
     0
  3
Phantom ______  __  __  ______  __  __  ______
 72
    65
 73
     6
 40
12.7
 49
6.35
 49
-1.27
 49
1.27
 49
-1.27
 49
1.27
 49
-1.27
  0
LTYPE
  2
CENTER
 70
     0
  3
Center ____ _ ____ _ ____ _ ____ _ ____ _ ____
 72
    65
 73
     4
 40
10.16
 49
6.35
 49
-1.27
 49
1.27
 49
-1.27
  0
LTYPE
  2
CENTERX2
 70
     0
  3
Center (2x) ________  __  ________  __  _____
 72
    65
 73
     4
 40
20.32
 49
12.7
 49
-2.54
 49
2.54
 49
-2.54
  0
LTYPE
  2
DOT2
 70
     0
  3
Dot (.5x) ........................................
 72
    65
 73
     2
 40
0.635
 49
0.0
 49
-0.635
  0
ENDTAB
  0
TABLE
  2
LAYER
 70
     2
  0
LAYER
  2
0
 70
     0
 62
     7
  6
CONTINUOUS
  0
LAYER
  2
FORMAT
 70
     0
 62
     7
  6
CONTINUOUS
  0
ENDTAB
  0
TABLE
  2
STYLE
 70
     1
  0
STYLE
  2
STANDARD
 70
     0
 40
0.0
 41
1.0
 50
0.0
 71
     0
 42
17.5
  3
txt
  4

  0
ENDTAB
  0
TABLE
  2
VIEW
 70
     0
  0
ENDTAB
  0
TABLE
  2
UCS
 70
     0
  0
ENDTAB
  0
TABLE
  2
APPID
 70
     1
  0
APPID
  2
ACAD
 70
     0
  0
ENDTAB
  0
TABLE
  2
DIMSTYLE
 70
     1
  0
DIMSTYLE
  2
ISO-25
 70
     0
  3

  4

  5

  6

  7

 40
1.0
 41
2.5
 42
0.625
 43
3.75
 44
1.25
 45
0.0
 46
0.0
 47
0.0
 48
0.0
140
2.5
141
2.5
142
0.0
143
0.0393700787
144
1.0
145
0.0
146
1.0
147
0.625
 71
     0
 72
     0
 73
     0
 74
     0
 75
     0
 76
     0
 77
     1
 78
     8
170
     0
171
     3
172
     1
173
     0
174
     0
175
     0
176
     0
177
     0
178
     0
  0
ENDTAB
  0
ENDSEC
  0
SECTION
  2
BLOCKS
  0
BLOCK
  8
0
  2
$MODEL_SPACE
 70
     0
 10
0.0
 20
0.0
 30
0.0
  3
$MODEL_SPACE
  1

  0
ENDBLK
  5
21
  8
0
  0
BLOCK
 67
     1
  8
0
  2
$PAPER_SPACE
 70
     0
 10
0.0
 20
0.0
 30
0.0
  3
$PAPER_SPACE
  1

  0
ENDBLK
  5
1D
 67
     1
  8
0
  0
ENDSEC
  0
SECTION
  2
ENTITIES
  0
LINE
  5
45
  8
0
  6
CONTINUOUS
 62
     7
 10
2074.25
 20
25.75
 30
0.0
 11
25.75
 21
25.75
 31
0.0
  0
LINE
  5
46
  8
0
  6
CONTINUOUS
 62
     7
 10
2075.0
 20
25.0
 30
0.0
 11
2075.0
 21
1385.0
 31
0.0
  0
LINE
  5
47
  8
0
  6
CONTINUOUS
 62
     7
 10
2075.0
 20
1385.0
 30
0.0
 11
25.0
 21
1385.0
 31
0.0
  0
LINE
  5
48
  8
0
  6
CONTINUOUS
 62
     7
 10
25.75
 20
1384.25
 30
0.0
 11
25.75
 21
25.75
 31
0.0
  0
LINE
  5
49
  8
0
  6
CONTINUOUS
 62
     7
 10
623.2641502463
 20
1006.2371428571
 30
0.0
 11
611.2641502463
 21
1006.2371428571
 31
0.0
  0
LINE
  5
4A
  8
0
  6
CONTINUOUS
 62
     7
 10
245.2641502463
 20
1006.2371428571
 30
0.0
 11
233.2641502463
 21
1006.2371428571
 31
0.0
  0
LINE
  5
4B
  8
0
  6
CONTINUOUS
 62
     7
 10
233.2641502463
 20
986.2371428571
 30
0.0
 11
245.2641502463
 21
986.2371428571
 31
0.0
  0
LINE
  5
4C
  8
0
  6
CONTINUOUS
 62
     7
 10
611.2641502463
 20
986.2371428571
 30
0.0
 11
623.2641502463
 21
986.2371428571
 31
0.0
  0
LINE
  5
4D
  8
0
  6
CONTINUOUS
 62
     7
 10
252.7641502463
 20
1043.2371428571
 30
0.0
 11
603.7641502463
 21
1043.2371428571
 31
0.0
  0
ARC
  5
4E
  8
0
  6
CONTINUOUS
 62
     7
 10
603.7641502463
 20
1035.2371428571
 30
0.0
 40
7.999999999999773
 50
0.0
 51
90.0
  0
ARC
  5
4F
  8
0
  6
CONTINUOUS
 62
     7
 10
252.7641502463
 20
1035.2371428571
 30
0.0
 40
7.999999999999773
 50
90.0
 51
180.0
  0
LINE
  5
50
  8
0
  6
CONTINUOUS
 62
     7
 10
244.7641502463
 20
1035.2371428571
 30
0.0
 11
244.7641502463
 21
1013.2371428571
 31
0.0
  0
LINE
  5
51
  8
0
  6
CONTINUOUS
 62
     7
 10
611.7641502463
 20
1035.2371428571
 30
0.0
 11
611.7641502463
 21
1013.2371428571
 31
0.0
  0
LINE
  5
52
  8
0
  6
CONTINUOUS
 62
     7
 10
611.7641502463
 20
1013.2371428571
 30
0.0
 11
244.7641502463
 21
1013.2371428571
 31
0.0
  0
LINE
  5
53
  8
0
  6
CONTINUOUS
 62
     7
 10
245.2641502463
 20
1008.2371428571
 30
0.0
 11
245.2641502463
 21
1013.2371428571
 31
0.0
  0
LINE
  5
54
  8
0
  6
CONTINUOUS
 62
     7
 10
611.2641502463
 20
1013.2371428571
 30
0.0
 11
611.2641502463
 21
1008.2371428571
 31
0.0
  0
LINE
  5
55
  8
0
  6
CONTINUOUS
 62
     7
 10
611.2641502463
 20
1008.2371428571
 30
0.0
 11
611.2641502463
 21
978.2371428571
 31
0.0
  0
LINE
  5
56
  8
0
  6
CONTINUOUS
 62
     7
 10
245.2641502463
 20
978.2371428571
 30
0.0
 11
245.2641502463
 21
1008.2371428571
 31
0.0
  0
ARC
  5
57
  8
0
  6
CONTINUOUS
 62
     7
 10
606.2641502463
 20
978.2371428571
 30
0.0
 40
5.0
 50
270.0
 51
0.0
  0
LINE
  5
58
  8
0
  6
CONTINUOUS
 62
     7
 10
250.2641502463
 20
973.2371428571
 30
0.0
 11
606.2641502463
 21
973.2371428571
 31
0.0
  0
ARC
  5
59
  8
0
  6
CONTINUOUS
 62
     7
 10
250.2641502463
 20
978.2371428571
 30
0.0
 40
5.0
 50
180.0
 51
270.0
  0
LINE
  5
5A
  8
0
  6
CONTINUOUS
 62
     7
 10
233.2641502463
 20
948.2930890001
 30
0.0
 11
233.2641502463
 21
936.4561147563
 31
0.0
  0
LINE
  5
5B
  8
0
  6
CONTINUOUS
 62
     7
 10
229.2641502463
 20
936.4561147563
 30
0.0
 11
229.2641502463
 21
948.2930890001
 31
0.0
  0
LINE
  5
5C
  8
0
  6
CONTINUOUS
 62
     7
 10
623.2641502463
 20
936.4561147563
 30
0.0
 11
623.2641502463
 21
948.2930890001
 31
0.0
  0
LINE
  5
5D
  8
0
  6
CONTINUOUS
 62
     7
 10
627.2641502463
 20
948.2930890001
 30
0.0
 11
627.2641502463
 21
936.4561147563
 31
0.0
  0
LINE
  5
5E
  8
0
  6
CONTINUOUS
 62
     7
 10
623.2641502463
 20
948.2930890001
 30
0.0
 11
623.2641502463
 21
1007.0689013256
 31
0.0
  0
LINE
  5
5F
  8
0
  6
CONTINUOUS
 62
     7
 10
627.2641502463
 20
1007.0689013256
 30
0.0
 11
627.2641502463
 21
948.2930890001
 31
0.0
  0
LINE
  5
60
  8
0
  6
CONTINUOUS
 62
     7
 10
233.2641502463
 20
1007.0689013256
 30
0.0
 11
233.2641502463
 21
948.2930890001
 31
0.0
  0
LINE
  5
61
  8
0
  6
CONTINUOUS
 62
     7
 10
229.2641502463
 20
1007.0689013256
 30
0.0
 11
229.2641502463
 21
948.2930890001
 31
0.0
  0
LINE
  5
62
  8
0
  6
CONTINUOUS
 62
     7
 10
229.2641502463
 20
1040.2371428571
 30
0.0
 11
233.2641502463
 21
1040.2371428571
 31
0.0
  0
LINE
  5
63
  8
0
  6
CONTINUOUS
 62
     7
 10
233.2641502463
 20
1040.2371428571
 30
0.0
 11
233.2641502463
 21
1007.0689013256
 31
0.0
  0
LINE
  5
64
  8
0
  6
CONTINUOUS
 62
     7
 10
229.2641502463
 20
1040.2371428571
 30
0.0
 11
229.2641502463
 21
1007.0689013256
 31
0.0
  0
LINE
  5
65
  8
0
  6
CONTINUOUS
 62
     7
 10
623.2641502463
 20
1040.2371428571
 30
0.0
 11
627.2641502463
 21
1040.2371428571
 31
0.0
  0
LINE
  5
66
  8
0
  6
CONTINUOUS
 62
     7
 10
623.2641502463
 20
1007.0689013256
 30
0.0
 11
623.2641502463
 21
1040.2371428571
 31
0.0
  0
LINE
  5
67
  8
0
  6
CONTINUOUS
 62
     7
 10
627.2641502463
 20
1040.2371428571
 30
0.0
 11
627.2641502463
 21
1007.0689013256
 31
0.0
  0
LINE
  5
68
  8
0
  6
CONTINUOUS
 62
     7
 10
229.2641502463
 20
932.2371428571
 30
0.0
 11
233.2641502463
 21
932.2371428571
 31
0.0
  0
LINE
  5
69
  8
0
  6
CONTINUOUS
 62
     7
 10
233.2641502463
 20
936.4561147563
 30
0.0
 11
233.2641502463
 21
932.2371428571
 31
0.0
  0
LINE
  5
6A
  8
0
  6
CONTINUOUS
 62
     7
 10
229.2641502463
 20
936.4561147563
 30
0.0
 11
229.2641502463
 21
932.2371428571
 31
0.0
  0
LINE
  5
6B
  8
0
  6
CONTINUOUS
 62
     7
 10
623.2641502463
 20
932.2371428571
 30
0.0
 11
627.2641502463
 21
932.2371428571
 31
0.0
  0
LINE
  5
6C
  8
0
  6
CONTINUOUS
 62
     7
 10
623.2641502463
 20
932.2371428571
 30
0.0
 11
623.2641502463
 21
936.4561147563
 31
0.0
  0
LINE
  5
6D
  8
0
  6
CONTINUOUS
 62
     7
 10
627.2641502463
 20
936.4561147563
 30
0.0
 11
627.2641502463
 21
932.2371428571
 31
0.0
  0
LINE
  5
6E
  8
0
  6
CONTINUOUS
 62
     7
 10
233.2641502463
 20
1040.2371428571
 30
0.0
 11
236.2641502463
 21
1040.2371428571
 31
0.0
  0
LINE
  5
6F
  8
0
  6
CONTINUOUS
 62
     7
 10
236.2641502463
 20
932.2371428571
 30
0.0
 11
233.2641502463
 21
932.2371428571
 31
0.0
  0
LINE
  5
70
  8
0
  6
CONTINUOUS
 62
     7
 10
620.2641502463
 20
1040.2371428571
 30
0.0
 11
623.2641502463
 21
1040.2371428571
 31
0.0
  0
LINE
  5
71
  8
0
  6
CONTINUOUS
 62
     7
 10
623.2641502463
 20
932.2371428571
 30
0.0
 11
620.2641502463
 21
932.2371428571
 31
0.0
  0
LINE
  5
72
  8
0
  6
CONTINUOUS
 62
     7
 10
277.2641502463
 20
973.2371428571
 30
0.0
 11
277.2641502463
 21
942.2371428571
 31
0.0
  0
ARC
  5
73
  8
0
  6
CONTINUOUS
 62
     7
 10
267.2641502463
 20
942.2371428571
 30
0.0
 40
10.0
 50
270.0
 51
0.0
  0
ARC
  5
74
  8
0
  6
CONTINUOUS
 62
     7
 10
256.5141502463
 20
960.7371428571
 30
0.0
 40
5.500000000000114
 50
270.0
 51
90.0
  0
LINE
  5
75
  8
0
  6
CONTINUOUS
 62
     7
 10
256.5141502463
 20
966.2371428571
 30
0.0
 11
252.5141502463
 21
966.2371428571
 31
0.0
  0
ARC
  5
76
  8
0
  6
CONTINUOUS
 62
     7
 10
252.5141502463
 20
960.7371428571
 30
0.0
 40
5.500000000000114
 50
90.0
 51
270.0
  0
LINE
  5
77
  8
0
  6
CONTINUOUS
 62
     7
 10
252.5141502463
 20
955.2371428571
 30
0.0
 11
256.5141502463
 21
955.2371428571
 31
0.0
  0
LINE
  5
78
  8
0
  6
CONTINUOUS
 62
     7
 10
246.5191522479
 20
1040.2371428571
 30
0.0
 11
236.2641502463
 21
1040.2371428571
 31
0.0
  0
LINE
  5
79
  8
0
  6
CONTINUOUS
 62
     7
 10
267.2641502463
 20
932.2371428571
 30
0.0
 11
236.2641502463
 21
932.2371428571
 31
0.0
  0
ARC
  5
7A
  8
0
  6
CONTINUOUS
 62
     7
 10
589.2641502463
 20
942.2371428571
 30
0.0
 40
10.0
 50
180.0
 51
270.0
  0
LINE
  5
7B
  8
0
  6
CONTINUOUS
 62
     7
 10
579.2641502463
 20
942.2371428571
 30
0.0
 11
579.2641502463
 21
973.2371428571
 31
0.0
  0
ARC
  5
7C
  8
0
  6
CONTINUOUS
 62
     7
 10
604.0141502463
 20
960.7371428571
 30
0.0
 40
5.500000000000114
 50
270.0
 51
90.0
  0
LINE
  5
7D
  8
0
  6
CONTINUOUS
 62
     7
 10
604.0141502463
 20
966.2371428571
 30
0.0
 11
600.0141502463
 21
966.2371428571
 31
0.0
  0
ARC
  5
7E
  8
0
  6
CONTINUOUS
 62
     7
 10
600.0141502463
 20
960.7371428571
 30
0.0
 40
5.500000000000114
 50
90.0
 51
270.0
  0
LINE
  5
7F
  8
0
  6
CONTINUOUS
 62
     7
 10
600.0141502463
 20
955.2371428571
 30
0.0
 11
604.0141502463
 21
955.2371428571
 31
0.0
  0
LINE
  5
80
  8
0
  6
CONTINUOUS
 62
     7
 10
620.2641502463
 20
1040.2371428571
 30
0.0
 11
610.0091482447
 21
1040.2371428571
 31
0.0
  0
LINE
  5
81
  8
0
  6
CONTINUOUS
 62
     7
 10
620.2641502463
 20
932.2371428571
 30
0.0
 11
589.2641502463
 21
932.2371428571
 31
0.0
  0
LINE
  5
82
  8
0
  6
CONTINUOUS
 62
     7
 10
252.5141502463
 20
1010.2371428571
 30
0.0
 11
256.5141502463
 21
1010.2371428571
 31
0.0
  0
LINE
  5
83
  8
0
  6
CONTINUOUS
 62
     7
 10
256.5141502463
 20
1021.2371428571
 30
0.0
 11
252.5141502463
 21
1021.2371428571
 31
0.0
  0
LINE
  5
84
  8
0
  6
CONTINUOUS
 62
     7
 10
600.0141502463
 20
1010.2371428571
 30
0.0
 11
604.0141502463
 21
1010.2371428571
 31
0.0
  0
LINE
  5
85
  8
0
  6
CONTINUOUS
 62
     7
 10
604.0141502463
 20
1021.2371428571
 30
0.0
 11
600.0141502463
 21
1021.2371428571
 31
0.0
  0
ARC
  5
86
  8
0
  6
CONTINUOUS
 62
     7
 10
256.5141502463
 20
1015.7371428571
 30
0.0
 40
5.500000000000114
 50
270.0
 51
90.0
  0
ARC
  5
87
  8
0
  6
CONTINUOUS
 62
     7
 10
252.5141502463
 20
1015.7371428571
 30
0.0
 40
5.500000000000114
 50
90.0
 51
270.0
  0
ARC
  5
88
  8
0
  6
CONTINUOUS
 62
     7
 10
600.0141502463
 20
1015.7371428571
 30
0.0
 40
5.500000000000114
 50
90.0
 51
270.0
  0
ARC
  5
89
  8
0
  6
CONTINUOUS
 62
     7
 10
604.0141502463
 20
1015.7371428571
 30
0.0
 40
5.500000000000114
 50
270.0
 51
90.0
  0
LINE
  5
8A
  8
0
  6
CENTERX2
 62
     7
 10
428.2641502463
 20
938.2930890001
 30
0.0
 11
428.2641502463
 21
1065.771048255
 31
0.0
  0
LINE
  5
8B
  8
0
  6
CONTINUOUS
 62
     7
 10
623.2641502463
 20
707.8602740008
 30
0.0
 11
611.7641502463
 21
707.8602740008
 31
0.0
  0
LINE
  5
8C
  8
0
  6
CONTINUOUS
 62
     7
 10
244.7641502463
 20
707.8602740008
 30
0.0
 11
233.2641502463
 21
707.8602740008
 31
0.0
  0
LINE
  5
8D
  8
0
  6
CONTINUOUS
 62
     7
 10
233.2641502463
 20
687.8602740008
 30
0.0
 11
244.7641502463
 21
687.8602740008
 31
0.0
  0
LINE
  5
8E
  8
0
  6
CONTINUOUS
 62
     7
 10
611.7641502463
 20
687.8602740008
 30
0.0
 11
623.2641502463
 21
687.8602740008
 31
0.0
  0
LINE
  5
8F
  8
0
  6
CONTINUOUS
 62
     7
 10
229.2641502463
 20
667.2927613374
 30
0.0
 11
233.2641502463
 21
667.2927613374
 31
0.0
  0
LINE
  5
90
  8
0
  6
CONTINUOUS
 62
     7
 10
623.2641502463
 20
667.2927613374
 30
0.0
 11
627.2641502463
 21
667.2927613374
 31
0.0
  0
LINE
  5
91
  8
0
  6
CONTINUOUS
 62
     7
 10
244.7641502463
 20
746.8602740008
 30
0.0
 11
611.7641502463
 21
746.8602740008
 31
0.0
  0
LINE
  5
92
  8
0
  6
CONTINUOUS
 62
     7
 10
611.7641502463
 20
746.8602740008
 30
0.0
 11
603.7641502463
 21
738.8602740008
 31
0.0
  0
LINE
  5
93
  8
0
  6
CONTINUOUS
 62
     7
 10
244.7641502463
 20
746.8602740008
 30
0.0
 11
252.7641502463
 21
738.8602740008
 31
0.0
  0
LINE
  5
94
  8
0
  6
CONTINUOUS
 62
     7
 10
611.7641502463
 20
746.8602740008
 30
0.0
 11
611.7641502463
 21
375.0205280386
 31
0.0
  0
LINE
  5
95
  8
0
  6
CONTINUOUS
 62
     7
 10
603.7641502463
 20
383.0205280386
 30
0.0
 11
611.7641502463
 21
375.0205280386
 31
0.0
  0
LINE
  5
96
  8
0
  6
CONTINUOUS
 62
     7
 10
244.7641502463
 20
375.0205280386
 30
0.0
 11
244.7641502463
 21
746.8602740008
 31
0.0
  0
LINE
  5
97
  8
0
  6
CONTINUOUS
 62
     7
 10
252.7641502463
 20
383.0205280386
 30
0.0
 11
244.7641502463
 21
375.0205280386
 31
0.0
  0
LINE
  5
98
  8
0
  6
CONTINUOUS
 62
     7
 10
611.7641502463
 20
375.0205280386
 30
0.0
 11
244.7641502463
 21
375.0205280386
 31
0.0
  0
LINE
  5
99
  8
0
  6
CONTINUOUS
 62
     7
 10
245.2641502463
 20
753.8602740008
 30
0.0
 11
611.2641502463
 21
753.8602740008
 31
0.0
  0
LINE
  5
9A
  8
0
  6
CONTINUOUS
 62
     7
 10
611.2641502463
 20
753.8602740008
 30
0.0
 11
611.2641502463
 21
746.8602740008
 31
0.0
  0
LINE
  5
9B
  8
0
  6
CONTINUOUS
 62
     7
 10
245.2641502463
 20
753.8602740008
 30
0.0
 11
245.2641502463
 21
746.8602740008
 31
0.0
  0
LINE
  5
9C
  8
0
  6
CONTINUOUS
 62
     7
 10
267.2641502463
 20
780.8602740008
 30
0.0
 11
236.2641502463
 21
780.8602740008
 31
0.0
  0
ARC
  5
9D
  8
0
  6
CONTINUOUS
 62
     7
 10
236.2641502463
 20
777.8602740008
 30
0.0
 40
3.0
 50
90.0
 51
180.0
  0
LINE
  5
9E
  8
0
  6
CONTINUOUS
 62
     7
 10
233.2641502463
 20
777.8602740008
 30
0.0
 11
233.2641502463
 21
705.3415504363
 31
0.0
  0
LINE
  5
9F
  8
0
  6
CONTINUOUS
 62
     7
 10
229.2641502463
 20
777.8602740008
 30
0.0
 11
229.2641502463
 21
705.3415504363
 31
0.0
  0
ARC
  5
A0
  8
0
  6
CONTINUOUS
 62
     7
 10
236.2641502463
 20
777.8602740008
 30
0.0
 40
7.0
 50
90.0
 51
180.0
  0
LINE
  5
A1
  8
0
  6
CONTINUOUS
 62
     7
 10
236.2641502463
 20
784.8602740008
 30
0.0
 11
267.2641502463
 21
784.8602740008
 31
0.0
  0
LINE
  5
A2
  8
0
  6
CONTINUOUS
 62
     7
 10
579.2641502463
 20
780.8602740008
 30
0.0
 11
579.2641502463
 21
784.8602740008
 31
0.0
  0
LINE
  5
A3
  8
0
  6
CONTINUOUS
 62
     7
 10
579.2641502463
 20
784.8602740008
 30
0.0
 11
589.2641502463
 21
784.8602740008
 31
0.0
  0
LINE
  5
A4
  8
0
  6
CONTINUOUS
 62
     7
 10
589.2641502463
 20
780.8602740008
 30
0.0
 11
579.2641502463
 21
780.8602740008
 31
0.0
  0
LINE
  5
A5
  8
0
  6
CONTINUOUS
 62
     7
 10
623.2641502463
 20
705.3415504363
 30
0.0
 11
623.2641502463
 21
777.8602740008
 31
0.0
  0
ARC
  5
A6
  8
0
  6
CONTINUOUS
 62
     7
 10
620.2641502463
 20
777.8602740008
 30
0.0
 40
3.0
 50
0.0
 51
90.0
  0
LINE
  5
A7
  8
0
  6
CONTINUOUS
 62
     7
 10
620.2641502463
 20
780.8602740008
 30
0.0
 11
589.2641502463
 21
780.8602740008
 31
0.0
  0
LINE
  5
A8
  8
0
  6
CONTINUOUS
 62
     7
 10
589.2641502463
 20
784.8602740008
 30
0.0
 11
620.2641502463
 21
784.8602740008
 31
0.0
  0
ARC
  5
A9
  8
0
  6
CONTINUOUS
 62
     7
 10
620.2641502463
 20
777.8602740008
 30
0.0
 40
7.0
 50
0.0
 51
90.0
  0
LINE
  5
AA
  8
0
  6
CONTINUOUS
 62
     7
 10
627.2641502463
 20
777.8602740008
 30
0.0
 11
627.2641502463
 21
705.3415504363
 31
0.0
  0
LINE
  5
AB
  8
0
  6
CONTINUOUS
 62
     7
 10
267.2641502463
 20
784.8602740008
 30
0.0
 11
277.2641502463
 21
784.8602740008
 31
0.0
  0
LINE
  5
AC
  8
0
  6
CONTINUOUS
 62
     7
 10
277.2641502463
 20
784.8602740008
 30
0.0
 11
277.2641502463
 21
780.8602740008
 31
0.0
  0
LINE
  5
AD
  8
0
  6
CONTINUOUS
 62
     7
 10
277.2641502463
 20
780.8602740008
 30
0.0
 11
267.2641502463
 21
780.8602740008
 31
0.0
  0
LINE
  5
AE
  8
0
  6
CONTINUOUS
 62
     7
 10
627.2641502463
 20
705.3415504363
 30
0.0
 11
627.2641502463
 21
670.3895167199
 31
0.0
  0
LINE
  5
AF
  8
0
  6
CONTINUOUS
 62
     7
 10
623.2641502463
 20
670.3895167199
 30
0.0
 11
623.2641502463
 21
705.3415504363
 31
0.0
  0
LINE
  5
B0
  8
0
  6
CONTINUOUS
 62
     7
 10
229.2641502463
 20
705.3415504363
 30
0.0
 11
229.2641502463
 21
670.3895167199
 31
0.0
  0
LINE
  5
B1
  8
0
  6
CONTINUOUS
 62
     7
 10
233.2641502463
 20
705.3415504363
 30
0.0
 11
233.2641502463
 21
670.3895167199
 31
0.0
  0
LINE
  5
B2
  8
0
  6
CONTINUOUS
 62
     7
 10
627.2641502463
 20
670.3895167199
 30
0.0
 11
627.2641502463
 21
667.3092069203
 31
0.0
  0
LINE
  5
B3
  8
0
  6
CONTINUOUS
 62
     7
 10
623.2641502463
 20
667.3092069203
 30
0.0
 11
623.2641502463
 21
670.3895167199
 31
0.0
  0
LINE
  5
B4
  8
0
  6
CONTINUOUS
 62
     7
 10
229.2641502463
 20
670.3895167199
 30
0.0
 11
229.2641502463
 21
667.3092069203
 31
0.0
  0
LINE
  5
B5
  8
0
  6
CONTINUOUS
 62
     7
 10
233.2641502463
 20
670.3895167199
 30
0.0
 11
233.2641502463
 21
667.3092069203
 31
0.0
  0
LINE
  5
B6
  8
0
  6
CONTINUOUS
 62
     7
 10
229.2641502463
 20
667.2927613374
 30
0.0
 11
229.2641502463
 21
667.3092069203
 31
0.0
  0
LINE
  5
B7
  8
0
  6
CONTINUOUS
 62
     7
 10
233.2641502463
 20
667.3092069203
 30
0.0
 11
233.2641502463
 21
667.2927613374
 31
0.0
  0
LINE
  5
B8
  8
0
  6
CONTINUOUS
 62
     7
 10
627.2641502463
 20
667.3092069203
 30
0.0
 11
627.2641502463
 21
667.2927613374
 31
0.0
  0
LINE
  5
B9
  8
0
  6
CONTINUOUS
 62
     7
 10
623.2641502463
 20
667.2927613374
 30
0.0
 11
623.2641502463
 21
667.3092069203
 31
0.0
  0
LINE
  5
BA
  8
0
  6
CENTERX2
 62
     7
 10
428.2641502463
 20
787.8602740008
 30
0.0
 11
428.2641502463
 21
341.6946273024
 31
0.0
  0
LINE
  5
BB
  8
0
  6
CONTINUOUS
 62
     7
 10
889.6499915509
 20
1043.2371428571
 30
0.0
 11
1245.4897375131
 21
1043.2371428571
 31
0.0
  0
ARC
  5
BC
  8
0
  6
CONTINUOUS
 62
     7
 10
1245.4897375131
 20
1035.2371428571
 30
0.0
 40
7.999999999999773
 50
0.0
 51
90.0
  0
ARC
  5
BD
  8
0
  6
CONTINUOUS
 62
     7
 10
889.6499915509
 20
1035.2371428571
 30
0.0
 40
8.000000000000227
 50
90.0
 51
141.3178125465
  0
LINE
  5
BE
  8
0
  6
CONTINUOUS
 62
     7
 10
1253.4897375131
 20
1035.2371428571
 30
0.0
 11
1253.4897375131
 21
1013.2371428571
 31
0.0
  0
LINE
  5
BF
  8
0
  6
CONTINUOUS
 62
     7
 10
1253.4897375131
 20
1013.2371428571
 30
0.0
 11
957.2421651902
 21
1013.2371428571
 31
0.0
  0
LINE
  5
C0
  8
0
  6
CONTINUOUS
 62
     7
 10
1230.6692294374
 20
973.2371428571
 30
0.0
 11
959.8937961624
 21
973.2371428571
 31
0.0
  0
LINE
  5
C1
  8
0
  6
CONTINUOUS
 62
     7
 10
1252.319864532
 20
1005.7371428571
 30
0.0
 11
1234.9993564563
 21
975.7371428571
 31
0.0
  0
ARC
  5
C2
  8
0
  6
CONTINUOUS
 62
     7
 10
1247.9897375131
 20
1008.2371428571
 30
0.0
 40
5.000000000000016
 50
330.0
 51
0.0
  0
LINE
  5
C3
  8
0
  6
CONTINUOUS
 62
     7
 10
1252.9897375131
 20
1013.2371428571
 30
0.0
 11
1252.9897375131
 21
1008.2371428571
 31
0.0
  0
ARC
  5
C4
  8
0
  6
CONTINUOUS
 62
     7
 10
1230.6692294374
 20
978.2371428571
 30
0.0
 40
5.0
 50
270.0
 51
330.0
  0
LINE
  5
C5
  8
0
  6
CONTINUOUS
 62
     7
 10
843.6499915509
 20
932.2371428571
 30
0.0
 11
843.6499915509
 21
1040.2371428571
 31
0.0
  0
LINE
  5
C6
  8
0
  6
CONTINUOUS
 62
     7
 10
843.6499915509
 20
1040.2371428571
 30
0.0
 11
850.6499915509
 21
1040.2371428571
 31
0.0
  0
LINE
  5
C7
  8
0
  6
CONTINUOUS
 62
     7
 10
850.6499915509
 20
932.2371428571
 30
0.0
 11
843.6499915509
 21
932.2371428571
 31
0.0
  0
ARC
  5
C8
  8
0
  6
CONTINUOUS
 62
     7
 10
923.1687151154
 20
1005.2371428571
 30
0.0
 40
35.00000000000011
 50
3.0
 51
90.0
  0
LINE
  5
C9
  8
0
  6
CONTINUOUS
 62
     7
 10
958.1207488318
 20
1007.0689013256
 30
0.0
 11
961.2010586314
 21
948.2930890001
 31
0.0
  0
ARC
  5
CA
  8
0
  6
CONTINUOUS
 62
     7
 10
949.2175042143
 20
947.6650575252
 30
0.0
 40
12.00000000000002
 50
290.9202131394
 51
3.0
  0
ARC
  5
CB
  8
0
  6
CONTINUOUS
 62
     7
 10
930.6499915509
 20
996.2371428571
 30
0.0
 40
64.0
 50
270.0
 51
290.9202131394
  0
LINE
  5
CC
  8
0
  6
CONTINUOUS
 62
     7
 10
850.6499915509
 20
1040.2371428571
 30
0.0
 11
923.1687151154
 21
1040.2371428571
 31
0.0
  0
LINE
  5
CD
  8
0
  6
CONTINUOUS
 62
     7
 10
930.6499915509
 20
932.2371428571
 30
0.0
 11
850.6499915509
 21
932.2371428571
 31
0.0
  0
LINE
  5
CE
  8
0
  6
CONTINUOUS
 62
     7
 10
1521.4206204292
 20
1040.2371428571
 30
0.0
 11
1507.3780356778
 21
1308.1856219462
 31
0.0
  0
ARC
  5
CF
  8
0
  6
CONTINUOUS
 62
     7
 10
1515.3670719559
 20
1308.6043095961
 30
0.0
 40
7.999999999999536
 50
93.0
 51
183.0
  0
LINE
  5
D0
  8
0
  6
CONTINUOUS
 62
     7
 10
1536.9182340705
 20
1317.7447369115
 30
0.0
 11
1551.4617908091
 21
1040.2371428571
 31
0.0
  0
LINE
  5
D1
  8
0
  6
CONTINUOUS
 62
     7
 10
1514.9483843059
 20
1316.5933458741
 30
0.0
 11
1536.9182340705
 21
1317.7447369115
 31
0.0
  0
ARC
  5
D2
  8
0
  6
CONTINUOUS
 62
     7
 10
1542.1992295036
 20
1312.5139542515
 30
0.0
 40
5.000000000000054
 50
63.0
 51
93.0
  0
LINE
  5
D3
  8
0
  6
CONTINUOUS
 62
     7
 10
1544.4691820023
 20
1316.9689868725
 30
0.0
 11
1575.3345533977
 21
1301.2422946384
 31
0.0
  0
LINE
  5
D4
  8
0
  6
CONTINUOUS
 62
     7
 10
1536.9444020486
 20
1317.2454221441
 30
0.0
 11
1541.9375497224
 21
1317.5071019253
 31
0.0
  0
LINE
  5
D5
  8
0
  6
CONTINUOUS
 62
     7
 10
1578.0577485728
 20
1297.0489417987
 30
0.0
 11
1592.3251727177
 21
1024.8102715082
 31
0.0
  0
ARC
  5
D6
  8
0
  6
CONTINUOUS
 62
     7
 10
1573.064600899
 20
1296.7872620175
 30
0.0
 40
5.000000000000042
 50
3.0
 51
63.0
  0
LINE
  5
D7
  8
0
  6
CONTINUOUS
 62
     7
 10
1483.7910629795
 20
932.2371428571
 30
0.0
 11
1483.7910629795
 21
1040.2371428571
 31
0.0
  0
LINE
  5
D8
  8
0
  6
CONTINUOUS
 62
     7
 10
1483.7910629795
 20
1040.2371428571
 30
0.0
 11
1490.7910629795
 21
1040.2371428571
 31
0.0
  0
LINE
  5
D9
  8
0
  6
CONTINUOUS
 62
     7
 10
1490.7910629795
 20
932.2371428571
 30
0.0
 11
1483.7910629795
 21
932.2371428571
 31
0.0
  0
ARC
  5
DA
  8
0
  6
CONTINUOUS
 62
     7
 10
1563.309786544
 20
1005.2371428571
 30
0.0
 40
35.00000000000029
 50
3.0
 51
90.0
  0
LINE
  5
DB
  8
0
  6
CONTINUOUS
 62
     7
 10
1598.2618202604
 20
1007.0689013256
 30
0.0
 11
1601.3421300599
 21
948.2930890001
 31
0.0
  0
ARC
  5
DC
  8
0
  6
CONTINUOUS
 62
     7
 10
1589.3585756429
 20
947.6650575252
 30
0.0
 40
12.00000000000002
 50
290.9202131394
 51
3.0
  0
ARC
  5
DD
  8
0
  6
CONTINUOUS
 62
     7
 10
1570.7910629795
 20
996.2371428571
 30
0.0
 40
64.00000000000006
 50
270.0
 51
290.9202131394
  0
LINE
  5
DE
  8
0
  6
CONTINUOUS
 62
     7
 10
1490.7910629795
 20
1040.2371428571
 30
0.0
 11
1563.309786544
 21
1040.2371428571
 31
0.0
  0
LINE
  5
DF
  8
0
  6
CONTINUOUS
 62
     7
 10
1570.7910629795
 20
932.2371428571
 30
0.0
 11
1490.7910629795
 21
932.2371428571
 31
0.0
  0
LINE
  5
E0
  8
0
  6
CONTINUOUS
 62
     7
 10
604.1828378962
 20
214.3252647337
 30
0.0
 11
252.3454625964
 21
214.3252647337
 31
0.0
  0
LINE
  5
E1
  8
0
  6
CONTINUOUS
 62
     7
 10
623.2641502463
 20
160.9012737101
 30
0.0
 11
611.2641502463
 21
160.9012737101
 31
0.0
  0
LINE
  5
E2
  8
0
  6
CONTINUOUS
 62
     7
 10
245.2641502463
 20
160.9012737101
 30
0.0
 11
233.2641502463
 21
160.9012737101
 31
0.0
  0
LINE
  5
E3
  8
0
  6
CONTINUOUS
 62
     7
 10
233.2641502463
 20
140.9012737101
 30
0.0
 11
245.2641502463
 21
140.9012737101
 31
0.0
  0
LINE
  5
E4
  8
0
  6
CONTINUOUS
 62
     7
 10
611.2641502463
 20
140.9012737101
 30
0.0
 11
623.2641502463
 21
140.9012737101
 31
0.0
  0
LINE
  5
E5
  8
0
  6
CONTINUOUS
 62
     7
 10
229.2641502463
 20
120.3337610467
 30
0.0
 11
233.2641502463
 21
120.3337610467
 31
0.0
  0
LINE
  5
E6
  8
0
  6
CONTINUOUS
 62
     7
 10
623.2641502463
 20
120.3337610467
 30
0.0
 11
627.2641502463
 21
120.3337610467
 31
0.0
  0
LINE
  5
E7
  8
0
  6
CONTINUOUS
 62
     7
 10
611.2641502463
 20
179.4931071859
 30
0.0
 11
611.2641502463
 21
148.6277357905
 31
0.0
  0
LINE
  5
E8
  8
0
  6
CONTINUOUS
 62
     7
 10
245.2641502463
 20
148.6277357905
 30
0.0
 11
245.2641502463
 21
179.4931071859
 31
0.0
  0
LINE
  5
E9
  8
0
  6
CONTINUOUS
 62
     7
 10
244.7641502463
 20
184.774102619
 30
0.0
 11
244.7641502463
 21
165.313513945
 31
0.0
  0
LINE
  5
EA
  8
0
  6
CONTINUOUS
 62
     7
 10
611.7641502463
 20
184.774102619
 30
0.0
 11
244.7641502463
 21
184.774102619
 31
0.0
  0
LINE
  5
EB
  8
0
  6
CONTINUOUS
 62
     7
 10
611.7641502463
 20
184.774102619
 30
0.0
 11
611.7641502463
 21
165.313513945
 31
0.0
  0
LINE
  5
EC
  8
0
  6
CONTINUOUS
 62
     7
 10
611.7641502463
 20
165.313513945
 30
0.0
 11
611.2641502463
 21
165.313513945
 31
0.0
  0
ARC
  5
ED
  8
0
  6
CONTINUOUS
 62
     7
 10
607.5107264309
 20
160.6675215434
 30
0.0
 40
24.11265740501815
 50
81.0448095014
 51
92.9633983002
  0
LINE
  5
EE
  8
0
  6
CONTINUOUS
 62
     7
 10
250.2641502463
 20
184.7479346409
 30
0.0
 11
606.2641502463
 21
184.7479346409
 31
0.0
  0
ARC
  5
EF
  8
0
  6
CONTINUOUS
 62
     7
 10
249.0175740617
 20
160.6675215434
 30
0.0
 40
24.11265740502053
 50
87.0366016998
 51
98.9551904986
  0
LINE
  5
F0
  8
0
  6
CONTINUOUS
 62
     7
 10
245.2641502463
 20
165.313513945
 30
0.0
 11
244.7641502463
 21
165.313513945
 31
0.0
  0
LINE
  5
F1
  8
0
  6
CONTINUOUS
 62
     7
 10
244.7641502463
 20
206.7439523836
 30
0.0
 11
244.7641502463
 21
184.774102619
 31
0.0
  0
LINE
  5
F2
  8
0
  6
CONTINUOUS
 62
     7
 10
611.7641502463
 20
206.7439523836
 30
0.0
 11
611.7641502463
 21
184.774102619
 31
0.0
  0
LINE
  5
F3
  8
0
  6
CONTINUOUS
 62
     7
 10
611.2641502463
 20
184.4862548597
 30
0.0
 11
611.2641502463
 21
179.4931071859
 31
0.0
  0
LINE
  5
F4
  8
0
  6
CONTINUOUS
 62
     7
 10
245.2641502463
 20
179.4931071859
 30
0.0
 11
245.2641502463
 21
184.4862548597
 31
0.0
  0
ARC
  5
F5
  8
0
  6
CONTINUOUS
 62
     7
 10
252.2809448543
 20
206.8084701257
 30
0.0
 40
7.517071485449378
 50
89.5082340617
 51
180.4917659383
  0
ARC
  5
F6
  8
0
  6
CONTINUOUS
 62
     7
 10
604.2438295128
 20
206.8049440002
 30
0.0
 40
7.520568057793868
 50
359.5353275848
 51
90.4646724152
  0
LINE
  5
F7
  8
0
  6
CONTINUOUS
 62
     7
 10
250.2641502463
 20
125.0019808611
 30
0.0
 11
606.2641502463
 21
125.0019808611
 31
0.0
  0
ARC
  5
F8
  8
0
  6
CONTINUOUS
 62
     7
 10
606.2675740617
 20
129.9985570489
 30
0.0
 40
4.996577360881045
 50
269.9607390873
 51
359.9606852078
  0
LINE
  5
F9
  8
0
  6
CONTINUOUS
 62
     7
 10
611.2641502463
 20
148.6277357905
 30
0.0
 11
611.2641502463
 21
129.9951285349
 31
0.0
  0
ARC
  5
FA
  8
0
  6
CONTINUOUS
 62
     7
 10
250.2607264309
 20
129.9985570489
 30
0.0
 40
4.996577360881397
 50
180.0393147922
 51
270.0392609126
  0
LINE
  5
FB
  8
0
  6
CONTINUOUS
 62
     7
 10
245.2641502463
 20
129.9951285349
 30
0.0
 11
245.2641502463
 21
148.6277357905
 31
0.0
  0
LINE
  5
FC
  8
0
  6
CONTINUOUS
 62
     7
 10
623.2641502463
 20
158.3825501456
 30
0.0
 11
623.2641502463
 21
230.9012737101
 31
0.0
  0
ARC
  5
FD
  8
0
  6
CONTINUOUS
 62
     7
 10
620.2641502463
 20
230.9012737101
 30
0.0
 40
3.0
 50
0.0
 51
90.0
  0
LINE
  5
FE
  8
0
  6
CONTINUOUS
 62
     7
 10
620.2641502463
 20
233.9012737101
 30
0.0
 11
589.2641502463
 21
233.9012737101
 31
0.0
  0
LINE
  5
FF
  8
0
  6
CONTINUOUS
 62
     7
 10
589.2641502463
 20
237.9012737101
 30
0.0
 11
620.2641502463
 21
237.9012737101
 31
0.0
  0
ARC
  5
100
  8
0
  6
CONTINUOUS
 62
     7
 10
620.2641502463
 20
230.9012737101
 30
0.0
 40
7.0
 50
0.0
 51
90.0
  0
LINE
  5
101
  8
0
  6
CONTINUOUS
 62
     7
 10
627.2641502463
 20
230.9012737101
 30
0.0
 11
627.2641502463
 21
158.3825501456
 31
0.0
  0
LINE
  5
102
  8
0
  6
CONTINUOUS
 62
     7
 10
579.2641502463
 20
233.9012737101
 30
0.0
 11
579.2641502463
 21
237.9012737101
 31
0.0
  0
LINE
  5
103
  8
0
  6
CONTINUOUS
 62
     7
 10
579.2641502463
 20
237.9012737101
 30
0.0
 11
589.2641502463
 21
237.9012737101
 31
0.0
  0
LINE
  5
104
  8
0
  6
CONTINUOUS
 62
     7
 10
589.2641502463
 20
233.9012737101
 30
0.0
 11
579.2641502463
 21
233.9012737101
 31
0.0
  0
LINE
  5
105
  8
0
  6
CONTINUOUS
 62
     7
 10
267.2641502463
 20
233.9012737101
 30
0.0
 11
236.2641502463
 21
233.9012737101
 31
0.0
  0
ARC
  5
106
  8
0
  6
CONTINUOUS
 62
     7
 10
236.2641502463
 20
230.9012737101
 30
0.0
 40
3.000000000000028
 50
90.0
 51
180.0
  0
LINE
  5
107
  8
0
  6
CONTINUOUS
 62
     7
 10
233.2641502463
 20
230.9012737101
 30
0.0
 11
233.2641502463
 21
158.3825501456
 31
0.0
  0
LINE
  5
108
  8
0
  6
CONTINUOUS
 62
     7
 10
229.2641502463
 20
230.9012737101
 30
0.0
 11
229.2641502463
 21
158.3825501456
 31
0.0
  0
ARC
  5
109
  8
0
  6
CONTINUOUS
 62
     7
 10
236.2641502463
 20
230.9012737101
 30
0.0
 40
7.0
 50
90.0
 51
180.0
  0
LINE
  5
10A
  8
0
  6
CONTINUOUS
 62
     7
 10
236.2641502463
 20
237.9012737101
 30
0.0
 11
267.2641502463
 21
237.9012737101
 31
0.0
  0
LINE
  5
10B
  8
0
  6
CONTINUOUS
 62
     7
 10
267.2641502463
 20
237.9012737101
 30
0.0
 11
277.2641502463
 21
237.9012737101
 31
0.0
  0
LINE
  5
10C
  8
0
  6
CONTINUOUS
 62
     7
 10
277.2641502463
 20
237.9012737101
 30
0.0
 11
277.2641502463
 21
233.9012737101
 31
0.0
  0
LINE
  5
10D
  8
0
  6
CONTINUOUS
 62
     7
 10
277.2641502463
 20
233.9012737101
 30
0.0
 11
267.2641502463
 21
233.9012737101
 31
0.0
  0
LINE
  5
10E
  8
0
  6
CONTINUOUS
 62
     7
 10
627.2641502463
 20
158.3825501456
 30
0.0
 11
627.2641502463
 21
123.4305164292
 31
0.0
  0
LINE
  5
10F
  8
0
  6
CONTINUOUS
 62
     7
 10
623.2641502463
 20
123.4305164292
 30
0.0
 11
623.2641502463
 21
158.3825501456
 31
0.0
  0
LINE
  5
110
  8
0
  6
CONTINUOUS
 62
     7
 10
229.2641502463
 20
158.3825501456
 30
0.0
 11
229.2641502463
 21
123.4305164292
 31
0.0
  0
LINE
  5
111
  8
0
  6
CONTINUOUS
 62
     7
 10
233.2641502463
 20
158.3825501456
 30
0.0
 11
233.2641502463
 21
123.4305164292
 31
0.0
  0
LINE
  5
112
  8
0
  6
CONTINUOUS
 62
     7
 10
229.2641502463
 20
123.4305164292
 30
0.0
 11
229.2641502463
 21
120.3502066296
 31
0.0
  0
LINE
  5
113
  8
0
  6
CONTINUOUS
 62
     7
 10
233.2641502463
 20
123.4305164292
 30
0.0
 11
233.2641502463
 21
120.3502066296
 31
0.0
  0
LINE
  5
114
  8
0
  6
CONTINUOUS
 62
     7
 10
627.2641502463
 20
123.4305164292
 30
0.0
 11
627.2641502463
 21
120.3502066296
 31
0.0
  0
LINE
  5
115
  8
0
  6
CONTINUOUS
 62
     7
 10
623.2641502463
 20
120.3502066296
 30
0.0
 11
623.2641502463
 21
123.4305164292
 31
0.0
  0
LINE
  5
116
  8
0
  6
CONTINUOUS
 62
     7
 10
229.2641502463
 20
120.3337610467
 30
0.0
 11
229.2641502463
 21
120.3502066296
 31
0.0
  0
LINE
  5
117
  8
0
  6
CONTINUOUS
 62
     7
 10
233.2641502463
 20
120.3502066296
 30
0.0
 11
233.2641502463
 21
120.3337610467
 31
0.0
  0
LINE
  5
118
  8
0
  6
CONTINUOUS
 62
     7
 10
627.2641502463
 20
120.3502066296
 30
0.0
 11
627.2641502463
 21
120.3337610467
 31
0.0
  0
LINE
  5
119
  8
0
  6
CONTINUOUS
 62
     7
 10
623.2641502463
 20
120.3337610467
 30
0.0
 11
623.2641502463
 21
120.3502066296
 31
0.0
  0
LINE
  5
11A
  8
0
  6
CENTERX2
 62
     7
 10
428.2641502463
 20
110.3502066296
 30
0.0
 11
428.2641502463
 21
240.9012737101
 31
0.0
  0
ENDSEC
  0
EOF
