  0
SECTION
  2
HEADER
  9
$ACADVER
  1
AC1009
  9
$DWGCODEPAGE
  3
ansi_1252
  9
$INSBASE
 10
0.0
 20
0.0
 30
0.0
  9
$EXTMIN
 10
0.0
 20
0.0
 30
0.0
  9
$EXTMAX
 10
2100.0
 20
1485.0
 30
0.0
  9
$LIMMIN
 10
0.0
 20
0.0
  9
$LIMMAX
 10
2100.0
 20
1485.0
  9
$ORTHOMODE
 70
     0
  9
$REGENMODE
 70
     1
  9
$FILLMODE
 70
     1
  9
$QTEXTMODE
 70
     0
  9
$MIRRTEXT
 70
     1
  9
$DRAGMODE
 70
     2
  9
$LTSCALE
 40
5.0
  9
$OSMODE
 70
    37
  9
$ATTMODE
 70
     1
  9
$TEXTSIZE
 40
17.5
  9
$TRACEWID
 40
1.0
  9
$TEXTSTYLE
  7
STANDARD
  9
$CLAYER
  8
0
  9
$CELTYPE
  6
BYLAYER
  9
$CECOLOR
 62
   256
  9
$DIMSCALE
 40
1.0
  9
$DIMASZ
 40
20.0
  9
$DIMEXO
 40
0.0
  9
$DIMDLI
 40
3.75
  9
$DIMRND
 40
0.0
  9
$DIMDLE
 40
0.0
  9
$DIMEXE
 40
10.0
  9
$DIMTP
 40
0.0
  9
$DIMTM
 40
0.0
  9
$DIMTXT
 40
17.5
  9
$DIMCEN
 40
2.5
  9
$DIMTSZ
 40
0.0
  9
$DIMTOL
 70
     0
  9
$DIMLIM
 70
     0
  9
$DIMTIH
 70
     1
  9
$DIMTOH
 70
     1
  9
$DIMSE1
 70
     0
  9
$DIMSE2
 70
     0
  9
$DIMTAD
 70
     1
  9
$DIMZIN
 70
     0
  9
$DIMBLK
  1

  9
$DIMASO
 70
     1
  9
$DIMSHO
 70
     1
  9
$DIMPOST
  1

  9
$DIMAPOST
  1

  9
$DIMALT
 70
     0
  9
$DIMALTD
 70
     3
  9
$DIMALTF
 40
0.0393700787
  9
$DIMLFAC
 40
1.0
  9
$DIMTOFL
 70
     1
  9
$DIMTVP
 40
0.0
  9
$DIMTIX
 70
     0
  9
$DIMSOXD
 70
     0
  9
$DIMSAH
 70
     0
  9
$DIMBLK1
  1

  9
$DIMBLK2
  1

  9
$DIMSTYLE
  2
ISO-25
  9
$DIMCLRD
 70
     0
  9
$DIMCLRE
 70
     0
  9
$DIMCLRT
 70
     0
  9
$DIMTFAC
 40
1.0
  9
$DIMGAP
 40
7.62
  9
$LUNITS
 70
     2
  9
$LUPREC
 70
     2
  9
$SKETCHINC
 40
1.0
  9
$FILLETRAD
 40
10.0
  9
$AUNITS
 70
     0
  9
$AUPREC
 70
     2
  9
$MENU
  1
.
  9
$ELEVATION
 40
0.0
  9
$PELEVATION
 40
0.0
  9
$THICKNESS
 40
0.0
  9
$LIMCHECK
 70
     0
  9
$CHAMFERA
 40
10.0
  9
$CHAMFERB
 40
10.0
  9
$SKPOLY
 70
     0
  9
$TDCREATE
 40
2457029.541895995
  9
$TDUPDATE
 40
2457029.541896181
  9
$TDINDWG
 40
0.0000000116
  9
$TDUSRTIMER
 40
0.0000000116
  9
$USRTIMER
 70
     1
  9
$ANGBASE
 50
0.0
  9
$ANGDIR
 70
     0
  9
$PDMODE
 70
     0
  9
$PDSIZE
 40
-1.0
  9
$PLINEWID
 40
0.0
  9
$COORDS
 70
     1
  9
$SPLFRAME
 70
     0
  9
$SPLINETYPE
 70
     6
  9
$SPLINESEGS
 70
     8
  9
$ATTDIA
 70
     0
  9
$ATTREQ
 70
     1
  9
$HANDLING
 70
     1
  9
$HANDSEED
  5
E0
  9
$SURFTAB1
 70
     6
  9
$SURFTAB2
 70
     6
  9
$SURFTYPE
 70
     6
  9
$SURFU
 70
     6
  9
$SURFV
 70
     6
  9
$UCSNAME
  2

  9
$UCSORG
 10
0.0
 20
0.0
 30
0.0
  9
$UCSXDIR
 10
1.0
 20
0.0
 30
0.0
  9
$UCSYDIR
 10
0.0
 20
1.0
 30
0.0
  9
$PUCSNAME
  2

  9
$PUCSORG
 10
0.0
 20
0.0
 30
0.0
  9
$PUCSXDIR
 10
1.0
 20
0.0
 30
0.0
  9
$PUCSYDIR
 10
0.0
 20
1.0
 30
0.0
  9
$USERI1
 70
     0
  9
$USERI2
 70
     0
  9
$USERI3
 70
     0
  9
$USERI4
 70
     0
  9
$USERI5
 70
     0
  9
$USERR1
 40
0.0
  9
$USERR2
 40
0.0
  9
$USERR3
 40
0.0
  9
$USERR4
 40
0.0
  9
$USERR5
 40
0.0
  9
$WORLDVIEW
 70
     1
  9
$SHADEDGE
 70
     3
  9
$SHADEDIF
 70
    70
  9
$TILEMODE
 70
     1
  9
$MAXACTVP
 70
    64
  9
$PLIMCHECK
 70
     0
  9
$PEXTMIN
 10
1.0000000000E+20
 20
1.0000000000E+20
 30
1.0000000000E+20
  9
$PEXTMAX
 10
-1.0000000000E+20
 20
-1.0000000000E+20
 30
-1.0000000000E+20
  9
$PLIMMIN
 10
0.0
 20
0.0
  9
$PLIMMAX
 10
420.0
 20
297.0
  9
$UNITMODE
 70
     0
  9
$VISRETAIN
 70
     1
  9
$PLINEGEN
 70
     0
  9
$PSLTSCALE
 70
     1
  0
ENDSEC
  0
SECTION
  2
TABLES
  0
TABLE
  2
VPORT
 70
     1
  0
VPORT
  2
*ACTIVE
 70
     0
 10
0.0
 20
0.0
 11
1.0
 21
1.0
 12
1050.0
 22
742.5
 13
0.0
 23
0.0
 14
10.0
 24
10.0
 15
10.0
 25
10.0
 16
0.0
 26
0.0
 36
1.0
 17
0.0
 27
0.0
 37
0.0
 40
1485.0
 41
1.4141414141
 42
50.0
 43
0.0
 44
0.0
 50
0.0
 51
0.0
 71
     0
 72
  2000
 73
     1
 74
     3
 75
     0
 76
     0
 77
     0
 78
     0
  0
ENDTAB
  0
TABLE
  2
LTYPE
 70
     6
  0
LTYPE
  2
CONTINUOUS
 70
     0
  3
Solid line
 72
    65
 73
     0
 40
0.0
  0
LTYPE
  2
HIDDEN
 70
     0
  3
Hidden __ __ __ __ __ __ __ __ __ __ __ __ __ __
 72
    65
 73
     2
 40
1.905
 49
1.27
 49
-0.635
  0
LTYPE
  2
PHANTOM
 70
     0
  3
Phantom ______  __  __  ______  __  __  ______
 72
    65
 73
     6
 40
12.7
 49
6.35
 49
-1.27
 49
1.27
 49
-1.27
 49
1.27
 49
-1.27
  0
LTYPE
  2
CENTER
 70
     0
  3
Center ____ _ ____ _ ____ _ ____ _ ____ _ ____
 72
    65
 73
     4
 40
10.16
 49
6.35
 49
-1.27
 49
1.27
 49
-1.27
  0
LTYPE
  2
CENTERX2
 70
     0
  3
Center (2x) ________  __  ________  __  _____
 72
    65
 73
     4
 40
20.32
 49
12.7
 49
-2.54
 49
2.54
 49
-2.54
  0
LTYPE
  2
DOT2
 70
     0
  3
Dot (.5x) ........................................
 72
    65
 73
     2
 40
0.635
 49
0.0
 49
-0.635
  0
ENDTAB
  0
TABLE
  2
LAYER
 70
     2
  0
LAYER
  2
0
 70
     0
 62
     7
  6
CONTINUOUS
  0
LAYER
  2
FORMAT
 70
     0
 62
     7
  6
CONTINUOUS
  0
ENDTAB
  0
TABLE
  2
STYLE
 70
     1
  0
STYLE
  2
STANDARD
 70
     0
 40
0.0
 41
1.0
 50
0.0
 71
     0
 42
17.5
  3
txt
  4

  0
ENDTAB
  0
TABLE
  2
VIEW
 70
     0
  0
ENDTAB
  0
TABLE
  2
UCS
 70
     0
  0
ENDTAB
  0
TABLE
  2
APPID
 70
     1
  0
APPID
  2
ACAD
 70
     0
  0
ENDTAB
  0
TABLE
  2
DIMSTYLE
 70
     1
  0
DIMSTYLE
  2
ISO-25
 70
     0
  3

  4

  5

  6

  7

 40
1.0
 41
2.5
 42
0.625
 43
3.75
 44
1.25
 45
0.0
 46
0.0
 47
0.0
 48
0.0
140
2.5
141
2.5
142
0.0
143
0.0393700787
144
1.0
145
0.0
146
1.0
147
0.625
 71
     0
 72
     0
 73
     0
 74
     0
 75
     0
 76
     0
 77
     1
 78
     8
170
     0
171
     3
172
     1
173
     0
174
     0
175
     0
176
     0
177
     0
178
     0
  0
ENDTAB
  0
ENDSEC
  0
SECTION
  2
BLOCKS
  0
BLOCK
  8
0
  2
$MODEL_SPACE
 70
     0
 10
0.0
 20
0.0
 30
0.0
  3
$MODEL_SPACE
  1

  0
ENDBLK
  5
21
  8
0
  0
BLOCK
 67
     1
  8
0
  2
$PAPER_SPACE
 70
     0
 10
0.0
 20
0.0
 30
0.0
  3
$PAPER_SPACE
  1

  0
ENDBLK
  5
1D
 67
     1
  8
0
  0
ENDSEC
  0
SECTION
  2
ENTITIES
  0
LINE
  5
45
  8
0
  6
CONTINUOUS
 62
     7
 10
2074.25
 20
25.75
 30
0.0
 11
25.75
 21
25.75
 31
0.0
  0
LINE
  5
46
  8
0
  6
CONTINUOUS
 62
     7
 10
2075.0
 20
25.0
 30
0.0
 11
2075.0
 21
1385.0
 31
0.0
  0
LINE
  5
47
  8
0
  6
CONTINUOUS
 62
     7
 10
2075.0
 20
1385.0
 30
0.0
 11
25.0
 21
1385.0
 31
0.0
  0
LINE
  5
48
  8
0
  6
CONTINUOUS
 62
     7
 10
25.75
 20
1384.25
 30
0.0
 11
25.75
 21
25.75
 31
0.0
  0
LINE
  5
49
  8
0
  6
CONTINUOUS
 62
     7
 10
776.292364532
 20
939.5182142857
 30
0.0
 11
764.292364532
 21
939.5182142857
 31
0.0
  0
LINE
  5
4A
  8
0
  6
CONTINUOUS
 62
     7
 10
348.292364532
 20
939.5182142857
 30
0.0
 11
336.292364532
 21
939.5182142857
 31
0.0
  0
LINE
  5
4B
  8
0
  6
CONTINUOUS
 62
     7
 10
336.292364532
 20
919.5182142857
 30
0.0
 11
348.292364532
 21
919.5182142857
 31
0.0
  0
LINE
  5
4C
  8
0
  6
CONTINUOUS
 62
     7
 10
764.292364532
 20
919.5182142857
 30
0.0
 11
776.292364532
 21
919.5182142857
 31
0.0
  0
LINE
  5
4D
  8
0
  6
CONTINUOUS
 62
     7
 10
355.792364532
 20
976.5182142857
 30
0.0
 11
756.792364532
 21
976.5182142857
 31
0.0
  0
ARC
  5
4E
  8
0
  6
CONTINUOUS
 62
     7
 10
756.792364532
 20
968.5182142857
 30
0.0
 40
7.999999999999773
 50
0.0
 51
90.0
  0
ARC
  5
4F
  8
0
  6
CONTINUOUS
 62
     7
 10
355.792364532
 20
968.5182142857
 30
0.0
 40
8.000000000000227
 50
90.0
 51
180.0
  0
LINE
  5
50
  8
0
  6
CONTINUOUS
 62
     7
 10
347.792364532
 20
968.5182142857
 30
0.0
 11
347.792364532
 21
946.5182142857
 31
0.0
  0
LINE
  5
51
  8
0
  6
CONTINUOUS
 62
     7
 10
764.792364532
 20
968.5182142857
 30
0.0
 11
764.792364532
 21
946.5182142857
 31
0.0
  0
LINE
  5
52
  8
0
  6
CONTINUOUS
 62
     7
 10
764.792364532
 20
946.5182142857
 30
0.0
 11
347.792364532
 21
946.5182142857
 31
0.0
  0
LINE
  5
53
  8
0
  6
CONTINUOUS
 62
     7
 10
348.292364532
 20
941.5182142857
 30
0.0
 11
348.292364532
 21
946.5182142857
 31
0.0
  0
LINE
  5
54
  8
0
  6
CONTINUOUS
 62
     7
 10
764.292364532
 20
946.5182142857
 30
0.0
 11
764.292364532
 21
941.5182142857
 31
0.0
  0
LINE
  5
55
  8
0
  6
CONTINUOUS
 62
     7
 10
764.292364532
 20
941.5182142857
 30
0.0
 11
764.292364532
 21
911.5182142857
 31
0.0
  0
LINE
  5
56
  8
0
  6
CONTINUOUS
 62
     7
 10
348.292364532
 20
911.5182142857
 30
0.0
 11
348.292364532
 21
941.5182142857
 31
0.0
  0
ARC
  5
57
  8
0
  6
CONTINUOUS
 62
     7
 10
759.292364532
 20
911.5182142857
 30
0.0
 40
5.0
 50
270.0
 51
0.0
  0
LINE
  5
58
  8
0
  6
CONTINUOUS
 62
     7
 10
353.292364532
 20
906.5182142857
 30
0.0
 11
759.292364532
 21
906.5182142857
 31
0.0
  0
ARC
  5
59
  8
0
  6
CONTINUOUS
 62
     7
 10
353.292364532
 20
911.5182142857
 30
0.0
 40
5.0
 50
180.0
 51
270.0
  0
LINE
  5
5A
  8
0
  6
CONTINUOUS
 62
     7
 10
336.292364532
 20
881.5741604287
 30
0.0
 11
336.292364532
 21
869.7371861848
 31
0.0
  0
LINE
  5
5B
  8
0
  6
CONTINUOUS
 62
     7
 10
332.292364532
 20
869.7371861848
 30
0.0
 11
332.292364532
 21
881.5741604287
 31
0.0
  0
LINE
  5
5C
  8
0
  6
CONTINUOUS
 62
     7
 10
776.292364532
 20
869.7371861848
 30
0.0
 11
776.292364532
 21
881.5741604287
 31
0.0
  0
LINE
  5
5D
  8
0
  6
CONTINUOUS
 62
     7
 10
780.292364532
 20
881.5741604287
 30
0.0
 11
780.292364532
 21
869.7371861848
 31
0.0
  0
LINE
  5
5E
  8
0
  6
CONTINUOUS
 62
     7
 10
776.292364532
 20
881.5741604287
 30
0.0
 11
776.292364532
 21
940.3499727542
 31
0.0
  0
LINE
  5
5F
  8
0
  6
CONTINUOUS
 62
     7
 10
780.292364532
 20
940.3499727542
 30
0.0
 11
780.292364532
 21
881.5741604287
 31
0.0
  0
LINE
  5
60
  8
0
  6
CONTINUOUS
 62
     7
 10
336.292364532
 20
940.3499727542
 30
0.0
 11
336.292364532
 21
881.5741604287
 31
0.0
  0
LINE
  5
61
  8
0
  6
CONTINUOUS
 62
     7
 10
332.292364532
 20
940.3499727542
 30
0.0
 11
332.292364532
 21
881.5741604287
 31
0.0
  0
LINE
  5
62
  8
0
  6
CONTINUOUS
 62
     7
 10
332.292364532
 20
973.5182142857
 30
0.0
 11
336.292364532
 21
973.5182142857
 31
0.0
  0
LINE
  5
63
  8
0
  6
CONTINUOUS
 62
     7
 10
336.292364532
 20
973.5182142857
 30
0.0
 11
336.292364532
 21
940.3499727542
 31
0.0
  0
LINE
  5
64
  8
0
  6
CONTINUOUS
 62
     7
 10
332.292364532
 20
973.5182142857
 30
0.0
 11
332.292364532
 21
940.3499727542
 31
0.0
  0
LINE
  5
65
  8
0
  6
CONTINUOUS
 62
     7
 10
776.292364532
 20
973.5182142857
 30
0.0
 11
780.292364532
 21
973.5182142857
 31
0.0
  0
LINE
  5
66
  8
0
  6
CONTINUOUS
 62
     7
 10
776.292364532
 20
940.3499727542
 30
0.0
 11
776.292364532
 21
973.5182142857
 31
0.0
  0
LINE
  5
67
  8
0
  6
CONTINUOUS
 62
     7
 10
780.292364532
 20
973.5182142857
 30
0.0
 11
780.292364532
 21
940.3499727542
 31
0.0
  0
LINE
  5
68
  8
0
  6
CONTINUOUS
 62
     7
 10
332.292364532
 20
865.5182142857
 30
0.0
 11
336.292364532
 21
865.5182142857
 31
0.0
  0
LINE
  5
69
  8
0
  6
CONTINUOUS
 62
     7
 10
336.292364532
 20
869.7371861848
 30
0.0
 11
336.292364532
 21
865.5182142857
 31
0.0
  0
LINE
  5
6A
  8
0
  6
CONTINUOUS
 62
     7
 10
332.292364532
 20
869.7371861848
 30
0.0
 11
332.292364532
 21
865.5182142857
 31
0.0
  0
LINE
  5
6B
  8
0
  6
CONTINUOUS
 62
     7
 10
776.292364532
 20
865.5182142857
 30
0.0
 11
780.292364532
 21
865.5182142857
 31
0.0
  0
LINE
  5
6C
  8
0
  6
CONTINUOUS
 62
     7
 10
776.292364532
 20
865.5182142857
 30
0.0
 11
776.292364532
 21
869.7371861848
 31
0.0
  0
LINE
  5
6D
  8
0
  6
CONTINUOUS
 62
     7
 10
780.292364532
 20
869.7371861848
 30
0.0
 11
780.292364532
 21
865.5182142857
 31
0.0
  0
LINE
  5
6E
  8
0
  6
CONTINUOUS
 62
     7
 10
336.292364532
 20
973.5182142857
 30
0.0
 11
339.292364532
 21
973.5182142857
 31
0.0
  0
LINE
  5
6F
  8
0
  6
CONTINUOUS
 62
     7
 10
339.292364532
 20
865.5182142857
 30
0.0
 11
336.292364532
 21
865.5182142857
 31
0.0
  0
LINE
  5
70
  8
0
  6
CONTINUOUS
 62
     7
 10
773.292364532
 20
973.5182142857
 30
0.0
 11
776.292364532
 21
973.5182142857
 31
0.0
  0
LINE
  5
71
  8
0
  6
CONTINUOUS
 62
     7
 10
776.292364532
 20
865.5182142857
 30
0.0
 11
773.292364532
 21
865.5182142857
 31
0.0
  0
LINE
  5
72
  8
0
  6
CONTINUOUS
 62
     7
 10
380.292364532
 20
906.5182142857
 30
0.0
 11
380.292364532
 21
875.5182142857
 31
0.0
  0
ARC
  5
73
  8
0
  6
CONTINUOUS
 62
     7
 10
370.292364532
 20
875.5182142857
 30
0.0
 40
10.0
 50
270.0
 51
0.0
  0
ARC
  5
74
  8
0
  6
CONTINUOUS
 62
     7
 10
360.292364532
 20
894.0182142857
 30
0.0
 40
5.5
 50
270.0
 51
90.0
  0
LINE
  5
75
  8
0
  6
CONTINUOUS
 62
     7
 10
360.292364532
 20
899.5182142857
 30
0.0
 11
356.292364532
 21
899.5182142857
 31
0.0
  0
ARC
  5
76
  8
0
  6
CONTINUOUS
 62
     7
 10
356.292364532
 20
894.0182142857
 30
0.0
 40
5.5
 50
90.0
 51
270.0
  0
LINE
  5
77
  8
0
  6
CONTINUOUS
 62
     7
 10
356.292364532
 20
888.5182142857
 30
0.0
 11
360.292364532
 21
888.5182142857
 31
0.0
  0
LINE
  5
78
  8
0
  6
CONTINUOUS
 62
     7
 10
349.5473665336
 20
973.5182142857
 30
0.0
 11
339.292364532
 21
973.5182142857
 31
0.0
  0
LINE
  5
79
  8
0
  6
CONTINUOUS
 62
     7
 10
370.292364532
 20
865.5182142857
 30
0.0
 11
339.292364532
 21
865.5182142857
 31
0.0
  0
ARC
  5
7A
  8
0
  6
CONTINUOUS
 62
     7
 10
742.292364532
 20
875.5182142857
 30
0.0
 40
10.0
 50
180.0
 51
270.0
  0
LINE
  5
7B
  8
0
  6
CONTINUOUS
 62
     7
 10
732.292364532
 20
875.5182142857
 30
0.0
 11
732.292364532
 21
906.5182142857
 31
0.0
  0
ARC
  5
7C
  8
0
  6
CONTINUOUS
 62
     7
 10
756.792364532
 20
894.0182142857
 30
0.0
 40
5.5
 50
270.0
 51
90.0
  0
LINE
  5
7D
  8
0
  6
CONTINUOUS
 62
     7
 10
756.792364532
 20
899.5182142857
 30
0.0
 11
752.792364532
 21
899.5182142857
 31
0.0
  0
ARC
  5
7E
  8
0
  6
CONTINUOUS
 62
     7
 10
752.792364532
 20
894.0182142857
 30
0.0
 40
5.5
 50
90.0
 51
270.0
  0
LINE
  5
7F
  8
0
  6
CONTINUOUS
 62
     7
 10
752.792364532
 20
888.5182142857
 30
0.0
 11
756.792364532
 21
888.5182142857
 31
0.0
  0
LINE
  5
80
  8
0
  6
CONTINUOUS
 62
     7
 10
773.292364532
 20
973.5182142857
 30
0.0
 11
763.0373625304
 21
973.5182142857
 31
0.0
  0
LINE
  5
81
  8
0
  6
CONTINUOUS
 62
     7
 10
773.292364532
 20
865.5182142857
 30
0.0
 11
742.292364532
 21
865.5182142857
 31
0.0
  0
LINE
  5
82
  8
0
  6
CONTINUOUS
 62
     7
 10
356.292364532
 20
943.5182142857
 30
0.0
 11
360.292364532
 21
943.5182142857
 31
0.0
  0
LINE
  5
83
  8
0
  6
CONTINUOUS
 62
     7
 10
360.292364532
 20
954.5182142857
 30
0.0
 11
356.292364532
 21
954.5182142857
 31
0.0
  0
LINE
  5
84
  8
0
  6
CONTINUOUS
 62
     7
 10
752.792364532
 20
943.5182142857
 30
0.0
 11
756.792364532
 21
943.5182142857
 31
0.0
  0
LINE
  5
85
  8
0
  6
CONTINUOUS
 62
     7
 10
756.792364532
 20
954.5182142857
 30
0.0
 11
752.792364532
 21
954.5182142857
 31
0.0
  0
ARC
  5
86
  8
0
  6
CONTINUOUS
 62
     7
 10
360.292364532
 20
949.0182142857
 30
0.0
 40
5.500000000000114
 50
270.0
 51
90.0
  0
ARC
  5
87
  8
0
  6
CONTINUOUS
 62
     7
 10
356.292364532
 20
949.0182142857
 30
0.0
 40
5.500000000000114
 50
90.0
 51
270.0
  0
ARC
  5
88
  8
0
  6
CONTINUOUS
 62
     7
 10
752.792364532
 20
949.0182142857
 30
0.0
 40
5.500000000000114
 50
90.0
 51
270.0
  0
ARC
  5
89
  8
0
  6
CONTINUOUS
 62
     7
 10
756.792364532
 20
949.0182142857
 30
0.0
 40
5.500000000000114
 50
270.0
 51
90.0
  0
LINE
  5
8A
  8
0
  6
CENTERX2
 62
     7
 10
556.292364532
 20
996.7451882674
 30
0.0
 11
556.292364532
 21
871.5741604287
 31
0.0
  0
LINE
  5
8B
  8
0
  6
CONTINUOUS
 62
     7
 10
776.292364532
 20
513.3834444096
 30
0.0
 11
764.792364532
 21
513.3834444096
 31
0.0
  0
LINE
  5
8C
  8
0
  6
CONTINUOUS
 62
     7
 10
347.792364532
 20
513.3834444096
 30
0.0
 11
336.292364532
 21
513.3834444096
 31
0.0
  0
LINE
  5
8D
  8
0
  6
CONTINUOUS
 62
     7
 10
336.292364532
 20
493.3834444096
 30
0.0
 11
347.792364532
 21
493.3834444096
 31
0.0
  0
LINE
  5
8E
  8
0
  6
CONTINUOUS
 62
     7
 10
764.792364532
 20
493.3834444096
 30
0.0
 11
776.292364532
 21
493.3834444096
 31
0.0
  0
LINE
  5
8F
  8
0
  6
CONTINUOUS
 62
     7
 10
332.292364532
 20
472.8159317463
 30
0.0
 11
336.292364532
 21
472.8159317463
 31
0.0
  0
LINE
  5
90
  8
0
  6
CONTINUOUS
 62
     7
 10
776.292364532
 20
472.8159317463
 30
0.0
 11
780.292364532
 21
472.8159317463
 31
0.0
  0
LINE
  5
91
  8
0
  6
CONTINUOUS
 62
     7
 10
347.792364532
 20
552.3834444096
 30
0.0
 11
764.792364532
 21
552.3834444096
 31
0.0
  0
LINE
  5
92
  8
0
  6
CONTINUOUS
 62
     7
 10
764.792364532
 20
552.3834444096
 30
0.0
 11
756.792364532
 21
544.3834444096
 31
0.0
  0
LINE
  5
93
  8
0
  6
CONTINUOUS
 62
     7
 10
347.792364532
 20
552.3834444096
 30
0.0
 11
355.792364532
 21
544.3834444096
 31
0.0
  0
LINE
  5
94
  8
0
  6
CONTINUOUS
 62
     7
 10
764.792364532
 20
552.3834444096
 30
0.0
 11
764.792364532
 21
180.5436984475
 31
0.0
  0
LINE
  5
95
  8
0
  6
CONTINUOUS
 62
     7
 10
756.792364532
 20
188.5436984475
 30
0.0
 11
764.792364532
 21
180.5436984475
 31
0.0
  0
LINE
  5
96
  8
0
  6
CONTINUOUS
 62
     7
 10
347.792364532
 20
180.5436984475
 30
0.0
 11
347.792364532
 21
552.3834444096
 31
0.0
  0
LINE
  5
97
  8
0
  6
CONTINUOUS
 62
     7
 10
355.792364532
 20
188.5436984475
 30
0.0
 11
347.792364532
 21
180.5436984475
 31
0.0
  0
LINE
  5
98
  8
0
  6
CONTINUOUS
 62
     7
 10
764.792364532
 20
180.5436984475
 30
0.0
 11
347.792364532
 21
180.5436984475
 31
0.0
  0
LINE
  5
99
  8
0
  6
CONTINUOUS
 62
     7
 10
348.292364532
 20
559.3834444096
 30
0.0
 11
764.292364532
 21
559.3834444096
 31
0.0
  0
LINE
  5
9A
  8
0
  6
CONTINUOUS
 62
     7
 10
764.292364532
 20
559.3834444096
 30
0.0
 11
764.292364532
 21
552.3834444096
 31
0.0
  0
LINE
  5
9B
  8
0
  6
CONTINUOUS
 62
     7
 10
348.292364532
 20
559.3834444096
 30
0.0
 11
348.292364532
 21
552.3834444096
 31
0.0
  0
LINE
  5
9C
  8
0
  6
CONTINUOUS
 62
     7
 10
370.292364532
 20
586.3834444096
 30
0.0
 11
339.292364532
 21
586.3834444096
 31
0.0
  0
ARC
  5
9D
  8
0
  6
CONTINUOUS
 62
     7
 10
339.292364532
 20
583.3834444096
 30
0.0
 40
3.0
 50
90.0
 51
180.0
  0
LINE
  5
9E
  8
0
  6
CONTINUOUS
 62
     7
 10
336.292364532
 20
583.3834444096
 30
0.0
 11
336.292364532
 21
510.8647208452
 31
0.0
  0
LINE
  5
9F
  8
0
  6
CONTINUOUS
 62
     7
 10
332.292364532
 20
583.3834444096
 30
0.0
 11
332.292364532
 21
510.8647208452
 31
0.0
  0
ARC
  5
A0
  8
0
  6
CONTINUOUS
 62
     7
 10
339.292364532
 20
583.3834444096
 30
0.0
 40
7.000000000000057
 50
90.0
 51
180.0
  0
LINE
  5
A1
  8
0
  6
CONTINUOUS
 62
     7
 10
339.292364532
 20
590.3834444096
 30
0.0
 11
370.292364532
 21
590.3834444096
 31
0.0
  0
LINE
  5
A2
  8
0
  6
CONTINUOUS
 62
     7
 10
732.292364532
 20
586.3834444096
 30
0.0
 11
732.292364532
 21
590.3834444096
 31
0.0
  0
LINE
  5
A3
  8
0
  6
CONTINUOUS
 62
     7
 10
732.292364532
 20
590.3834444096
 30
0.0
 11
742.292364532
 21
590.3834444096
 31
0.0
  0
LINE
  5
A4
  8
0
  6
CONTINUOUS
 62
     7
 10
742.292364532
 20
586.3834444096
 30
0.0
 11
732.292364532
 21
586.3834444096
 31
0.0
  0
LINE
  5
A5
  8
0
  6
CONTINUOUS
 62
     7
 10
776.292364532
 20
510.8647208452
 30
0.0
 11
776.292364532
 21
583.3834444096
 31
0.0
  0
ARC
  5
A6
  8
0
  6
CONTINUOUS
 62
     7
 10
773.292364532
 20
583.3834444096
 30
0.0
 40
3.0
 50
0.0
 51
90.0
  0
LINE
  5
A7
  8
0
  6
CONTINUOUS
 62
     7
 10
773.292364532
 20
586.3834444096
 30
0.0
 11
742.292364532
 21
586.3834444096
 31
0.0
  0
LINE
  5
A8
  8
0
  6
CONTINUOUS
 62
     7
 10
742.292364532
 20
590.3834444096
 30
0.0
 11
773.292364532
 21
590.3834444096
 31
0.0
  0
ARC
  5
A9
  8
0
  6
CONTINUOUS
 62
     7
 10
773.292364532
 20
583.3834444096
 30
0.0
 40
7.0
 50
0.0
 51
90.0
  0
LINE
  5
AA
  8
0
  6
CONTINUOUS
 62
     7
 10
780.292364532
 20
583.3834444096
 30
0.0
 11
780.292364532
 21
510.8647208452
 31
0.0
  0
LINE
  5
AB
  8
0
  6
CONTINUOUS
 62
     7
 10
370.292364532
 20
590.3834444096
 30
0.0
 11
380.292364532
 21
590.3834444096
 31
0.0
  0
LINE
  5
AC
  8
0
  6
CONTINUOUS
 62
     7
 10
380.292364532
 20
590.3834444096
 30
0.0
 11
380.292364532
 21
586.3834444096
 31
0.0
  0
LINE
  5
AD
  8
0
  6
CONTINUOUS
 62
     7
 10
380.292364532
 20
586.3834444096
 30
0.0
 11
370.292364532
 21
586.3834444096
 31
0.0
  0
LINE
  5
AE
  8
0
  6
CONTINUOUS
 62
     7
 10
780.292364532
 20
510.8647208452
 30
0.0
 11
780.292364532
 21
475.9126871288
 31
0.0
  0
LINE
  5
AF
  8
0
  6
CONTINUOUS
 62
     7
 10
776.292364532
 20
475.9126871288
 30
0.0
 11
776.292364532
 21
510.8647208452
 31
0.0
  0
LINE
  5
B0
  8
0
  6
CONTINUOUS
 62
     7
 10
332.292364532
 20
510.8647208452
 30
0.0
 11
332.292364532
 21
475.9126871288
 31
0.0
  0
LINE
  5
B1
  8
0
  6
CONTINUOUS
 62
     7
 10
336.292364532
 20
510.8647208452
 30
0.0
 11
336.292364532
 21
475.9126871288
 31
0.0
  0
LINE
  5
B2
  8
0
  6
CONTINUOUS
 62
     7
 10
780.292364532
 20
475.9126871288
 30
0.0
 11
780.292364532
 21
472.8323773292
 31
0.0
  0
LINE
  5
B3
  8
0
  6
CONTINUOUS
 62
     7
 10
776.292364532
 20
472.8323773292
 30
0.0
 11
776.292364532
 21
475.9126871288
 31
0.0
  0
LINE
  5
B4
  8
0
  6
CONTINUOUS
 62
     7
 10
332.292364532
 20
475.9126871288
 30
0.0
 11
332.292364532
 21
472.8323773292
 31
0.0
  0
LINE
  5
B5
  8
0
  6
CONTINUOUS
 62
     7
 10
336.292364532
 20
475.9126871288
 30
0.0
 11
336.292364532
 21
472.8323773292
 31
0.0
  0
LINE
  5
B6
  8
0
  6
CONTINUOUS
 62
     7
 10
332.292364532
 20
472.8159317463
 30
0.0
 11
332.292364532
 21
472.8323773292
 31
0.0
  0
LINE
  5
B7
  8
0
  6
CONTINUOUS
 62
     7
 10
336.292364532
 20
472.8323773292
 30
0.0
 11
336.292364532
 21
472.8159317463
 31
0.0
  0
LINE
  5
B8
  8
0
  6
CONTINUOUS
 62
     7
 10
780.292364532
 20
472.8323773292
 30
0.0
 11
780.292364532
 21
472.8159317463
 31
0.0
  0
LINE
  5
B9
  8
0
  6
CONTINUOUS
 62
     7
 10
776.292364532
 20
472.8159317463
 30
0.0
 11
776.292364532
 21
472.8323773292
 31
0.0
  0
LINE
  5
BA
  8
0
  6
CENTERX2
 62
     7
 10
556.292364532
 20
593.3834444096
 30
0.0
 11
556.292364532
 21
139.5189091184
 31
0.0
  0
LINE
  5
BB
  8
0
  6
CONTINUOUS
 62
     7
 10
987.0235629795
 20
976.5182142857
 30
0.0
 11
1342.8633089417
 21
976.5182142857
 31
0.0
  0
ARC
  5
BC
  8
0
  6
CONTINUOUS
 62
     7
 10
1342.8633089417
 20
968.5182142857
 30
0.0
 40
8.000000000000227
 50
0.0
 51
90.0
  0
ARC
  5
BD
  8
0
  6
CONTINUOUS
 62
     7
 10
987.0235629795
 20
968.5182142857
 30
0.0
 40
7.999999999999673
 50
90.0
 51
141.3178125465
  0
LINE
  5
BE
  8
0
  6
CONTINUOUS
 62
     7
 10
1350.8633089417
 20
968.5182142857
 30
0.0
 11
1350.8633089417
 21
946.5182142857
 31
0.0
  0
LINE
  5
BF
  8
0
  6
CONTINUOUS
 62
     7
 10
1350.8633089417
 20
946.5182142857
 30
0.0
 11
1054.6157366188
 21
946.5182142857
 31
0.0
  0
LINE
  5
C0
  8
0
  6
CONTINUOUS
 62
     7
 10
1328.042800866
 20
906.5182142857
 30
0.0
 11
1057.267367591
 21
906.5182142857
 31
0.0
  0
LINE
  5
C1
  8
0
  6
CONTINUOUS
 62
     7
 10
1349.6934359606
 20
939.0182142857
 30
0.0
 11
1332.3729278849
 21
909.0182142857
 31
0.0
  0
ARC
  5
C2
  8
0
  6
CONTINUOUS
 62
     7
 10
1328.042800866
 20
911.5182142857
 30
0.0
 40
5.000000000000213
 50
270.0
 51
330.0
  0
ARC
  5
C3
  8
0
  6
CONTINUOUS
 62
     7
 10
1345.3633089417
 20
941.5182142857
 30
0.0
 40
5.000000000000016
 50
330.0
 51
0.0
  0
LINE
  5
C4
  8
0
  6
CONTINUOUS
 62
     7
 10
1350.3633089417
 20
946.5182142857
 30
0.0
 11
1350.3633089417
 21
941.5182142857
 31
0.0
  0
LINE
  5
C5
  8
0
  6
CONTINUOUS
 62
     7
 10
941.0235629795
 20
865.5182142857
 30
0.0
 11
941.0235629795
 21
973.5182142857
 31
0.0
  0
LINE
  5
C6
  8
0
  6
CONTINUOUS
 62
     7
 10
941.0235629795
 20
973.5182142857
 30
0.0
 11
948.0235629795
 21
973.5182142857
 31
0.0
  0
LINE
  5
C7
  8
0
  6
CONTINUOUS
 62
     7
 10
948.0235629795
 20
865.5182142857
 30
0.0
 11
941.0235629795
 21
865.5182142857
 31
0.0
  0
ARC
  5
C8
  8
0
  6
CONTINUOUS
 62
     7
 10
1020.542286544
 20
938.5182142857
 30
0.0
 40
35.00000000000011
 50
3.0
 51
90.0
  0
LINE
  5
C9
  8
0
  6
CONTINUOUS
 62
     7
 10
1055.4943202604
 20
940.3499727542
 30
0.0
 11
1058.5746300599
 21
881.5741604287
 31
0.0
  0
ARC
  5
CA
  8
0
  6
CONTINUOUS
 62
     7
 10
1046.5910756429
 20
880.9461289537
 30
0.0
 40
11.99999999999996
 50
290.9202131394
 51
3.0
  0
ARC
  5
CB
  8
0
  6
CONTINUOUS
 62
     7
 10
1028.0235629795
 20
929.5182142857
 30
0.0
 40
64.00000000000011
 50
270.0
 51
290.9202131394
  0
LINE
  5
CC
  8
0
  6
CONTINUOUS
 62
     7
 10
948.0235629795
 20
973.5182142857
 30
0.0
 11
1020.542286544
 21
973.5182142857
 31
0.0
  0
LINE
  5
CD
  8
0
  6
CONTINUOUS
 62
     7
 10
1028.0235629795
 20
865.5182142857
 30
0.0
 11
948.0235629795
 21
865.5182142857
 31
0.0
  0
LINE
  5
CE
  8
0
  6
CONTINUOUS
 62
     7
 10
1506.9949061434
 20
973.5182142857
 30
0.0
 11
1492.9523213921
 21
1241.4666933747
 31
0.0
  0
ARC
  5
CF
  8
0
  6
CONTINUOUS
 62
     7
 10
1500.9413576702
 20
1241.8853810247
 30
0.0
 40
8.000000000000421
 50
93.0
 51
183.0
  0
LINE
  5
D0
  8
0
  6
CONTINUOUS
 62
     7
 10
1522.4925197848
 20
1251.0258083401
 30
0.0
 11
1537.0360765234
 21
973.5182142857
 31
0.0
  0
LINE
  5
D1
  8
0
  6
CONTINUOUS
 62
     7
 10
1500.5226700202
 20
1249.8744173027
 30
0.0
 11
1522.4925197848
 21
1251.0258083401
 31
0.0
  0
ARC
  5
D2
  8
0
  6
CONTINUOUS
 62
     7
 10
1527.7735152179
 20
1245.7950256801
 30
0.0
 40
5.000000000000042
 50
63.0
 51
93.0
  0
LINE
  5
D3
  8
0
  6
CONTINUOUS
 62
     7
 10
1530.0434677166
 20
1250.2500583011
 30
0.0
 11
1560.908839112
 21
1234.523366067
 31
0.0
  0
LINE
  5
D4
  8
0
  6
CONTINUOUS
 62
     7
 10
1522.5186877629
 20
1250.5264935727
 30
0.0
 11
1527.5118354367
 21
1250.7881733539
 31
0.0
  0
ARC
  5
D5
  8
0
  6
CONTINUOUS
 62
     7
 10
1558.6388866133
 20
1230.0683334461
 30
0.0
 40
4.999999999999806
 50
3.0
 51
63.0
  0
LINE
  5
D6
  8
0
  6
CONTINUOUS
 62
     7
 10
1563.6320342871
 20
1230.3300132273
 30
0.0
 11
1577.899458432
 21
958.0913429368
 31
0.0
  0
LINE
  5
D7
  8
0
  6
CONTINUOUS
 62
     7
 10
1469.3653486938
 20
865.5182142857
 30
0.0
 11
1469.3653486938
 21
973.5182142857
 31
0.0
  0
LINE
  5
D8
  8
0
  6
CONTINUOUS
 62
     7
 10
1469.3653486938
 20
973.5182142857
 30
0.0
 11
1476.3653486938
 21
973.5182142857
 31
0.0
  0
LINE
  5
D9
  8
0
  6
CONTINUOUS
 62
     7
 10
1476.3653486938
 20
865.5182142857
 30
0.0
 11
1469.3653486938
 21
865.5182142857
 31
0.0
  0
ARC
  5
DA
  8
0
  6
CONTINUOUS
 62
     7
 10
1548.8840722583
 20
938.5182142857
 30
0.0
 40
35.00000000000011
 50
3.0
 51
90.0
  0
LINE
  5
DB
  8
0
  6
CONTINUOUS
 62
     7
 10
1583.8361059747
 20
940.3499727542
 30
0.0
 11
1586.9164157742
 21
881.5741604287
 31
0.0
  0
ARC
  5
DC
  8
0
  6
CONTINUOUS
 62
     7
 10
1574.9328613572
 20
880.9461289537
 30
0.0
 40
11.99999999999996
 50
290.9202131394
 51
3.0
  0
ARC
  5
DD
  8
0
  6
CONTINUOUS
 62
     7
 10
1556.3653486938
 20
929.5182142857
 30
0.0
 40
64.00000000000011
 50
270.0
 51
290.9202131394
  0
LINE
  5
DE
  8
0
  6
CONTINUOUS
 62
     7
 10
1476.3653486938
 20
973.5182142857
 30
0.0
 11
1548.8840722583
 21
973.5182142857
 31
0.0
  0
LINE
  5
DF
  8
0
  6
CONTINUOUS
 62
     7
 10
1556.3653486938
 20
865.5182142857
 30
0.0
 11
1476.3653486938
 21
865.5182142857
 31
0.0
  0
ENDSEC
  0
EOF
