  0
SECTION
  2
HEADER
  9
$ACADVER
  1
AC1014
  9
$ACADMAINTVER
 70
     9
  9
$DWGCODEPAGE
  3
ANSI_1252
  9
$INSBASE
 10
0.0
 20
0.0
 30
0.0
  9
$EXTMIN
 10
0.0
 20
0.0
 30
0.0
  9
$EXTMAX
 10
2100.0
 20
1485.0
 30
0.0
  9
$LIMMIN
 10
0.0
 20
0.0
  9
$LIMMAX
 10
2100.0
 20
1485.0
  9
$ORTHOMODE
 70
     0
  9
$REGENMODE
 70
     1
  9
$FILLMODE
 70
     1
  9
$QTEXTMODE
 70
     0
  9
$MIRRTEXT
 70
     1
  9
$DRAGMODE
 70
     2
  9
$LTSCALE
 40
5.0
  9
$OSMODE
 70
    37
  9
$ATTMODE
 70
     1
  9
$TEXTSIZE
 40
17.5
  9
$TRACEWID
 40
1.0
  9
$TEXTSTYLE
  7
STANDARD
  9
$CLAYER
  8
0
  9
$CELTYPE
  6
BYLAYER
  9
$CECOLOR
 62
   256
  9
$CELTSCALE
 40
1.0
  9
$DELOBJ
 70
     1
  9
$DISPSILH
 70
     0
  9
$DIMSCALE
 40
1.0
  9
$DIMASZ
 40
20.0
  9
$DIMEXO
 40
0.0
  9
$DIMDLI
 40
3.75
  9
$DIMRND
 40
0.0
  9
$DIMDLE
 40
0.0
  9
$DIMEXE
 40
10.0
  9
$DIMTP
 40
0.0
  9
$DIMTM
 40
0.0
  9
$DIMTXT
 40
17.5
  9
$DIMCEN
 40
2.5
  9
$DIMTSZ
 40
0.0
  9
$DIMTOL
 70
     0
  9
$DIMLIM
 70
     0
  9
$DIMTIH
 70
     1
  9
$DIMTOH
 70
     1
  9
$DIMSE1
 70
     0
  9
$DIMSE2
 70
     0
  9
$DIMTAD
 70
     1
  9
$DIMZIN
 70
     0
  9
$DIMBLK
  1

  9
$DIMASO
 70
     1
  9
$DIMSHO
 70
     1
  9
$DIMPOST
  1

  9
$DIMAPOST
  1

  9
$DIMALT
 70
     0
  9
$DIMALTD
 70
     3
  9
$DIMALTF
 40
0.0393700787
  9
$DIMLFAC
 40
1.0
  9
$DIMTOFL
 70
     1
  9
$DIMTVP
 40
0.0
  9
$DIMTIX
 70
     0
  9
$DIMSOXD
 70
     0
  9
$DIMSAH
 70
     0
  9
$DIMBLK1
  1

  9
$DIMBLK2
  1

  9
$DIMSTYLE
  2
ISO-25
  9
$DIMCLRD
 70
     0
  9
$DIMCLRE
 70
     0
  9
$DIMCLRT
 70
     0
  9
$DIMTFAC
 40
1.0
  9
$DIMGAP
 40
7.62
  9
$DIMJUST
 70
     0
  9
$DIMSD1
 70
     0
  9
$DIMSD2
 70
     0
  9
$DIMTOLJ
 70
     0
  9
$DIMTZIN
 70
     0
  9
$DIMALTZ
 70
     0
  9
$DIMALTTZ
 70
     0
  9
$DIMFIT
 70
     3
  9
$DIMUPT
 70
     0
  9
$DIMUNIT
 70
     2
  9
$DIMDEC
 70
     2
  9
$DIMTDEC
 70
     2
  9
$DIMALTU
 70
     2
  9
$DIMALTTD
 70
     3
  9
$DIMTXSTY
  7
STANDARD
  9
$DIMAUNIT
 70
     0
  9
$LUNITS
 70
     2
  9
$LUPREC
 70
     2
  9
$SKETCHINC
 40
1.0
  9
$FILLETRAD
 40
10.0
  9
$AUNITS
 70
     0
  9
$AUPREC
 70
     2
  9
$MENU
  1
.
  9
$ELEVATION
 40
0.0
  9
$PELEVATION
 40
0.0
  9
$THICKNESS
 40
0.0
  9
$LIMCHECK
 70
     0
  9
$CHAMFERA
 40
10.0
  9
$CHAMFERB
 40
10.0
  9
$CHAMFERC
 40
20.0
  9
$CHAMFERD
 40
0.0
  9
$SKPOLY
 70
     0
  9
$TDCREATE
 40
2456355.712983032
  9
$TDUPDATE
 40
2456355.712983391
  9
$TDINDWG
 40
0.0000000116
  9
$TDUSRTIMER
 40
0.0000000116
  9
$USRTIMER
 70
     1
  9
$ANGBASE
 50
0.0
  9
$ANGDIR
 70
     0
  9
$PDMODE
 70
     0
  9
$PDSIZE
 40
-1.0
  9
$PLINEWID
 40
0.0
  9
$COORDS
 70
     1
  9
$SPLFRAME
 70
     0
  9
$SPLINETYPE
 70
     6
  9
$SPLINESEGS
 70
     8
  9
$ATTDIA
 70
     0
  9
$ATTREQ
 70
     1
  9
$HANDLING
 70
     1
  9
$HANDSEED
  5
24B
  9
$SURFTAB1
 70
     6
  9
$SURFTAB2
 70
     6
  9
$SURFTYPE
 70
     6
  9
$SURFU
 70
     6
  9
$SURFV
 70
     6
  9
$UCSNAME
  2

  9
$UCSORG
 10
0.0
 20
0.0
 30
0.0
  9
$UCSXDIR
 10
1.0
 20
0.0
 30
0.0
  9
$UCSYDIR
 10
0.0
 20
1.0
 30
0.0
  9
$PUCSNAME
  2

  9
$PUCSORG
 10
0.0
 20
0.0
 30
0.0
  9
$PUCSXDIR
 10
1.0
 20
0.0
 30
0.0
  9
$PUCSYDIR
 10
0.0
 20
1.0
 30
0.0
  9
$USERI1
 70
     0
  9
$USERI2
 70
     0
  9
$USERI3
 70
     0
  9
$USERI4
 70
     0
  9
$USERI5
 70
     0
  9
$USERR1
 40
0.0
  9
$USERR2
 40
0.0
  9
$USERR3
 40
0.0
  9
$USERR4
 40
0.0
  9
$USERR5
 40
0.0
  9
$WORLDVIEW
 70
     1
  9
$SHADEDGE
 70
     3
  9
$SHADEDIF
 70
    70
  9
$TILEMODE
 70
     1
  9
$MAXACTVP
 70
    64
  9
$PINSBASE
 10
0.0
 20
0.0
 30
0.0
  9
$PLIMCHECK
 70
     0
  9
$PEXTMIN
 10
1.0000000000E+20
 20
1.0000000000E+20
 30
1.0000000000E+20
  9
$PEXTMAX
 10
-1.0000000000E+20
 20
-1.0000000000E+20
 30
-1.0000000000E+20
  9
$PLIMMIN
 10
0.0
 20
0.0
  9
$PLIMMAX
 10
420.0
 20
297.0
  9
$UNITMODE
 70
     0
  9
$VISRETAIN
 70
     1
  9
$PLINEGEN
 70
     0
  9
$PSLTSCALE
 70
     1
  9
$TREEDEPTH
 70
  3020
  9
$PICKSTYLE
 70
     1
  9
$CMLSTYLE
  2
STANDARD
  9
$CMLJUST
 70
     0
  9
$CMLSCALE
 40
20.0
  9
$PROXYGRAPHICS
 70
     1
  9
$MEASUREMENT
 70
     1
  0
ENDSEC
  0
SECTION
  2
CLASSES
  0
CLASS
  1
ACDBDICTIONARYWDFLT
  2
AcDbDictionaryWithDefault
  3
ObjectDBX Classes
 90
        0
280
     0
281
     0
  0
CLASS
  1
VISUALSTYLE
  2
AcDbVisualStyle
  3
ObjectDBX Classes
 90
     4095
280
     0
281
     0
  0
CLASS
  1
MATERIAL
  2
AcDbMaterial
  3
ObjectDBX Classes
 90
     1153
280
     0
281
     0
  0
CLASS
  1
XRECORD
  2
AcDbXrecord
  3
AutoCAD 2000
 90
        0
280
     0
281
     0
  0
CLASS
  1
LWPOLYLINE
  2
AcDbPolyline
  3
AutoCAD 2000
 90
        0
280
     0
281
     1
  0
CLASS
  1
HATCH
  2
AcDbHatch
  3
AutoCAD 2000
 90
        0
280
     0
281
     1
  0
ENDSEC
  0
SECTION
  2
TABLES
  0
TABLE
  2
VPORT
  5
8
330
0
100
AcDbSymbolTable
 70
     1
  0
VPORT
  5
29
330
8
100
AcDbSymbolTableRecord
100
AcDbViewportTableRecord
  2
*ACTIVE
 70
     0
 10
0.0
 20
0.0
 11
1.0
 21
1.0
 12
1050.0
 22
742.5
 13
0.0
 23
0.0
 14
10.0
 24
10.0
 15
10.0
 25
10.0
 16
0.0
 26
0.0
 36
1.0
 17
0.0
 27
0.0
 37
0.0
 40
1485.0
 41
1.4141414141
 42
50.0
 43
0.0
 44
0.0
 50
0.0
 51
0.0
 71
     0
 72
  2000
 73
     1
 74
     3
 75
     0
 76
     0
 77
     0
 78
     0
  0
ENDTAB
  0
TABLE
  2
LTYPE
  5
5
330
0
100
AcDbSymbolTable
 70
     6
  0
LTYPE
  5
14
330
5
100
AcDbSymbolTableRecord
100
AcDbLinetypeTableRecord
  2
BYBLOCK
 70
     0
  3

 72
    65
 73
     0
 40
0.0
  0
LTYPE
  5
15
330
5
100
AcDbSymbolTableRecord
100
AcDbLinetypeTableRecord
  2
BYLAYER
 70
     0
  3

 72
    65
 73
     0
 40
0.0
  0
LTYPE
  5
16
330
5
100
AcDbSymbolTableRecord
100
AcDbLinetypeTableRecord
  2
CONTINUOUS
 70
     0
  3
Solid line
 72
    65
 73
     0
 40
0.0
  0
LTYPE
  5
3F
330
5
100
AcDbSymbolTableRecord
100
AcDbLinetypeTableRecord
  2
HIDDEN
 70
     0
  3
Hidden __ __ __ __ __ __ __ __ __ __ __ __ __ __
 72
    65
 73
     2
 40
1.905
 49
1.27
 74
     0
 49
-0.635
 74
     0
  0
LTYPE
  5
40
330
5
100
AcDbSymbolTableRecord
100
AcDbLinetypeTableRecord
  2
PHANTOM
 70
     0
  3
Phantom ______  __  __  ______  __  __  ______
 72
    65
 73
     6
 40
12.7
 49
6.35
 74
     0
 49
-1.27
 74
     0
 49
1.27
 74
     0
 49
-1.27
 74
     0
 49
1.27
 74
     0
 49
-1.27
 74
     0
  0
LTYPE
  5
41
330
5
100
AcDbSymbolTableRecord
100
AcDbLinetypeTableRecord
  2
CENTER
 70
     0
  3
Center ____ _ ____ _ ____ _ ____ _ ____ _ ____
 72
    65
 73
     4
 40
10.16
 49
6.35
 74
     0
 49
-1.27
 74
     0
 49
1.27
 74
     0
 49
-1.27
 74
     0
  0
LTYPE
  5
42
330
5
100
AcDbSymbolTableRecord
100
AcDbLinetypeTableRecord
  2
CENTERX2
 70
     0
  3
Center (2x) ________  __  ________  __  _____
 72
    65
 73
     4
 40
20.32
 49
12.7
 74
     0
 49
-2.54
 74
     0
 49
2.54
 74
     0
 49
-2.54
 74
     0
  0
LTYPE
  5
43
330
5
100
AcDbSymbolTableRecord
100
AcDbLinetypeTableRecord
  2
DOT2
 70
     0
  3
Dot (.5x) ........................................
 72
    65
 73
     2
 40
0.635
 49
0.0
 74
     0
 49
-0.635
 74
     0
  0
ENDTAB
  0
TABLE
  2
LAYER
  5
2
330
0
100
AcDbSymbolTable
 70
     2
  0
LAYER
  5
10
330
2
100
AcDbSymbolTableRecord
100
AcDbLayerTableRecord
  2
0
 70
     0
 62
     7
  6
CONTINUOUS
  0
LAYER
  5
44
330
2
100
AcDbSymbolTableRecord
100
AcDbLayerTableRecord
  2
FORMAT
 70
     0
 62
     7
  6
CONTINUOUS
  0
ENDTAB
  0
TABLE
  2
STYLE
  5
3
330
0
100
AcDbSymbolTable
 70
     1
  0
STYLE
  5
11
330
3
100
AcDbSymbolTableRecord
100
AcDbTextStyleTableRecord
  2
STANDARD
 70
     0
 40
0.0
 41
1.0
 50
0.0
 71
     0
 42
17.5
  3
txt
  4

  0
ENDTAB
  0
TABLE
  2
VIEW
  5
6
330
0
100
AcDbSymbolTable
 70
     0
  0
ENDTAB
  0
TABLE
  2
UCS
  5
7
330
0
100
AcDbSymbolTable
 70
     0
  0
ENDTAB
  0
TABLE
  2
APPID
  5
9
330
0
100
AcDbSymbolTable
 70
     1
  0
APPID
  5
12
330
9
100
AcDbSymbolTableRecord
100
AcDbRegAppTableRecord
  2
ACAD
 70
     0
  0
ENDTAB
  0
TABLE
  2
DIMSTYLE
  5
A
330
0
100
AcDbSymbolTable
 70
     1
  0
DIMSTYLE
105
27
330
A
100
AcDbSymbolTableRecord
100
AcDbDimStyleTableRecord
  2
ISO-25
 70
     0
  3

  4

  5

  6

  7

 40
1.0
 41
2.5
 42
0.625
 43
3.75
 44
1.25
 45
0.0
 46
0.0
 47
0.0
 48
0.0
140
2.5
141
2.5
142
0.0
143
0.0393700787
144
1.0
145
0.0
146
1.0
147
0.625
 71
     0
 72
     0
 73
     0
 74
     0
 75
     0
 76
     0
 77
     1
 78
     8
170
     0
171
     3
172
     1
173
     0
174
     0
175
     0
176
     0
177
     0
178
     0
270
     2
271
     2
272
     2
273
     2
274
     3
340
11
275
     0
280
     0
281
     0
282
     0
283
     0
284
     8
285
     0
286
     0
287
     3
288
     0
  0
ENDTAB
  0
TABLE
  2
BLOCK_RECORD
  5
1
330
0
100
AcDbSymbolTable
 70
     1
  0
BLOCK_RECORD
  5
1F
330
1
100
AcDbSymbolTableRecord
100
AcDbBlockTableRecord
  2
*MODEL_SPACE
  0
BLOCK_RECORD
  5
1B
330
1
100
AcDbSymbolTableRecord
100
AcDbBlockTableRecord
  2
*PAPER_SPACE
  0
BLOCK_RECORD
  5
23
330
1
100
AcDbSymbolTableRecord
100
AcDbBlockTableRecord
  2
*PAPER_SPACE0
  0
ENDTAB
  0
ENDSEC
  0
SECTION
  2
BLOCKS
  0
BLOCK
  5
20
330
1F
100
AcDbEntity
  8
0
100
AcDbBlockBegin
  2
*MODEL_SPACE
 70
     0
 10
0.0
 20
0.0
 30
0.0
  3
*MODEL_SPACE
  1

  0
ENDBLK
  5
21
330
1F
100
AcDbEntity
  8
0
100
AcDbBlockEnd
  0
BLOCK
  5
1C
330
1B
100
AcDbEntity
 67
     1
  8
0
100
AcDbBlockBegin
  2
*PAPER_SPACE
 70
     0
 10
0.0
 20
0.0
 30
0.0
  3
*PAPER_SPACE
  1

  0
ENDBLK
  5
1D
330
1B
100
AcDbEntity
 67
     1
  8
0
100
AcDbBlockEnd
  0
BLOCK
  5
24
330
23
100
AcDbEntity
  8
0
100
AcDbBlockBegin
  2
*PAPER_SPACE0
 70
     0
 10
0.0
 20
0.0
 30
0.0
  3
*PAPER_SPACE0
  1

  0
ENDBLK
  5
25
330
23
100
AcDbEntity
  8
0
100
AcDbBlockEnd
  0
ENDSEC
  0
SECTION
  2
ENTITIES
  0
LINE
  5
45
330
1F
100
AcDbEntity
  8
0
  6
CONTINUOUS
 62
     7
100
AcDbLine
 10
2074.25
 20
25.75
 30
0.0
 11
25.75
 21
25.75
 31
0.0
  0
LINE
  5
46
330
1F
100
AcDbEntity
  8
0
  6
CONTINUOUS
 62
     7
100
AcDbLine
 10
2075.0
 20
25.0
 30
0.0
 11
2075.0
 21
1385.0
 31
0.0
  0
LINE
  5
47
330
1F
100
AcDbEntity
  8
0
  6
CONTINUOUS
 62
     7
100
AcDbLine
 10
2075.0
 20
1385.0
 30
0.0
 11
25.0
 21
1385.0
 31
0.0
  0
LINE
  5
48
330
1F
100
AcDbEntity
  8
0
  6
CONTINUOUS
 62
     7
100
AcDbLine
 10
25.75
 20
1384.25
 30
0.0
 11
25.75
 21
25.75
 31
0.0
  0
LINE
  5
49
330
1F
100
AcDbEntity
  8
0
  6
CONTINUOUS
 62
     7
100
AcDbLine
 10
530.430862069
 20
783.253257873
 30
0.0
 11
529.930862069
 21
783.253257873
 31
0.0
  0
LINE
  5
4A
330
1F
100
AcDbEntity
  8
0
  6
CONTINUOUS
 62
     7
100
AcDbLine
 10
91.930862069
 20
783.253257873
 30
0.0
 11
91.430862069
 21
783.253257873
 31
0.0
  0
LINE
  5
4B
330
1F
100
AcDbEntity
  8
0
  6
CONTINUOUS
 62
     7
100
AcDbLine
 10
91.430862069
 20
773.253257873
 30
0.0
 11
91.930862069
 21
773.253257873
 31
0.0
  0
LINE
  5
4C
330
1F
100
AcDbEntity
  8
0
  6
CONTINUOUS
 62
     7
100
AcDbLine
 10
529.930862069
 20
773.253257873
 30
0.0
 11
530.430862069
 21
773.253257873
 31
0.0
  0
LINE
  5
4D
330
1F
100
AcDbEntity
  8
0
  6
CONTINUOUS
 62
     7
100
AcDbLine
 10
529.8928090499
 20
1370.6044736968
 30
0.0
 11
91.968915088
 21
1370.6044736968
 31
0.0
  0
LINE
  5
4E
330
1F
100
AcDbEntity
  8
0
  6
CONTINUOUS
 62
     7
100
AcDbLine
 10
534.430862069
 20
1084.310942579
 30
0.0
 11
530.430862069
 21
1084.310942579
 31
0.0
  0
LINE
  5
4F
330
1F
100
AcDbEntity
  8
0
  6
CONTINUOUS
 62
     7
100
AcDbLine
 10
91.430862069
 20
1084.310942579
 30
0.0
 11
87.430862069
 21
1084.310942579
 31
0.0
  0
LINE
  5
50
330
1F
100
AcDbEntity
  8
0
  6
CONTINUOUS
 62
     7
100
AcDbLine
 10
91.930862069
 20
763.253257873
 30
0.0
 11
96.930862069
 21
763.253257873
 31
0.0
  0
LINE
  5
51
330
1F
100
AcDbEntity
  8
0
  6
CONTINUOUS
 62
     7
100
AcDbLine
 10
96.930862069
 20
793.253257873
 30
0.0
 11
91.930862069
 21
793.253257873
 31
0.0
  0
LINE
  5
52
330
1F
100
AcDbEntity
  8
0
  6
CONTINUOUS
 62
     7
100
AcDbLine
 10
524.930862069
 20
763.253257873
 30
0.0
 11
529.930862069
 21
763.253257873
 31
0.0
  0
LINE
  5
53
330
1F
100
AcDbEntity
  8
0
  6
CONTINUOUS
 62
     7
100
AcDbLine
 10
529.930862069
 20
793.253257873
 30
0.0
 11
524.930862069
 21
793.253257873
 31
0.0
  0
LINE
  5
54
330
1F
100
AcDbEntity
  8
0
  6
CONTINUOUS
 62
     7
100
AcDbLine
 10
96.930862069
 20
688.2731776959
 30
0.0
 11
524.930862069
 21
688.2731776959
 31
0.0
  0
LINE
  5
55
330
1F
100
AcDbEntity
  8
0
  6
CONTINUOUS
 62
     7
100
AcDbLine
 10
96.4765256919
 20
755.7936652765
 30
0.0
 11
96.930862069
 21
755.7936652765
 31
0.0
  0
LINE
  5
56
330
1F
100
AcDbEntity
  8
0
  6
CONTINUOUS
 62
     7
100
AcDbLine
 10
524.930862069
 20
755.7936652765
 30
0.0
 11
525.3851984461
 21
755.7936652765
 31
0.0
  0
LINE
  5
57
330
1F
100
AcDbEntity
  8
0
  6
CONTINUOUS
 62
     7
100
AcDbLine
 10
524.930862069
 20
1123.3716253452
 30
0.0
 11
96.930862069
 21
1123.3716253452
 31
0.0
  0
LINE
  5
58
330
1F
100
AcDbEntity
  8
0
  6
CONTINUOUS
 62
     7
100
AcDbLine
 10
91.430862069
 20
711.5605940142
 30
0.0
 11
91.430862069
 21
695.253257873
 31
0.0
  0
LINE
  5
59
330
1F
100
AcDbEntity
  8
0
  6
CONTINUOUS
 62
     7
100
AcDbLine
 10
87.430862069
 20
695.253257873
 30
0.0
 11
91.430862069
 21
695.253257873
 31
0.0
  0
LINE
  5
5A
330
1F
100
AcDbEntity
  8
0
  6
CONTINUOUS
 62
     7
100
AcDbLine
 10
87.430862069
 20
695.253257873
 30
0.0
 11
87.430862069
 21
711.5605940142
 31
0.0
  0
LINE
  5
5B
330
1F
100
AcDbEntity
  8
0
  6
CONTINUOUS
 62
     7
100
AcDbLine
 10
530.430862069
 20
695.253257873
 30
0.0
 11
534.430862069
 21
695.253257873
 31
0.0
  0
LINE
  5
5C
330
1F
100
AcDbEntity
  8
0
  6
CONTINUOUS
 62
     7
100
AcDbLine
 10
530.430862069
 20
711.5605940142
 30
0.0
 11
530.430862069
 21
695.253257873
 31
0.0
  0
LINE
  5
5D
330
1F
100
AcDbEntity
  8
0
  6
CONTINUOUS
 62
     7
100
AcDbLine
 10
534.430862069
 20
695.253257873
 30
0.0
 11
534.430862069
 21
711.5605940142
 31
0.0
  0
LINE
  5
5E
330
1F
100
AcDbEntity
  8
0
  6
CONTINUOUS
 62
     7
100
AcDbLine
 10
530.430862069
 20
800.1839069386
 30
0.0
 11
530.430862069
 21
711.5605940142
 31
0.0
  0
LINE
  5
5F
330
1F
100
AcDbEntity
  8
0
  6
CONTINUOUS
 62
     7
100
AcDbLine
 10
534.430862069
 20
711.5605940142
 30
0.0
 11
534.430862069
 21
800.1839069386
 31
0.0
  0
LINE
  5
60
330
1F
100
AcDbEntity
  8
0
  6
CONTINUOUS
 62
     7
100
AcDbLine
 10
91.430862069
 20
800.1839069386
 30
0.0
 11
91.430862069
 21
711.5605940142
 31
0.0
  0
LINE
  5
61
330
1F
100
AcDbEntity
  8
0
  6
CONTINUOUS
 62
     7
100
AcDbLine
 10
87.430862069
 20
711.5605940142
 30
0.0
 11
87.430862069
 21
800.1839069386
 31
0.0
  0
LINE
  5
62
330
1F
100
AcDbEntity
  8
0
  6
CONTINUOUS
 62
     7
100
AcDbLine
 10
530.430862069
 20
813.8194912687
 30
0.0
 11
530.430862069
 21
800.1839069386
 31
0.0
  0
LINE
  5
63
330
1F
100
AcDbEntity
  8
0
  6
CONTINUOUS
 62
     7
100
AcDbLine
 10
534.430862069
 20
800.1839069386
 30
0.0
 11
534.430862069
 21
813.8194912687
 31
0.0
  0
LINE
  5
64
330
1F
100
AcDbEntity
  8
0
  6
CONTINUOUS
 62
     7
100
AcDbLine
 10
91.430862069
 20
813.8194912687
 30
0.0
 11
91.430862069
 21
800.1839069386
 31
0.0
  0
LINE
  5
65
330
1F
100
AcDbEntity
  8
0
  6
CONTINUOUS
 62
     7
100
AcDbLine
 10
87.430862069
 20
800.1839069386
 30
0.0
 11
87.430862069
 21
813.8194912687
 31
0.0
  0
LINE
  5
66
330
1F
100
AcDbEntity
  8
0
  6
CONTINUOUS
 62
     7
100
AcDbLine
 10
530.430862069
 20
820.7293868434
 30
0.0
 11
530.430862069
 21
813.8194912687
 31
0.0
  0
LINE
  5
67
330
1F
100
AcDbEntity
  8
0
  6
CONTINUOUS
 62
     7
100
AcDbLine
 10
534.430862069
 20
813.8194912687
 30
0.0
 11
534.430862069
 21
820.7293868434
 31
0.0
  0
LINE
  5
68
330
1F
100
AcDbEntity
  8
0
  6
CONTINUOUS
 62
     7
100
AcDbLine
 10
91.430862069
 20
820.7293868434
 30
0.0
 11
91.430862069
 21
813.8194912687
 31
0.0
  0
LINE
  5
69
330
1F
100
AcDbEntity
  8
0
  6
CONTINUOUS
 62
     7
100
AcDbLine
 10
87.430862069
 20
813.8194912687
 30
0.0
 11
87.430862069
 21
820.7293868434
 31
0.0
  0
ELLIPSE
  5
6A
330
1F
100
AcDbEntity
  8
0
  6
CONTINUOUS
 62
     7
100
AcDbEllipse
 10
519.930862069
 20
827.1422128687
 30
0.0
 11
9.990482215818473
 21
-9.990482215818361
 31
0.0
210
0.0
220
0.0
230
1.0
 40
0.0436609429
 41
0.0436332312997361
 42
1.032065320226027
  0
ELLIPSE
  5
6B
330
1F
100
AcDbEntity
  8
0
  6
CONTINUOUS
 62
     7
100
AcDbEllipse
 10
101.930862069
 20
827.1422128687
 30
0.0
 11
9.990482215818416
 21
9.990482215818473
 31
0.0
210
0.0
220
0.0
230
1.0
 40
0.0436609429
 41
2.109527333363795
 42
3.097959422289859
  0
LINE
  5
6C
330
1F
100
AcDbEntity
  8
0
  6
CONTINUOUS
 62
     7
100
AcDbLine
 10
91.930862069
 20
1370.5664206777
 30
0.0
 11
91.930862069
 21
817.1802658878
 31
0.0
  0
ELLIPSE
  5
6D
330
1F
100
AcDbEntity
  8
0
  6
CONTINUOUS
 62
     7
100
AcDbEllipse
 10
101.930862069
 20
1360.6044736968
 30
0.0
 11
9.990482215818391
 21
-9.990482215818247
 31
0.0
210
0.0
220
0.0
230
1.0
 40
0.0436609429
 41
1.614429558094752
 42
3.185225884889523
  0
LINE
  5
6E
330
1F
100
AcDbEntity
  8
0
  6
CONTINUOUS
 62
     7
100
AcDbLine
 10
529.930862069
 20
817.1802658878
 30
0.0
 11
529.930862069
 21
1370.5664206777
 31
0.0
  0
ELLIPSE
  5
6F
330
1F
100
AcDbEntity
  8
0
  6
CONTINUOUS
 62
     7
100
AcDbEllipse
 10
519.930862069
 20
1360.6044736968
 30
0.0
 11
9.990482215818588
 21
9.9904822158187
 31
0.0
210
0.0
220
0.0
230
1.0
 40
0.0436609429
 41
6.239552075879754
 42
7.810348402674638
  0
LINE
  5
70
330
1F
100
AcDbEntity
  8
0
  6
CONTINUOUS
 62
     7
100
AcDbLine
 10
91.930862069
 20
816.4830199458
 30
0.0
 11
96.430862069
 21
816.4830199458
 31
0.0
  0
LINE
  5
71
330
1F
100
AcDbEntity
  8
0
  6
CONTINUOUS
 62
     7
100
AcDbLine
 10
525.430862069
 20
816.4830199458
 30
0.0
 11
529.930862069
 21
816.4830199458
 31
0.0
  0
LINE
  5
72
330
1F
100
AcDbEntity
  8
0
  6
CONTINUOUS
 62
     7
100
AcDbLine
 10
91.930862069
 20
816.4830199458
 30
0.0
 11
91.930862069
 21
817.1802658878
 31
0.0
  0
LINE
  5
73
330
1F
100
AcDbEntity
  8
0
  6
CONTINUOUS
 62
     7
100
AcDbLine
 10
529.930862069
 20
817.1802658878
 30
0.0
 11
529.930862069
 21
816.4830199458
 31
0.0
  0
LINE
  5
74
330
1F
100
AcDbEntity
  8
0
  6
CONTINUOUS
 62
     7
100
AcDbLine
 10
91.430862069
 20
796.253257873
 30
0.0
 11
96.430862069
 21
796.253257873
 31
0.0
  0
LINE
  5
75
330
1F
100
AcDbEntity
  8
0
  6
CONTINUOUS
 62
     7
100
AcDbLine
 10
525.430862069
 20
796.253257873
 30
0.0
 11
530.430862069
 21
796.253257873
 31
0.0
  0
LINE
  5
76
330
1F
100
AcDbEntity
  8
0
  6
CONTINUOUS
 62
     7
100
AcDbLine
 10
91.430862069
 20
816.4830199458
 30
0.0
 11
91.930862069
 21
816.4830199458
 31
0.0
  0
LINE
  5
77
330
1F
100
AcDbEntity
  8
0
  6
CONTINUOUS
 62
     7
100
AcDbLine
 10
529.930862069
 20
816.4830199458
 30
0.0
 11
530.430862069
 21
816.4830199458
 31
0.0
  0
LINE
  5
78
330
1F
100
AcDbEntity
  8
0
  6
CONTINUOUS
 62
     7
100
AcDbLine
 10
91.430862069
 20
838.9101659502
 30
0.0
 11
91.430862069
 21
820.7293868434
 31
0.0
  0
LINE
  5
79
330
1F
100
AcDbEntity
  8
0
  6
CONTINUOUS
 62
     7
100
AcDbLine
 10
87.430862069
 20
820.7293868434
 30
0.0
 11
87.430862069
 21
838.9101659502
 31
0.0
  0
LINE
  5
7A
330
1F
100
AcDbEntity
  8
0
  6
CONTINUOUS
 62
     7
100
AcDbLine
 10
530.430862069
 20
838.9101659502
 30
0.0
 11
530.430862069
 21
820.7293868434
 31
0.0
  0
LINE
  5
7B
330
1F
100
AcDbEntity
  8
0
  6
CONTINUOUS
 62
     7
100
AcDbLine
 10
534.430862069
 20
820.7293868434
 30
0.0
 11
534.430862069
 21
838.9101659502
 31
0.0
  0
LINE
  5
7C
330
1F
100
AcDbEntity
  8
0
  6
CONTINUOUS
 62
     7
100
AcDbLine
 10
91.430862069
 20
1369.0599359436
 30
0.0
 11
91.430862069
 21
1075.1825000065
 31
0.0
  0
LINE
  5
7D
330
1F
100
AcDbEntity
  8
0
  6
CONTINUOUS
 62
     7
100
AcDbLine
 10
530.430862069
 20
1369.0599359436
 30
0.0
 11
529.930862069
 21
1369.0599359436
 31
0.0
  0
LINE
  5
7E
330
1F
100
AcDbEntity
  8
0
  6
CONTINUOUS
 62
     7
100
AcDbLine
 10
91.930862069
 20
1369.0599359436
 30
0.0
 11
91.430862069
 21
1369.0599359436
 31
0.0
  0
LINE
  5
7F
330
1F
100
AcDbEntity
  8
0
  6
CONTINUOUS
 62
     7
100
AcDbLine
 10
530.430862069
 20
1369.0599359436
 30
0.0
 11
530.430862069
 21
1075.1825000065
 31
0.0
  0
LINE
  5
80
330
1F
100
AcDbEntity
  8
0
  6
CONTINUOUS
 62
     7
100
AcDbLine
 10
87.430862069
 20
838.9101659502
 30
0.0
 11
87.430862069
 21
1075.1825000065
 31
0.0
  0
LINE
  5
81
330
1F
100
AcDbEntity
  8
0
  6
CONTINUOUS
 62
     7
100
AcDbLine
 10
534.430862069
 20
838.9101659502
 30
0.0
 11
534.430862069
 21
1075.1825000065
 31
0.0
  0
LINE
  5
82
330
1F
100
AcDbEntity
  8
0
  6
CONTINUOUS
 62
     7
100
AcDbLine
 10
534.430862069
 20
1075.1825000065
 30
0.0
 11
534.430862069
 21
1084.310942579
 31
0.0
  0
LINE
  5
83
330
1F
100
AcDbEntity
  8
0
  6
CONTINUOUS
 62
     7
100
AcDbLine
 10
87.430862069
 20
1075.1825000065
 30
0.0
 11
87.430862069
 21
1084.310942579
 31
0.0
  0
LINE
  5
84
330
1F
100
AcDbEntity
  8
0
  6
CONTINUOUS
 62
     7
100
AcDbLine
 10
87.430862069
 20
795.253257873
 30
0.0
 11
84.430862069
 21
795.253257873
 31
0.0
  0
LINE
  5
85
330
1F
100
AcDbEntity
  8
0
  6
CONTINUOUS
 62
     7
100
AcDbLine
 10
84.430862069
 20
695.253257873
 30
0.0
 11
87.430862069
 21
695.253257873
 31
0.0
  0
LINE
  5
86
330
1F
100
AcDbEntity
  8
0
  6
CONTINUOUS
 62
     7
100
AcDbLine
 10
537.430862069
 20
795.253257873
 30
0.0
 11
534.430862069
 21
795.253257873
 31
0.0
  0
LINE
  5
87
330
1F
100
AcDbEntity
  8
0
  6
CONTINUOUS
 62
     7
100
AcDbLine
 10
534.430862069
 20
695.253257873
 30
0.0
 11
537.430862069
 21
695.253257873
 31
0.0
  0
ARC
  5
88
330
1F
100
AcDbEntity
  8
0
  6
CONTINUOUS
 62
     7
100
AcDbCircle
 10
60.930862069
 20
715.253257873
 30
0.0
 40
5.500000000000021
100
AcDbArc
 50
0.0
 51
180.0
  0
LINE
  5
89
330
1F
100
AcDbEntity
  8
0
  6
CONTINUOUS
 62
     7
100
AcDbLine
 10
55.430862069
 20
698.253257873
 30
0.0
 11
55.430862069
 21
715.253257873
 31
0.0
  0
ARC
  5
8A
330
1F
100
AcDbEntity
  8
0
  6
CONTINUOUS
 62
     7
100
AcDbCircle
 10
52.430862069
 20
698.253257873
 30
0.0
 40
3.0
100
AcDbArc
 50
270.0
 51
0.0
  0
LINE
  5
8B
330
1F
100
AcDbEntity
  8
0
  6
CONTINUOUS
 62
     7
100
AcDbLine
 10
44.430862069
 20
695.253257873
 30
0.0
 11
52.430862069
 21
695.253257873
 31
0.0
  0
ARC
  5
8C
330
1F
100
AcDbEntity
  8
0
  6
CONTINUOUS
 62
     7
100
AcDbCircle
 10
44.430862069
 20
698.253257873
 30
0.0
 40
3.000000000000021
100
AcDbArc
 50
180.0
 51
270.0
  0
LINE
  5
8D
330
1F
100
AcDbEntity
  8
0
  6
CONTINUOUS
 62
     7
100
AcDbLine
 10
41.430862069
 20
766.753257873
 30
0.0
 11
41.430862069
 21
698.253257873
 31
0.0
  0
ARC
  5
8E
330
1F
100
AcDbEntity
  8
0
  6
CONTINUOUS
 62
     7
100
AcDbCircle
 10
44.430862069
 20
766.753257873
 30
0.0
 40
3.0
100
AcDbArc
 50
90.0
 51
180.0
  0
LINE
  5
8F
330
1F
100
AcDbEntity
  8
0
  6
CONTINUOUS
 62
     7
100
AcDbLine
 10
60.930862069
 20
769.753257873
 30
0.0
 11
44.430862069
 21
769.753257873
 31
0.0
  0
ARC
  5
90
330
1F
100
AcDbEntity
  8
0
  6
CONTINUOUS
 62
     7
100
AcDbCircle
 10
60.930862069
 20
775.253257873
 30
0.0
 40
5.5
100
AcDbArc
 50
270.0
 51
90.0
  0
LINE
  5
91
330
1F
100
AcDbEntity
  8
0
  6
CONTINUOUS
 62
     7
100
AcDbLine
 10
44.430862069
 20
780.753257873
 30
0.0
 11
60.930862069
 21
780.753257873
 31
0.0
  0
ARC
  5
92
330
1F
100
AcDbEntity
  8
0
  6
CONTINUOUS
 62
     7
100
AcDbCircle
 10
44.430862069
 20
783.753257873
 30
0.0
 40
3.0
100
AcDbArc
 50
180.0
 51
270.0
  0
LINE
  5
93
330
1F
100
AcDbEntity
  8
0
  6
CONTINUOUS
 62
     7
100
AcDbLine
 10
41.430862069
 20
792.253257873
 30
0.0
 11
41.430862069
 21
783.753257873
 31
0.0
  0
ARC
  5
94
330
1F
100
AcDbEntity
  8
0
  6
CONTINUOUS
 62
     7
100
AcDbCircle
 10
44.430862069
 20
792.253257873
 30
0.0
 40
2.999999999999979
100
AcDbArc
 50
90.0
 51
180.0
  0
LINE
  5
95
330
1F
100
AcDbEntity
  8
0
  6
CONTINUOUS
 62
     7
100
AcDbLine
 10
84.430862069
 20
795.253257873
 30
0.0
 11
44.430862069
 21
795.253257873
 31
0.0
  0
ARC
  5
96
330
1F
100
AcDbEntity
  8
0
  6
CONTINUOUS
 62
     7
100
AcDbCircle
 10
69.430862069
 20
698.253257873
 30
0.0
 40
3.0
100
AcDbArc
 50
180.0
 51
270.0
  0
LINE
  5
97
330
1F
100
AcDbEntity
  8
0
  6
CONTINUOUS
 62
     7
100
AcDbLine
 10
66.430862069
 20
715.253257873
 30
0.0
 11
66.430862069
 21
698.253257873
 31
0.0
  0
LINE
  5
98
330
1F
100
AcDbEntity
  8
0
  6
CONTINUOUS
 62
     7
100
AcDbLine
 10
69.430862069
 20
695.253257873
 30
0.0
 11
84.430862069
 21
695.253257873
 31
0.0
  0
ARC
  5
99
330
1F
100
AcDbEntity
  8
0
  6
CONTINUOUS
 62
     7
100
AcDbCircle
 10
577.430862069
 20
783.753257873
 30
0.0
 40
2.999999999999886
100
AcDbArc
 50
270.0
 51
0.0
  0
LINE
  5
9A
330
1F
100
AcDbEntity
  8
0
  6
CONTINUOUS
 62
     7
100
AcDbLine
 10
560.930862069
 20
780.753257873
 30
0.0
 11
577.430862069
 21
780.753257873
 31
0.0
  0
ARC
  5
9B
330
1F
100
AcDbEntity
  8
0
  6
CONTINUOUS
 62
     7
100
AcDbCircle
 10
560.930862069
 20
775.253257873
 30
0.0
 40
5.500000000000114
100
AcDbArc
 50
90.0
 51
270.0
  0
LINE
  5
9C
330
1F
100
AcDbEntity
  8
0
  6
CONTINUOUS
 62
     7
100
AcDbLine
 10
577.430862069
 20
769.753257873
 30
0.0
 11
560.930862069
 21
769.753257873
 31
0.0
  0
ARC
  5
9D
330
1F
100
AcDbEntity
  8
0
  6
CONTINUOUS
 62
     7
100
AcDbCircle
 10
577.430862069
 20
766.753257873
 30
0.0
 40
3.000000000000114
100
AcDbArc
 50
0.0
 51
90.0
  0
LINE
  5
9E
330
1F
100
AcDbEntity
  8
0
  6
CONTINUOUS
 62
     7
100
AcDbLine
 10
580.430862069
 20
698.253257873
 30
0.0
 11
580.430862069
 21
766.753257873
 31
0.0
  0
ARC
  5
9F
330
1F
100
AcDbEntity
  8
0
  6
CONTINUOUS
 62
     7
100
AcDbCircle
 10
577.430862069
 20
698.253257873
 30
0.0
 40
3.0
100
AcDbArc
 50
270.0
 51
0.0
  0
LINE
  5
A0
330
1F
100
AcDbEntity
  8
0
  6
CONTINUOUS
 62
     7
100
AcDbLine
 10
569.430862069
 20
695.253257873
 30
0.0
 11
577.430862069
 21
695.253257873
 31
0.0
  0
ARC
  5
A1
330
1F
100
AcDbEntity
  8
0
  6
CONTINUOUS
 62
     7
100
AcDbCircle
 10
569.430862069
 20
698.253257873
 30
0.0
 40
3.0
100
AcDbArc
 50
180.0
 51
270.0
  0
LINE
  5
A2
330
1F
100
AcDbEntity
  8
0
  6
CONTINUOUS
 62
     7
100
AcDbLine
 10
566.430862069
 20
715.253257873
 30
0.0
 11
566.430862069
 21
698.253257873
 31
0.0
  0
ARC
  5
A3
330
1F
100
AcDbEntity
  8
0
  6
CONTINUOUS
 62
     7
100
AcDbCircle
 10
560.930862069
 20
715.253257873
 30
0.0
 40
5.500000000000114
100
AcDbArc
 50
0.0
 51
180.0
  0
LINE
  5
A4
330
1F
100
AcDbEntity
  8
0
  6
CONTINUOUS
 62
     7
100
AcDbLine
 10
555.430862069
 20
698.253257873
 30
0.0
 11
555.430862069
 21
715.253257873
 31
0.0
  0
ARC
  5
A5
330
1F
100
AcDbEntity
  8
0
  6
CONTINUOUS
 62
     7
100
AcDbCircle
 10
552.430862069
 20
698.253257873
 30
0.0
 40
3.0
100
AcDbArc
 50
270.0
 51
0.0
  0
LINE
  5
A6
330
1F
100
AcDbEntity
  8
0
  6
CONTINUOUS
 62
     7
100
AcDbLine
 10
577.430862069
 20
795.253257873
 30
0.0
 11
537.430862069
 21
795.253257873
 31
0.0
  0
ARC
  5
A7
330
1F
100
AcDbEntity
  8
0
  6
CONTINUOUS
 62
     7
100
AcDbCircle
 10
577.430862069
 20
792.253257873
 30
0.0
 40
2.999999999999886
100
AcDbArc
 50
0.0
 51
90.0
  0
LINE
  5
A8
330
1F
100
AcDbEntity
  8
0
  6
CONTINUOUS
 62
     7
100
AcDbLine
 10
580.430862069
 20
783.753257873
 30
0.0
 11
580.430862069
 21
792.253257873
 31
0.0
  0
LINE
  5
A9
330
1F
100
AcDbEntity
  8
0
  6
CONTINUOUS
 62
     7
100
AcDbLine
 10
537.430862069
 20
695.253257873
 30
0.0
 11
552.430862069
 21
695.253257873
 31
0.0
  0
ELLIPSE
  5
AA
330
1F
100
AcDbEntity
  8
0
  6
CONTINUOUS
 62
     7
100
AcDbEllipse
 10
521.930862069
 20
694.2364729493
 30
0.0
 11
2.99714466474552
 21
-2.99714466474552
 31
0.0
210
0.0
220
0.0
230
1.0
 40
0.0436609429
 41
0.0436332312999409
 42
1.614429558094769
  0
ELLIPSE
  5
AB
330
1F
100
AcDbEntity
  8
0
  6
CONTINUOUS
 62
     7
100
AcDbEllipse
 10
521.930862069
 20
1102.3157165739
 30
0.0
 11
2.99714466474552
 21
2.99714466474552
 31
0.0
210
0.0
220
0.0
230
1.0
 40
0.0436609429
 41
0.4799655442984616
 42
1.527163095495044
  0
ELLIPSE
  5
AC
330
1F
100
AcDbEntity
  8
0
  6
CONTINUOUS
 62
     7
100
AcDbEllipse
 10
521.930862069
 20
1105.7666362365
 30
0.0
 11
3.000000000000114
 21
0.0
 31
0.0
210
0.0
220
0.0
230
1.0
 40
0.4879975344
 41
5.759586531581304
 42
6.283185307179586
  0
LINE
  5
AD
330
1F
100
AcDbEntity
  8
0
  6
CONTINUOUS
 62
     7
100
AcDbLine
 10
524.930862069
 20
691.2478888551
 30
0.0
 11
524.930862069
 21
1105.7666362365
 31
0.0
  0
ELLIPSE
  5
AE
330
1F
100
AcDbEntity
  8
0
  6
CONTINUOUS
 62
     7
100
AcDbEllipse
 10
99.930862069
 20
1102.3157165739
 30
0.0
 11
2.997144664745563
 21
-2.99714466474552
 31
0.0
210
0.0
220
0.0
230
1.0
 40
0.0436609429
 41
1.614429558094758
 42
2.66162710929109
  0
ELLIPSE
  5
AF
330
1F
100
AcDbEntity
  8
0
  6
CONTINUOUS
 62
     7
100
AcDbEllipse
 10
99.930862069
 20
694.2364729493
 30
0.0
 11
2.997144664745562
 21
2.997144664745633
 31
0.0
210
0.0
220
0.0
230
1.0
 40
0.0436609429
 41
1.527163095495034
 42
3.09795942228995
  0
LINE
  5
B0
330
1F
100
AcDbEntity
  8
0
  6
CONTINUOUS
 62
     7
100
AcDbLine
 10
96.930862069
 20
1105.7666362365
 30
0.0
 11
96.930862069
 21
691.2478888551
 31
0.0
  0
ELLIPSE
  5
B1
330
1F
100
AcDbEntity
  8
0
  6
CONTINUOUS
 62
     7
100
AcDbEllipse
 10
99.930862069
 20
1105.7666362365
 30
0.0
 11
3.000000000000014
 21
0.0
 31
0.0
210
0.0
220
0.0
230
1.0
 40
0.4879975344
 41
3.141592653589793
 42
3.665191429188117
  0
LINE
  5
B2
330
1F
100
AcDbEntity
  8
0
  6
CONTINUOUS
 62
     7
100
AcDbLine
 10
524.930862069
 20
691.2478888551
 30
0.0
 11
524.930862069
 21
688.2845936016
 31
0.0
  0
LINE
  5
B3
330
1F
100
AcDbEntity
  8
0
  6
CONTINUOUS
 62
     7
100
AcDbLine
 10
96.930862069
 20
688.2845936016
 30
0.0
 11
96.930862069
 21
691.2478888551
 31
0.0
  0
LINE
  5
B4
330
1F
100
AcDbEntity
  8
0
  6
CONTINUOUS
 62
     7
100
AcDbLine
 10
91.930862069
 20
793.253257873
 30
0.0
 11
91.930862069
 21
763.253257873
 31
0.0
  0
LINE
  5
B5
330
1F
100
AcDbEntity
  8
0
  6
CONTINUOUS
 62
     7
100
AcDbLine
 10
529.930862069
 20
763.253257873
 30
0.0
 11
529.930862069
 21
793.253257873
 31
0.0
  0
LINE
  5
B6
330
1F
100
AcDbEntity
  8
0
  6
CONTINUOUS
 62
     7
100
AcDbLine
 10
524.930862069
 20
688.2845936016
 30
0.0
 11
524.930862069
 21
688.2731776959
 31
0.0
  0
LINE
  5
B7
330
1F
100
AcDbEntity
  8
0
  6
CONTINUOUS
 62
     7
100
AcDbLine
 10
96.930862069
 20
688.2845936016
 30
0.0
 11
96.930862069
 21
688.2731776959
 31
0.0
  0
LINE
  5
B8
330
1F
100
AcDbEntity
  8
0
  6
CONTINUOUS
 62
     7
100
AcDbLine
 10
524.930862069
 20
1123.0905487063
 30
0.0
 11
524.930862069
 21
1105.7666362365
 31
0.0
  0
LINE
  5
B9
330
1F
100
AcDbEntity
  8
0
  6
CONTINUOUS
 62
     7
100
AcDbLine
 10
96.930862069
 20
1105.7666362365
 30
0.0
 11
96.930862069
 21
1123.0905487063
 31
0.0
  0
LINE
  5
BA
330
1F
100
AcDbEntity
  8
0
  6
CONTINUOUS
 62
     7
100
AcDbLine
 10
524.930862069
 20
1123.3602094395
 30
0.0
 11
525.430862069
 21
1123.3602094395
 31
0.0
  0
LINE
  5
BB
330
1F
100
AcDbEntity
  8
0
  6
CONTINUOUS
 62
     7
100
AcDbLine
 10
525.430862069
 20
1123.3602094395
 30
0.0
 11
525.430862069
 21
793.253257873
 31
0.0
  0
LINE
  5
BC
330
1F
100
AcDbEntity
  8
0
  6
CONTINUOUS
 62
     7
100
AcDbLine
 10
525.430862069
 20
763.253257873
 30
0.0
 11
525.430862069
 21
757.7567552398
 31
0.0
  0
LINE
  5
BD
330
1F
100
AcDbEntity
  8
0
  6
CONTINUOUS
 62
     7
100
AcDbLine
 10
524.930862069
 20
757.7567552398
 30
0.0
 11
525.430862069
 21
757.7567552398
 31
0.0
  0
LINE
  5
BE
330
1F
100
AcDbEntity
  8
0
  6
CONTINUOUS
 62
     7
100
AcDbLine
 10
96.930862069
 20
757.7567552398
 30
0.0
 11
96.430862069
 21
757.7567552398
 31
0.0
  0
LINE
  5
BF
330
1F
100
AcDbEntity
  8
0
  6
CONTINUOUS
 62
     7
100
AcDbLine
 10
96.430862069
 20
1123.3602094395
 30
0.0
 11
96.930862069
 21
1123.3602094395
 31
0.0
  0
LINE
  5
C0
330
1F
100
AcDbEntity
  8
0
  6
CONTINUOUS
 62
     7
100
AcDbLine
 10
96.430862069
 20
757.7567552398
 30
0.0
 11
96.430862069
 21
763.253257873
 31
0.0
  0
LINE
  5
C1
330
1F
100
AcDbEntity
  8
0
  6
CONTINUOUS
 62
     7
100
AcDbLine
 10
96.430862069
 20
793.253257873
 30
0.0
 11
96.430862069
 21
1123.3602094395
 31
0.0
  0
LINE
  5
C2
330
1F
100
AcDbEntity
  8
0
  6
CONTINUOUS
 62
     7
100
AcDbLine
 10
525.430862069
 20
757.7567552398
 30
0.0
 11
525.430862069
 21
755.8393288994
 31
0.0
  0
LINE
  5
C3
330
1F
100
AcDbEntity
  8
0
  6
CONTINUOUS
 62
     7
100
AcDbLine
 10
96.430862069
 20
755.8393288994
 30
0.0
 11
96.430862069
 21
757.7567552398
 31
0.0
  0
ELLIPSE
  5
C4
330
1F
100
AcDbEntity
  8
0
  6
CONTINUOUS
 62
     7
100
AcDbEllipse
 10
108.430862069
 20
767.7936652765
 30
0.0
 11
11.98857865898236
 21
11.98857865898242
 31
0.0
210
0.0
220
0.0
230
1.0
 40
0.0436609429
 41
3.097959422289791
 42
3.18522588488979
  0
ELLIPSE
  5
C5
330
1F
100
AcDbEntity
  8
0
  6
CONTINUOUS
 62
     7
100
AcDbEllipse
 10
513.430862069
 20
767.7936652765
 30
0.0
 11
11.98857865898219
 21
-11.98857865898219
 31
0.0
210
0.0
220
0.0
230
1.0
 40
0.0436609429
 41
6.239552075880051
 42
6.326818538479435
  0
LINE
  5
C6
330
1F
100
AcDbEntity
  8
0
  6
CONTINUOUS
 62
     7
100
AcDbLine
 10
524.930862069
 20
1123.3716253452
 30
0.0
 11
524.930862069
 21
1123.0905487063
 31
0.0
  0
LINE
  5
C7
330
1F
100
AcDbEntity
  8
0
  6
CONTINUOUS
 62
     7
100
AcDbLine
 10
96.930862069
 20
1123.3716253452
 30
0.0
 11
96.930862069
 21
1123.0905487063
 31
0.0
  0
LINE
  5
C8
330
1F
100
AcDbEntity
  8
0
  6
CONTINUOUS
 62
     7
100
AcDbLine
 10
663.7421318406
 20
766.753257873
 30
0.0
 11
663.7421318406
 21
698.253257873
 31
0.0
  0
LINE
  5
C9
330
1F
100
AcDbEntity
  8
0
  6
CONTINUOUS
 62
     7
100
AcDbLine
 10
667.7421318406
 20
766.753257873
 30
0.0
 11
667.7421318406
 21
698.253257873
 31
0.0
  0
LINE
  5
CA
330
1F
100
AcDbEntity
  8
0
  6
CONTINUOUS
 62
     7
100
AcDbLine
 10
667.7421318406
 20
792.253257873
 30
0.0
 11
667.7421318406
 21
783.753257873
 31
0.0
  0
LINE
  5
CB
330
1F
100
AcDbEntity
  8
0
  6
CONTINUOUS
 62
     7
100
AcDbLine
 10
663.7421318406
 20
792.253257873
 30
0.0
 11
663.7421318406
 21
783.753257873
 31
0.0
  0
LINE
  5
CC
330
1F
100
AcDbEntity
  8
0
  6
CONTINUOUS
 62
     7
100
AcDbLine
 10
667.7421318406
 20
795.253257873
 30
0.0
 11
663.7421318406
 21
795.253257873
 31
0.0
  0
LINE
  5
CD
330
1F
100
AcDbEntity
  8
0
  6
CONTINUOUS
 62
     7
100
AcDbLine
 10
667.7421318406
 20
792.253257873
 30
0.0
 11
667.7421318406
 21
795.253257873
 31
0.0
  0
LINE
  5
CE
330
1F
100
AcDbEntity
  8
0
  6
CONTINUOUS
 62
     7
100
AcDbLine
 10
663.7421318406
 20
795.253257873
 30
0.0
 11
663.7421318406
 21
792.253257873
 31
0.0
  0
LINE
  5
CF
330
1F
100
AcDbEntity
  8
0
  6
CONTINUOUS
 62
     7
100
AcDbLine
 10
663.7421318406
 20
780.753257873
 30
0.0
 11
667.7421318406
 21
780.753257873
 31
0.0
  0
LINE
  5
D0
330
1F
100
AcDbEntity
  8
0
  6
CONTINUOUS
 62
     7
100
AcDbLine
 10
667.7421318406
 20
783.753257873
 30
0.0
 11
667.7421318406
 21
780.753257873
 31
0.0
  0
LINE
  5
D1
330
1F
100
AcDbEntity
  8
0
  6
CONTINUOUS
 62
     7
100
AcDbLine
 10
663.7421318406
 20
783.753257873
 30
0.0
 11
663.7421318406
 21
780.753257873
 31
0.0
  0
LINE
  5
D2
330
1F
100
AcDbEntity
  8
0
  6
CONTINUOUS
 62
     7
100
AcDbLine
 10
667.7421318406
 20
769.753257873
 30
0.0
 11
663.7421318406
 21
769.753257873
 31
0.0
  0
LINE
  5
D3
330
1F
100
AcDbEntity
  8
0
  6
CONTINUOUS
 62
     7
100
AcDbLine
 10
667.7421318406
 20
769.753257873
 30
0.0
 11
667.7421318406
 21
766.753257873
 31
0.0
  0
LINE
  5
D4
330
1F
100
AcDbEntity
  8
0
  6
CONTINUOUS
 62
     7
100
AcDbLine
 10
663.7421318406
 20
769.753257873
 30
0.0
 11
663.7421318406
 21
766.753257873
 31
0.0
  0
LINE
  5
D5
330
1F
100
AcDbEntity
  8
0
  6
CONTINUOUS
 62
     7
100
AcDbLine
 10
663.7421318406
 20
695.253257873
 30
0.0
 11
667.7421318406
 21
695.253257873
 31
0.0
  0
LINE
  5
D6
330
1F
100
AcDbEntity
  8
0
  6
CONTINUOUS
 62
     7
100
AcDbLine
 10
667.7421318406
 20
698.253257873
 30
0.0
 11
667.7421318406
 21
695.253257873
 31
0.0
  0
LINE
  5
D7
330
1F
100
AcDbEntity
  8
0
  6
CONTINUOUS
 62
     7
100
AcDbLine
 10
663.7421318406
 20
698.253257873
 30
0.0
 11
663.7421318406
 21
695.253257873
 31
0.0
  0
LINE
  5
D8
330
1F
100
AcDbEntity
  8
0
  6
CONTINUOUS
 62
     7
100
AcDbLine
 10
667.7421318406
 20
780.753257873
 30
0.0
 11
667.7421318406
 21
769.753257873
 31
0.0
  0
LINE
  5
D9
330
1F
100
AcDbEntity
  8
0
  6
CONTINUOUS
 62
     7
100
AcDbLine
 10
663.7421318406
 20
780.753257873
 30
0.0
 11
663.7421318406
 21
769.753257873
 31
0.0
  0
LINE
  5
DA
330
1F
100
AcDbEntity
  8
0
  6
CONTINUOUS
 62
     7
100
AcDbLine
 10
667.7421318406
 20
695.253257873
 30
0.0
 11
670.7421318406
 21
695.253257873
 31
0.0
  0
LINE
  5
DB
330
1F
100
AcDbEntity
  8
0
  6
CONTINUOUS
 62
     7
100
AcDbLine
 10
670.7421318406
 20
795.253257873
 30
0.0
 11
667.7421318406
 21
795.253257873
 31
0.0
  0
ARC
  5
DC
330
1F
100
AcDbEntity
  8
0
  6
CONTINUOUS
 62
     7
100
AcDbCircle
 10
672.7867005621
 20
1072.5678277241
 30
0.0
 40
9.999999999999979
100
AcDbArc
 50
95.0
 51
185.0
  0
LINE
  5
DD
330
1F
100
AcDbEntity
  8
0
  6
CONTINUOUS
 62
     7
100
AcDbLine
 10
691.8390370964
 20
1084.2728895599
 30
0.0
 11
671.9151431346
 21
1082.529774705
 31
0.0
  0
ARC
  5
DE
330
1F
100
AcDbEntity
  8
0
  6
CONTINUOUS
 62
     7
100
AcDbCircle
 10
692.7105945239
 20
1074.310942579
 30
0.0
 40
10.0000000000001
100
AcDbArc
 50
5.0
 51
95.0
  0
LINE
  5
DF
330
1F
100
AcDbEntity
  8
0
  6
CONTINUOUS
 62
     7
100
AcDbLine
 10
723.3436922395
 20
838.9101659502
 30
0.0
 11
702.6725415048
 21
1075.1825000065
 31
0.0
  0
ARC
  5
E0
330
1F
100
AcDbEntity
  8
0
  6
CONTINUOUS
 62
     7
100
AcDbCircle
 10
743.2675862014
 20
840.6532808052
 30
0.0
 40
20.00000000000009
100
AcDbArc
 50
185.0
 51
265.0
  0
LINE
  5
E1
330
1F
100
AcDbEntity
  8
0
  6
CONTINUOUS
 62
     7
100
AcDbLine
 10
820.5049391708
 20
813.8194912687
 30
0.0
 11
741.5244713464
 21
820.7293868434
 31
0.0
  0
ARC
  5
E2
330
1F
100
AcDbEntity
  8
0
  6
CONTINUOUS
 62
     7
100
AcDbCircle
 10
819.1976030296
 20
798.8765707974
 30
0.0
 40
14.99999999999998
100
AcDbArc
 50
5.0
 51
85.0
  0
LINE
  5
E3
330
1F
100
AcDbEntity
  8
0
  6
CONTINUOUS
 62
     7
100
AcDbLine
 10
841.894058706
 20
711.5605940142
 30
0.0
 11
834.140523501
 21
800.1839069386
 31
0.0
  0
ARC
  5
E4
330
1F
100
AcDbEntity
  8
0
  6
CONTINUOUS
 62
     7
100
AcDbCircle
 10
826.9511382346
 20
710.253257873
 30
0.0
 40
15.0000000000001
100
AcDbArc
 50
270.0
 51
5.0
  0
ARC
  5
E5
330
1F
100
AcDbEntity
  8
0
  6
CONTINUOUS
 62
     7
100
AcDbCircle
 10
673.7421318406
 20
805.253257873
 30
0.0
 40
10.00000000000011
100
AcDbArc
 50
270.0
 51
0.0
  0
LINE
  5
E6
330
1F
100
AcDbEntity
  8
0
  6
CONTINUOUS
 62
     7
100
AcDbLine
 10
683.7421318406
 20
832.6095427546
 30
0.0
 11
683.7421318406
 21
805.253257873
 31
0.0
  0
LINE
  5
E7
330
1F
100
AcDbEntity
  8
0
  6
CONTINUOUS
 62
     7
100
AcDbLine
 10
662.8247535811
 20
1071.6962702966
 30
0.0
 11
683.7421318406
 21
832.6095427546
 31
0.0
  0
LINE
  5
E8
330
1F
100
AcDbEntity
  8
0
  6
CONTINUOUS
 62
     7
100
AcDbLine
 10
670.7421318406
 20
695.253257873
 30
0.0
 11
826.9511382346
 21
695.253257873
 31
0.0
  0
LINE
  5
E9
330
1F
100
AcDbEntity
  8
0
  6
CONTINUOUS
 62
     7
100
AcDbLine
 10
673.7421318406
 20
795.253257873
 30
0.0
 11
670.7421318406
 21
795.253257873
 31
0.0
  0
LINE
  5
EA
330
1F
100
AcDbEntity
  8
0
  6
CONTINUOUS
 62
     7
100
AcDbLine
 10
637.1138094706
 20
1365.5737062337
 30
0.0
 11
676.9615973943
 21
1369.0599359436
 31
0.0
  0
LINE
  5
EB
330
1F
100
AcDbEntity
  8
0
  6
CONTINUOUS
 62
     7
100
AcDbLine
 10
676.9615973943
 20
1369.0599359436
 30
0.0
 11
702.6725415048
 21
1075.1825000065
 31
0.0
  0
LINE
  5
EC
330
1F
100
AcDbEntity
  8
0
  6
CONTINUOUS
 62
     7
100
AcDbLine
 10
637.1138094706
 20
1365.5737062337
 30
0.0
 11
662.8247535811
 21
1071.6962702966
 31
0.0
  0
LINE
  5
ED
330
1F
100
AcDbEntity
  8
0
  6
CONTINUOUS
 62
     7
100
AcDbLine
 10
677.0051752656
 20
1368.5618385945
 30
0.0
 11
699.9176533217
 21
1370.5664206777
 31
0.0
  0
LINE
  5
EE
330
1F
100
AcDbEntity
  8
0
  6
CONTINUOUS
 62
     7
100
AcDbLine
 10
757.4230579715
 20
828.0137702961
 30
0.0
 11
710.7511577301
 21
1361.4760311243
 31
0.0
  0
ARC
  5
EF
330
1F
100
AcDbEntity
  8
0
  6
CONTINUOUS
 62
     7
100
AcDbCircle
 10
747.4611109906
 20
827.1422128687
 30
0.0
 40
9.999999999999996
100
AcDbArc
 50
311.3236801377
 51
5.0
  0
ARC
  5
F0
330
1F
100
AcDbEntity
  8
0
  6
CONTINUOUS
 62
     7
100
AcDbCircle
 10
700.7892107492
 20
1360.6044736968
 30
0.0
 40
10.00000000000022
100
AcDbArc
 50
5.0
 51
95.0
  0
LINE
  5
F1
330
1F
100
AcDbEntity
  8
0
  6
CONTINUOUS
 62
     7
100
AcDbLine
 10
1161.975170252
 20
796.253257873
 30
0.0
 11
1161.975170252
 21
818.253257873
 31
0.0
  0
LINE
  5
F2
330
1F
100
AcDbEntity
  8
0
  6
CONTINUOUS
 62
     7
100
AcDbLine
 10
794.975170252
 20
818.253257873
 30
0.0
 11
794.975170252
 21
816.0530566316
 31
0.0
  0
LINE
  5
F3
330
1F
100
AcDbEntity
  8
0
  6
CONTINUOUS
 62
     7
100
AcDbLine
 10
834.4844107345
 20
796.253257873
 30
0.0
 11
1161.975170252
 21
796.253257873
 31
0.0
  0
LINE
  5
F4
330
1F
100
AcDbEntity
  8
0
  6
CONTINUOUS
 62
     7
100
AcDbLine
 10
1149.975170252
 20
830.253257873
 30
0.0
 11
806.975170252
 21
830.253257873
 31
0.0
  0
ARC
  5
F5
330
1F
100
AcDbEntity
  8
0
  6
CONTINUOUS
 62
     7
100
AcDbCircle
 10
1149.975170252
 20
818.253257873
 30
0.0
 40
12.00000000000011
100
AcDbArc
 50
0.0
 51
90.0
  0
ARC
  5
F6
330
1F
100
AcDbEntity
  8
0
  6
CONTINUOUS
 62
     7
100
AcDbCircle
 10
806.975170252
 20
818.253257873
 30
0.0
 40
12.00000000000011
100
AcDbArc
 50
90.0
 51
180.0
  0
ARC
  5
F7
330
1F
100
AcDbEntity
  8
0
  6
CONTINUOUS
 62
     7
100
AcDbCircle
 10
1158.975170252
 20
796.253257873
 30
0.0
 40
2.999999999999515
100
AcDbArc
 50
330.0
 51
0.0
  0
LINE
  5
F8
330
1F
100
AcDbEntity
  8
0
  6
CONTINUOUS
 62
     7
100
AcDbLine
 10
1141.0773119071
 20
759.253257873
 30
0.0
 11
1161.5732464634
 21
794.753257873
 31
0.0
  0
ARC
  5
F9
330
1F
100
AcDbEntity
  8
0
  6
CONTINUOUS
 62
     7
100
AcDbCircle
 10
1137.613210292
 20
759.253257873
 30
0.0
 40
3.000000000000049
100
AcDbArc
 50
270.0
 51
330.0
  0
LINE
  5
FA
330
1F
100
AcDbEntity
  8
0
  6
CONTINUOUS
 62
     7
100
AcDbLine
 10
837.9839572755
 20
756.253257873
 30
0.0
 11
1137.613210292
 21
756.253257873
 31
0.0
  0
LINE
  5
FB
330
1F
100
AcDbEntity
  8
0
  6
CONTINUOUS
 62
     7
100
AcDbLine
 10
1140.2112865034
 20
757.753257873
 30
0.0
 11
1141.0773119071
 21
759.253257873
 31
0.0
  0
LINE
  5
FC
330
1F
100
AcDbEntity
  8
0
  6
CONTINUOUS
 62
     7
100
AcDbLine
 10
1242.4716384095
 20
766.753257873
 30
0.0
 11
1242.4716384095
 21
698.253257873
 31
0.0
  0
LINE
  5
FD
330
1F
100
AcDbEntity
  8
0
  6
CONTINUOUS
 62
     7
100
AcDbLine
 10
1246.4716384095
 20
766.753257873
 30
0.0
 11
1246.4716384095
 21
698.253257873
 31
0.0
  0
LINE
  5
FE
330
1F
100
AcDbEntity
  8
0
  6
CONTINUOUS
 62
     7
100
AcDbLine
 10
1246.4716384095
 20
792.253257873
 30
0.0
 11
1246.4716384095
 21
783.753257873
 31
0.0
  0
LINE
  5
FF
330
1F
100
AcDbEntity
  8
0
  6
CONTINUOUS
 62
     7
100
AcDbLine
 10
1242.4716384095
 20
792.253257873
 30
0.0
 11
1242.4716384095
 21
783.753257873
 31
0.0
  0
LINE
  5
100
330
1F
100
AcDbEntity
  8
0
  6
CONTINUOUS
 62
     7
100
AcDbLine
 10
1246.4716384095
 20
795.253257873
 30
0.0
 11
1242.4716384095
 21
795.253257873
 31
0.0
  0
LINE
  5
101
330
1F
100
AcDbEntity
  8
0
  6
CONTINUOUS
 62
     7
100
AcDbLine
 10
1246.4716384095
 20
792.253257873
 30
0.0
 11
1246.4716384095
 21
795.253257873
 31
0.0
  0
LINE
  5
102
330
1F
100
AcDbEntity
  8
0
  6
CONTINUOUS
 62
     7
100
AcDbLine
 10
1242.4716384095
 20
795.253257873
 30
0.0
 11
1242.4716384095
 21
792.253257873
 31
0.0
  0
LINE
  5
103
330
1F
100
AcDbEntity
  8
0
  6
CONTINUOUS
 62
     7
100
AcDbLine
 10
1242.4716384095
 20
780.753257873
 30
0.0
 11
1246.4716384095
 21
780.753257873
 31
0.0
  0
LINE
  5
104
330
1F
100
AcDbEntity
  8
0
  6
CONTINUOUS
 62
     7
100
AcDbLine
 10
1246.4716384095
 20
783.753257873
 30
0.0
 11
1246.4716384095
 21
780.753257873
 31
0.0
  0
LINE
  5
105
330
1F
100
AcDbEntity
  8
0
  6
CONTINUOUS
 62
     7
100
AcDbLine
 10
1242.4716384095
 20
783.753257873
 30
0.0
 11
1242.4716384095
 21
780.753257873
 31
0.0
  0
LINE
  5
106
330
1F
100
AcDbEntity
  8
0
  6
CONTINUOUS
 62
     7
100
AcDbLine
 10
1246.4716384095
 20
769.753257873
 30
0.0
 11
1242.4716384095
 21
769.753257873
 31
0.0
  0
LINE
  5
107
330
1F
100
AcDbEntity
  8
0
  6
CONTINUOUS
 62
     7
100
AcDbLine
 10
1246.4716384095
 20
769.753257873
 30
0.0
 11
1246.4716384095
 21
766.753257873
 31
0.0
  0
LINE
  5
108
330
1F
100
AcDbEntity
  8
0
  6
CONTINUOUS
 62
     7
100
AcDbLine
 10
1242.4716384095
 20
769.753257873
 30
0.0
 11
1242.4716384095
 21
766.753257873
 31
0.0
  0
LINE
  5
109
330
1F
100
AcDbEntity
  8
0
  6
CONTINUOUS
 62
     7
100
AcDbLine
 10
1242.4716384095
 20
695.253257873
 30
0.0
 11
1246.4716384095
 21
695.253257873
 31
0.0
  0
LINE
  5
10A
330
1F
100
AcDbEntity
  8
0
  6
CONTINUOUS
 62
     7
100
AcDbLine
 10
1246.4716384095
 20
698.253257873
 30
0.0
 11
1246.4716384095
 21
695.253257873
 31
0.0
  0
LINE
  5
10B
330
1F
100
AcDbEntity
  8
0
  6
CONTINUOUS
 62
     7
100
AcDbLine
 10
1242.4716384095
 20
698.253257873
 30
0.0
 11
1242.4716384095
 21
695.253257873
 31
0.0
  0
LINE
  5
10C
330
1F
100
AcDbEntity
  8
0
  6
CONTINUOUS
 62
     7
100
AcDbLine
 10
1246.4716384095
 20
780.753257873
 30
0.0
 11
1246.4716384095
 21
769.753257873
 31
0.0
  0
LINE
  5
10D
330
1F
100
AcDbEntity
  8
0
  6
CONTINUOUS
 62
     7
100
AcDbLine
 10
1242.4716384095
 20
780.753257873
 30
0.0
 11
1242.4716384095
 21
769.753257873
 31
0.0
  0
LINE
  5
10E
330
1F
100
AcDbEntity
  8
0
  6
CONTINUOUS
 62
     7
100
AcDbLine
 10
1246.4716384095
 20
695.253257873
 30
0.0
 11
1249.4716384095
 21
695.253257873
 31
0.0
  0
LINE
  5
10F
330
1F
100
AcDbEntity
  8
0
  6
CONTINUOUS
 62
     7
100
AcDbLine
 10
1249.4716384095
 20
795.253257873
 30
0.0
 11
1246.4716384095
 21
795.253257873
 31
0.0
  0
ARC
  5
110
330
1F
100
AcDbEntity
  8
0
  6
CONTINUOUS
 62
     7
100
AcDbCircle
 10
1251.516207131
 20
1072.5678277241
 30
0.0
 40
9.999999999999988
100
AcDbArc
 50
95.0
 51
185.0
  0
LINE
  5
111
330
1F
100
AcDbEntity
  8
0
  6
CONTINUOUS
 62
     7
100
AcDbLine
 10
1270.5685436653
 20
1084.2728895599
 30
0.0
 11
1250.6446497035
 21
1082.529774705
 31
0.0
  0
ARC
  5
112
330
1F
100
AcDbEntity
  8
0
  6
CONTINUOUS
 62
     7
100
AcDbCircle
 10
1271.4401010928
 20
1074.310942579
 30
0.0
 40
9.999999999999988
100
AcDbArc
 50
5.0
 51
95.0
  0
LINE
  5
113
330
1F
100
AcDbEntity
  8
0
  6
CONTINUOUS
 62
     7
100
AcDbLine
 10
1302.0731988085
 20
838.9101659502
 30
0.0
 11
1281.4020480737
 21
1075.1825000065
 31
0.0
  0
ARC
  5
114
330
1F
100
AcDbEntity
  8
0
  6
CONTINUOUS
 62
     7
100
AcDbCircle
 10
1321.9970927703
 20
840.6532808052
 30
0.0
 40
20.0000000000002
100
AcDbArc
 50
185.0
 51
265.0
  0
LINE
  5
115
330
1F
100
AcDbEntity
  8
0
  6
CONTINUOUS
 62
     7
100
AcDbLine
 10
1399.2344457397
 20
813.8194912687
 30
0.0
 11
1320.2539779153
 21
820.7293868434
 31
0.0
  0
ARC
  5
116
330
1F
100
AcDbEntity
  8
0
  6
CONTINUOUS
 62
     7
100
AcDbCircle
 10
1397.9271095985
 20
798.8765707974
 30
0.0
 40
14.99999999999996
100
AcDbArc
 50
5.0
 51
85.0
  0
LINE
  5
117
330
1F
100
AcDbEntity
  8
0
  6
CONTINUOUS
 62
     7
100
AcDbLine
 10
1420.6235652749
 20
711.5605940142
 30
0.0
 11
1412.8700300699
 21
800.1839069386
 31
0.0
  0
ARC
  5
118
330
1F
100
AcDbEntity
  8
0
  6
CONTINUOUS
 62
     7
100
AcDbCircle
 10
1405.6806448035
 20
710.253257873
 30
0.0
 40
15.0
100
AcDbArc
 50
270.0
 51
5.0
  0
ARC
  5
119
330
1F
100
AcDbEntity
  8
0
  6
CONTINUOUS
 62
     7
100
AcDbCircle
 10
1252.4716384095
 20
805.253257873
 30
0.0
 40
10.0
100
AcDbArc
 50
270.0
 51
0.0
  0
LINE
  5
11A
330
1F
100
AcDbEntity
  8
0
  6
CONTINUOUS
 62
     7
100
AcDbLine
 10
1262.4716384095
 20
832.6095427546
 30
0.0
 11
1262.4716384095
 21
805.253257873
 31
0.0
  0
LINE
  5
11B
330
1F
100
AcDbEntity
  8
0
  6
CONTINUOUS
 62
     7
100
AcDbLine
 10
1241.5542601501
 20
1071.6962702966
 30
0.0
 11
1262.4716384095
 21
832.6095427546
 31
0.0
  0
LINE
  5
11C
330
1F
100
AcDbEntity
  8
0
  6
CONTINUOUS
 62
     7
100
AcDbLine
 10
1249.4716384095
 20
695.253257873
 30
0.0
 11
1405.6806448035
 21
695.253257873
 31
0.0
  0
LINE
  5
11D
330
1F
100
AcDbEntity
  8
0
  6
CONTINUOUS
 62
     7
100
AcDbLine
 10
1252.4716384095
 20
795.253257873
 30
0.0
 11
1249.4716384095
 21
795.253257873
 31
0.0
  0
LINE
  5
11E
330
1F
100
AcDbEntity
  8
0
  6
CONTINUOUS
 62
     7
100
AcDbLine
 10
1215.8433160395
 20
1365.5737062337
 30
0.0
 11
1255.6911039632
 21
1369.0599359436
 31
0.0
  0
LINE
  5
11F
330
1F
100
AcDbEntity
  8
0
  6
CONTINUOUS
 62
     7
100
AcDbLine
 10
1255.6911039632
 20
1369.0599359436
 30
0.0
 11
1281.4020480737
 21
1075.1825000065
 31
0.0
  0
LINE
  5
120
330
1F
100
AcDbEntity
  8
0
  6
CONTINUOUS
 62
     7
100
AcDbLine
 10
1215.8433160395
 20
1365.5737062337
 30
0.0
 11
1241.5542601501
 21
1071.6962702966
 31
0.0
  0
LINE
  5
121
330
1F
100
AcDbEntity
  8
0
  6
CONTINUOUS
 62
     7
100
AcDbLine
 10
1255.7346818345
 20
1368.5618385945
 30
0.0
 11
1278.6471598907
 21
1370.5664206777
 31
0.0
  0
LINE
  5
122
330
1F
100
AcDbEntity
  8
0
  6
CONTINUOUS
 62
     7
100
AcDbLine
 10
1336.1525645404
 20
828.0137702961
 30
0.0
 11
1289.4806642991
 21
1361.4760311243
 31
0.0
  0
ARC
  5
123
330
1F
100
AcDbEntity
  8
0
  6
CONTINUOUS
 62
     7
100
AcDbCircle
 10
1326.1906175595
 20
827.1422128687
 30
0.0
 40
9.99999999999982
100
AcDbArc
 50
311.3236801377
 51
5.0
  0
ARC
  5
124
330
1F
100
AcDbEntity
  8
0
  6
CONTINUOUS
 62
     7
100
AcDbCircle
 10
1279.5187173181
 20
1360.6044736968
 30
0.0
 40
10.00000000000023
100
AcDbArc
 50
5.0
 51
95.0
  0
LINE
  5
125
330
1F
100
AcDbEntity
  8
0
  6
CONTINUOUS
 62
     7
100
AcDbLine
 10
1371.3105405135
 20
816.2625164174
 30
0.0
 11
1344.4429737791
 21
1123.3602094395
 31
0.0
  0
LINE
  5
126
330
1F
100
AcDbEntity
  8
0
  6
CONTINUOUS
 62
     7
100
AcDbLine
 10
1344.4429737791
 20
1123.3602094395
 30
0.0
 11
1322.5266904211
 21
1121.442783099
 31
0.0
  0
LINE
  5
127
330
1F
100
AcDbEntity
  8
0
  6
CONTINUOUS
 62
     7
100
AcDbLine
 10
1336.1525645404
 20
828.0137702961
 30
0.0
 11
1336.9174118734
 21
819.2715252766
 31
0.0
  0
ARC
  5
128
330
1F
100
AcDbEntity
  8
0
  6
CONTINUOUS
 62
     7
100
AcDbCircle
 10
1323.5725593341
 20
1109.4884467219
 30
0.0
 40
12.00000000000012
100
AcDbArc
 50
95.0
 51
185.0
  0
LINE
  5
129
330
1F
100
AcDbEntity
  8
0
  6
CONTINUOUS
 62
     7
100
AcDbLine
 10
1385.5186174541
 20
688.2845936016
 30
0.0
 11
1419.3892371892
 21
691.2478888551
 31
0.0
  0
ARC
  5
12A
330
1F
100
AcDbEntity
  8
0
  6
CONTINUOUS
 62
     7
100
AcDbCircle
 10
1385.2571502259
 20
691.2731776959
 30
0.0
 40
3.000000000000313
100
AcDbArc
 50
185.0
 51
275.0
  0
LINE
  5
12B
330
1F
100
AcDbEntity
  8
0
  6
CONTINUOUS
 62
     7
100
AcDbLine
 10
1382.2685661316
 20
691.0117104677
 30
0.0
 11
1381.8974788178
 21
695.253257873
 31
0.0
  0
ARC
  5
12C
330
1F
100
AcDbEntity
  8
0
  6
CONTINUOUS
 62
     7
100
AcDbCircle
 10
1344.7044410073
 20
1120.3716253452
 30
0.0
 40
2.999999999999168
100
AcDbArc
 50
65.0
 51
95.0
  0
LINE
  5
12D
330
1F
100
AcDbEntity
  8
0
  6
CONTINUOUS
 62
     7
100
AcDbLine
 10
1383.1235459744
 20
1105.7666362365
 30
0.0
 11
1345.9722957926
 21
1123.0905487063
 31
0.0
  0
ARC
  5
12E
330
1F
100
AcDbEntity
  8
0
  6
CONTINUOUS
 62
     7
100
AcDbCircle
 10
1383.4254623236
 20
1102.3157165739
 30
0.0
 40
3.000000000000088
100
AcDbArc
 50
5.0
 51
65.0
  0
LINE
  5
12F
330
1F
100
AcDbEntity
  8
0
  6
CONTINUOUS
 62
     7
100
AcDbLine
 10
1422.1163540553
 20
694.4979401776
 30
0.0
 11
1420.6235652749
 21
711.5605940142
 31
0.0
  0
LINE
  5
130
330
1F
100
AcDbEntity
  8
0
  6
CONTINUOUS
 62
     7
100
AcDbLine
 10
1412.8700300699
 20
800.1839069386
 30
0.0
 11
1386.4140464179
 21
1102.5771838021
 31
0.0
  0
ARC
  5
131
330
1F
100
AcDbEntity
  8
0
  6
CONTINUOUS
 62
     7
100
AcDbCircle
 10
1419.127769961
 20
694.2364729493
 30
0.0
 40
2.999999999999974
100
AcDbArc
 50
275.0
 51
5.0
  0
LINE
  5
132
330
1F
100
AcDbEntity
  8
0
  6
CONTINUOUS
 62
     7
100
AcDbLine
 10
1384.6933171088
 20
1105.034639935
 30
0.0
 11
1383.1235459744
 21
1105.7666362365
 31
0.0
  0
LINE
  5
133
330
1F
100
AcDbEntity
  8
0
  6
CONTINUOUS
 62
     7
100
AcDbLine
 10
1571.3101724138
 20
1084.310942579
 30
0.0
 11
1567.3101724138
 21
1084.310942579
 31
0.0
  0
LINE
  5
134
330
1F
100
AcDbEntity
  8
0
  6
CONTINUOUS
 62
     7
100
AcDbLine
 10
2014.3101724138
 20
1084.310942579
 30
0.0
 11
2010.3101724138
 21
1084.310942579
 31
0.0
  0
LINE
  5
135
330
1F
100
AcDbEntity
  8
0
  6
CONTINUOUS
 62
     7
100
AcDbLine
 10
2009.7721193947
 20
1370.6044736968
 30
0.0
 11
1571.8482254329
 21
1370.6044736968
 31
0.0
  0
LINE
  5
136
330
1F
100
AcDbEntity
  8
0
  6
CONTINUOUS
 62
     7
100
AcDbLine
 10
1571.3101724138
 20
773.253257873
 30
0.0
 11
1571.8101724138
 21
773.253257873
 31
0.0
  0
LINE
  5
137
330
1F
100
AcDbEntity
  8
0
  6
CONTINUOUS
 62
     7
100
AcDbLine
 10
2009.8101724138
 20
773.253257873
 30
0.0
 11
2010.3101724138
 21
773.253257873
 31
0.0
  0
LINE
  5
138
330
1F
100
AcDbEntity
  8
0
  6
CONTINUOUS
 62
     7
100
AcDbLine
 10
2010.3101724138
 20
783.253257873
 30
0.0
 11
2009.8101724138
 21
783.253257873
 31
0.0
  0
LINE
  5
139
330
1F
100
AcDbEntity
  8
0
  6
CONTINUOUS
 62
     7
100
AcDbLine
 10
1571.8101724138
 20
783.253257873
 30
0.0
 11
1571.3101724138
 21
783.253257873
 31
0.0
  0
LINE
  5
13A
330
1F
100
AcDbEntity
  8
0
  6
CONTINUOUS
 62
     7
100
AcDbLine
 10
1576.8101724138
 20
793.253257873
 30
0.0
 11
1571.8101724138
 21
793.253257873
 31
0.0
  0
LINE
  5
13B
330
1F
100
AcDbEntity
  8
0
  6
CONTINUOUS
 62
     7
100
AcDbLine
 10
1571.8101724138
 20
763.253257873
 30
0.0
 11
1576.8101724138
 21
763.253257873
 31
0.0
  0
LINE
  5
13C
330
1F
100
AcDbEntity
  8
0
  6
CONTINUOUS
 62
     7
100
AcDbLine
 10
2009.8101724138
 20
793.253257873
 30
0.0
 11
2004.8101724138
 21
793.253257873
 31
0.0
  0
LINE
  5
13D
330
1F
100
AcDbEntity
  8
0
  6
CONTINUOUS
 62
     7
100
AcDbLine
 10
2004.8101724138
 20
763.253257873
 30
0.0
 11
2009.8101724138
 21
763.253257873
 31
0.0
  0
LINE
  5
13E
330
1F
100
AcDbEntity
  8
0
  6
CONTINUOUS
 62
     7
100
AcDbLine
 10
1571.3101724138
 20
832.6095427546
 30
0.0
 11
1567.3101724138
 21
832.6095427546
 31
0.0
  0
LINE
  5
13F
330
1F
100
AcDbEntity
  8
0
  6
CONTINUOUS
 62
     7
100
AcDbLine
 10
1567.3101724138
 20
832.6095427546
 30
0.0
 11
1567.3101724138
 21
1071.6962702966
 31
0.0
  0
LINE
  5
140
330
1F
100
AcDbEntity
  8
0
  6
CONTINUOUS
 62
     7
100
AcDbLine
 10
1571.3101724138
 20
1071.6962702966
 30
0.0
 11
1571.3101724138
 21
1365.5737062337
 31
0.0
  0
LINE
  5
141
330
1F
100
AcDbEntity
  8
0
  6
CONTINUOUS
 62
     7
100
AcDbLine
 10
1571.3101724138
 20
1365.5737062337
 30
0.0
 11
2010.3101724138
 21
1365.5737062337
 31
0.0
  0
LINE
  5
142
330
1F
100
AcDbEntity
  8
0
  6
CONTINUOUS
 62
     7
100
AcDbLine
 10
2010.3101724138
 20
1365.5737062337
 30
0.0
 11
2010.3101724138
 21
1071.6962702966
 31
0.0
  0
LINE
  5
143
330
1F
100
AcDbEntity
  8
0
  6
CONTINUOUS
 62
     7
100
AcDbLine
 10
2014.3101724138
 20
1071.6962702966
 30
0.0
 11
2014.3101724138
 21
832.6095427546
 31
0.0
  0
LINE
  5
144
330
1F
100
AcDbEntity
  8
0
  6
CONTINUOUS
 62
     7
100
AcDbLine
 10
2014.3101724138
 20
832.6095427546
 30
0.0
 11
2010.3101724138
 21
832.6095427546
 31
0.0
  0
LINE
  5
145
330
1F
100
AcDbEntity
  8
0
  6
CONTINUOUS
 62
     7
100
AcDbLine
 10
2010.3101724138
 20
796.253257873
 30
0.0
 11
1571.3101724138
 21
796.253257873
 31
0.0
  0
LINE
  5
146
330
1F
100
AcDbEntity
  8
0
  6
CONTINUOUS
 62
     7
100
AcDbLine
 10
2010.3101724138
 20
1365.5737062337
 30
0.0
 11
2010.3101724138
 21
1369.0599359436
 31
0.0
  0
LINE
  5
147
330
1F
100
AcDbEntity
  8
0
  6
CONTINUOUS
 62
     7
100
AcDbLine
 10
1571.3101724138
 20
1365.5737062337
 30
0.0
 11
1571.3101724138
 21
1369.0599359436
 31
0.0
  0
LINE
  5
148
330
1F
100
AcDbEntity
  8
0
  6
CONTINUOUS
 62
     7
100
AcDbLine
 10
1571.3101724138
 20
1369.0599359436
 30
0.0
 11
2010.3101724138
 21
1369.0599359436
 31
0.0
  0
LINE
  5
149
330
1F
100
AcDbEntity
  8
0
  6
CONTINUOUS
 62
     7
100
AcDbLine
 10
1549.3101724138
 20
695.253257873
 30
0.0
 11
1564.3101724138
 21
695.253257873
 31
0.0
  0
ARC
  5
14A
330
1F
100
AcDbEntity
  8
0
  6
CONTINUOUS
 62
     7
100
AcDbCircle
 10
1549.3101724138
 20
698.253257873
 30
0.0
 40
3.0
100
AcDbArc
 50
180.0
 51
270.0
  0
LINE
  5
14B
330
1F
100
AcDbEntity
  8
0
  6
CONTINUOUS
 62
     7
100
AcDbLine
 10
1546.3101724138
 20
698.253257873
 30
0.0
 11
1546.3101724138
 21
715.253257873
 31
0.0
  0
ARC
  5
14C
330
1F
100
AcDbEntity
  8
0
  6
CONTINUOUS
 62
     7
100
AcDbCircle
 10
1540.8101724138
 20
715.253257873
 30
0.0
 40
5.500000000000227
100
AcDbArc
 50
0.0
 51
180.0
  0
LINE
  5
14D
330
1F
100
AcDbEntity
  8
0
  6
CONTINUOUS
 62
     7
100
AcDbLine
 10
1535.3101724138
 20
715.253257873
 30
0.0
 11
1535.3101724138
 21
698.253257873
 31
0.0
  0
ARC
  5
14E
330
1F
100
AcDbEntity
  8
0
  6
CONTINUOUS
 62
     7
100
AcDbCircle
 10
1532.3101724138
 20
698.253257873
 30
0.0
 40
3.0
100
AcDbArc
 50
270.0
 51
0.0
  0
LINE
  5
14F
330
1F
100
AcDbEntity
  8
0
  6
CONTINUOUS
 62
     7
100
AcDbLine
 10
1532.3101724138
 20
695.253257873
 30
0.0
 11
1524.3101724138
 21
695.253257873
 31
0.0
  0
ARC
  5
150
330
1F
100
AcDbEntity
  8
0
  6
CONTINUOUS
 62
     7
100
AcDbCircle
 10
1524.3101724138
 20
698.253257873
 30
0.0
 40
3.0
100
AcDbArc
 50
180.0
 51
270.0
  0
LINE
  5
151
330
1F
100
AcDbEntity
  8
0
  6
CONTINUOUS
 62
     7
100
AcDbLine
 10
1521.3101724138
 20
698.253257873
 30
0.0
 11
1521.3101724138
 21
766.753257873
 31
0.0
  0
ARC
  5
152
330
1F
100
AcDbEntity
  8
0
  6
CONTINUOUS
 62
     7
100
AcDbCircle
 10
1524.3101724138
 20
766.753257873
 30
0.0
 40
3.0
100
AcDbArc
 50
90.0
 51
180.0
  0
LINE
  5
153
330
1F
100
AcDbEntity
  8
0
  6
CONTINUOUS
 62
     7
100
AcDbLine
 10
1524.3101724138
 20
769.753257873
 30
0.0
 11
1540.8101724138
 21
769.753257873
 31
0.0
  0
ARC
  5
154
330
1F
100
AcDbEntity
  8
0
  6
CONTINUOUS
 62
     7
100
AcDbCircle
 10
1540.8101724138
 20
775.253257873
 30
0.0
 40
5.500000000000114
100
AcDbArc
 50
270.0
 51
90.0
  0
LINE
  5
155
330
1F
100
AcDbEntity
  8
0
  6
CONTINUOUS
 62
     7
100
AcDbLine
 10
1540.8101724138
 20
780.753257873
 30
0.0
 11
1524.3101724138
 21
780.753257873
 31
0.0
  0
ARC
  5
156
330
1F
100
AcDbEntity
  8
0
  6
CONTINUOUS
 62
     7
100
AcDbCircle
 10
1524.3101724138
 20
783.753257873
 30
0.0
 40
3.0
100
AcDbArc
 50
180.0
 51
270.0
  0
LINE
  5
157
330
1F
100
AcDbEntity
  8
0
  6
CONTINUOUS
 62
     7
100
AcDbLine
 10
1521.3101724138
 20
783.753257873
 30
0.0
 11
1521.3101724138
 21
792.253257873
 31
0.0
  0
ARC
  5
158
330
1F
100
AcDbEntity
  8
0
  6
CONTINUOUS
 62
     7
100
AcDbCircle
 10
1524.3101724138
 20
792.253257873
 30
0.0
 40
3.0
100
AcDbArc
 50
90.0
 51
180.0
  0
LINE
  5
159
330
1F
100
AcDbEntity
  8
0
  6
CONTINUOUS
 62
     7
100
AcDbLine
 10
1564.3101724138
 20
795.253257873
 30
0.0
 11
1524.3101724138
 21
795.253257873
 31
0.0
  0
LINE
  5
15A
330
1F
100
AcDbEntity
  8
0
  6
CONTINUOUS
 62
     7
100
AcDbLine
 10
1571.3101724138
 20
795.253257873
 30
0.0
 11
1564.3101724138
 21
795.253257873
 31
0.0
  0
LINE
  5
15B
330
1F
100
AcDbEntity
  8
0
  6
CONTINUOUS
 62
     7
100
AcDbLine
 10
1571.3101724138
 20
695.253257873
 30
0.0
 11
1571.3101724138
 21
795.253257873
 31
0.0
  0
LINE
  5
15C
330
1F
100
AcDbEntity
  8
0
  6
CONTINUOUS
 62
     7
100
AcDbLine
 10
1564.3101724138
 20
695.253257873
 30
0.0
 11
1571.3101724138
 21
695.253257873
 31
0.0
  0
LINE
  5
15D
330
1F
100
AcDbEntity
  8
0
  6
CONTINUOUS
 62
     7
100
AcDbLine
 10
2057.3101724138
 20
795.253257873
 30
0.0
 11
2017.3101724138
 21
795.253257873
 31
0.0
  0
ARC
  5
15E
330
1F
100
AcDbEntity
  8
0
  6
CONTINUOUS
 62
     7
100
AcDbCircle
 10
2057.3101724138
 20
792.253257873
 30
0.0
 40
3.0
100
AcDbArc
 50
0.0
 51
90.0
  0
LINE
  5
15F
330
1F
100
AcDbEntity
  8
0
  6
CONTINUOUS
 62
     7
100
AcDbLine
 10
2060.3101724138
 20
792.253257873
 30
0.0
 11
2060.3101724138
 21
783.753257873
 31
0.0
  0
ARC
  5
160
330
1F
100
AcDbEntity
  8
0
  6
CONTINUOUS
 62
     7
100
AcDbCircle
 10
2057.3101724138
 20
783.753257873
 30
0.0
 40
3.000000000000114
100
AcDbArc
 50
270.0
 51
0.0
  0
LINE
  5
161
330
1F
100
AcDbEntity
  8
0
  6
CONTINUOUS
 62
     7
100
AcDbLine
 10
2057.3101724138
 20
780.753257873
 30
0.0
 11
2040.8101724138
 21
780.753257873
 31
0.0
  0
ARC
  5
162
330
1F
100
AcDbEntity
  8
0
  6
CONTINUOUS
 62
     7
100
AcDbCircle
 10
2040.8101724138
 20
775.253257873
 30
0.0
 40
5.5
100
AcDbArc
 50
90.0
 51
270.0
  0
LINE
  5
163
330
1F
100
AcDbEntity
  8
0
  6
CONTINUOUS
 62
     7
100
AcDbLine
 10
2040.8101724138
 20
769.753257873
 30
0.0
 11
2057.3101724138
 21
769.753257873
 31
0.0
  0
ARC
  5
164
330
1F
100
AcDbEntity
  8
0
  6
CONTINUOUS
 62
     7
100
AcDbCircle
 10
2057.3101724138
 20
766.753257873
 30
0.0
 40
3.0
100
AcDbArc
 50
0.0
 51
90.0
  0
LINE
  5
165
330
1F
100
AcDbEntity
  8
0
  6
CONTINUOUS
 62
     7
100
AcDbLine
 10
2060.3101724138
 20
766.753257873
 30
0.0
 11
2060.3101724138
 21
698.253257873
 31
0.0
  0
ARC
  5
166
330
1F
100
AcDbEntity
  8
0
  6
CONTINUOUS
 62
     7
100
AcDbCircle
 10
2057.3101724138
 20
698.253257873
 30
0.0
 40
3.0
100
AcDbArc
 50
270.0
 51
0.0
  0
LINE
  5
167
330
1F
100
AcDbEntity
  8
0
  6
CONTINUOUS
 62
     7
100
AcDbLine
 10
2057.3101724138
 20
695.253257873
 30
0.0
 11
2049.3101724138
 21
695.253257873
 31
0.0
  0
ARC
  5
168
330
1F
100
AcDbEntity
  8
0
  6
CONTINUOUS
 62
     7
100
AcDbCircle
 10
2049.3101724138
 20
698.253257873
 30
0.0
 40
3.0
100
AcDbArc
 50
180.0
 51
270.0
  0
LINE
  5
169
330
1F
100
AcDbEntity
  8
0
  6
CONTINUOUS
 62
     7
100
AcDbLine
 10
2046.3101724138
 20
698.253257873
 30
0.0
 11
2046.3101724138
 21
715.253257873
 31
0.0
  0
ARC
  5
16A
330
1F
100
AcDbEntity
  8
0
  6
CONTINUOUS
 62
     7
100
AcDbCircle
 10
2040.8101724138
 20
715.253257873
 30
0.0
 40
5.5
100
AcDbArc
 50
0.0
 51
180.0
  0
LINE
  5
16B
330
1F
100
AcDbEntity
  8
0
  6
CONTINUOUS
 62
     7
100
AcDbLine
 10
2035.3101724138
 20
715.253257873
 30
0.0
 11
2035.3101724138
 21
698.253257873
 31
0.0
  0
ARC
  5
16C
330
1F
100
AcDbEntity
  8
0
  6
CONTINUOUS
 62
     7
100
AcDbCircle
 10
2032.3101724138
 20
698.253257873
 30
0.0
 40
3.0
100
AcDbArc
 50
270.0
 51
0.0
  0
LINE
  5
16D
330
1F
100
AcDbEntity
  8
0
  6
CONTINUOUS
 62
     7
100
AcDbLine
 10
2017.3101724138
 20
695.253257873
 30
0.0
 11
2032.3101724138
 21
695.253257873
 31
0.0
  0
LINE
  5
16E
330
1F
100
AcDbEntity
  8
0
  6
CONTINUOUS
 62
     7
100
AcDbLine
 10
2010.3101724138
 20
695.253257873
 30
0.0
 11
2017.3101724138
 21
695.253257873
 31
0.0
  0
LINE
  5
16F
330
1F
100
AcDbEntity
  8
0
  6
CONTINUOUS
 62
     7
100
AcDbLine
 10
2010.3101724138
 20
695.253257873
 30
0.0
 11
2010.3101724138
 21
795.253257873
 31
0.0
  0
LINE
  5
170
330
1F
100
AcDbEntity
  8
0
  6
CONTINUOUS
 62
     7
100
AcDbLine
 10
2017.3101724138
 20
795.253257873
 30
0.0
 11
2010.3101724138
 21
795.253257873
 31
0.0
  0
LINE
  5
171
330
1F
100
AcDbEntity
  8
0
  6
CONTINUOUS
 62
     7
100
AcDbLine
 10
1567.3101724138
 20
1082.529774705
 30
0.0
 11
1567.3101724138
 21
1071.6962702966
 31
0.0
  0
LINE
  5
172
330
1F
100
AcDbEntity
  8
0
  6
CONTINUOUS
 62
     7
100
AcDbLine
 10
2014.3101724138
 20
1082.529774705
 30
0.0
 11
2014.3101724138
 21
1071.6962702966
 31
0.0
  0
LINE
  5
173
330
1F
100
AcDbEntity
  8
0
  6
CONTINUOUS
 62
     7
100
AcDbLine
 10
1567.3101724138
 20
1084.2728895599
 30
0.0
 11
1567.3101724138
 21
1082.529774705
 31
0.0
  0
LINE
  5
174
330
1F
100
AcDbEntity
  8
0
  6
CONTINUOUS
 62
     7
100
AcDbLine
 10
2014.3101724138
 20
1084.2728895599
 30
0.0
 11
2014.3101724138
 21
1082.529774705
 31
0.0
  0
LINE
  5
175
330
1F
100
AcDbEntity
  8
0
  6
CONTINUOUS
 62
     7
100
AcDbLine
 10
1571.3101724138
 20
795.253257873
 30
0.0
 11
1571.3101724138
 21
805.253257873
 31
0.0
  0
LINE
  5
176
330
1F
100
AcDbEntity
  8
0
  6
CONTINUOUS
 62
     7
100
AcDbLine
 10
1567.3101724138
 20
805.253257873
 30
0.0
 11
1567.3101724138
 21
795.253257873
 31
0.0
  0
LINE
  5
177
330
1F
100
AcDbEntity
  8
0
  6
CONTINUOUS
 62
     7
100
AcDbLine
 10
2010.3101724138
 20
795.253257873
 30
0.0
 11
2010.3101724138
 21
805.253257873
 31
0.0
  0
LINE
  5
178
330
1F
100
AcDbEntity
  8
0
  6
CONTINUOUS
 62
     7
100
AcDbLine
 10
2014.3101724138
 20
805.253257873
 30
0.0
 11
2014.3101724138
 21
795.253257873
 31
0.0
  0
LINE
  5
179
330
1F
100
AcDbEntity
  8
0
  6
CONTINUOUS
 62
     7
100
AcDbLine
 10
2009.8101724138
 20
1369.0599359436
 30
0.0
 11
2009.8101724138
 21
1370.5664206777
 31
0.0
  0
LINE
  5
17A
330
1F
100
AcDbEntity
  8
0
  6
CONTINUOUS
 62
     7
100
AcDbLine
 10
1571.8101724138
 20
1369.0599359436
 30
0.0
 11
1571.8101724138
 21
1370.5664206777
 31
0.0
  0
LINE
  5
17B
330
1F
100
AcDbEntity
  8
0
  6
CONTINUOUS
 62
     7
100
AcDbLine
 10
1571.3101724138
 20
832.6095427546
 30
0.0
 11
1571.3101724138
 21
805.253257873
 31
0.0
  0
LINE
  5
17C
330
1F
100
AcDbEntity
  8
0
  6
CONTINUOUS
 62
     7
100
AcDbLine
 10
1567.3101724138
 20
805.253257873
 30
0.0
 11
1567.3101724138
 21
832.6095427546
 31
0.0
  0
LINE
  5
17D
330
1F
100
AcDbEntity
  8
0
  6
CONTINUOUS
 62
     7
100
AcDbLine
 10
2010.3101724138
 20
805.253257873
 30
0.0
 11
2010.3101724138
 21
832.6095427546
 31
0.0
  0
LINE
  5
17E
330
1F
100
AcDbEntity
  8
0
  6
CONTINUOUS
 62
     7
100
AcDbLine
 10
2014.3101724138
 20
832.6095427546
 30
0.0
 11
2014.3101724138
 21
805.253257873
 31
0.0
  0
LINE
  5
17F
330
1F
100
AcDbEntity
  8
0
  6
CONTINUOUS
 62
     7
100
AcDbLine
 10
1567.3101724138
 20
1084.310942579
 30
0.0
 11
1567.3101724138
 21
1084.2728895599
 31
0.0
  0
LINE
  5
180
330
1F
100
AcDbEntity
  8
0
  6
CONTINUOUS
 62
     7
100
AcDbLine
 10
2014.3101724138
 20
1084.310942579
 30
0.0
 11
2014.3101724138
 21
1084.2728895599
 31
0.0
  0
ELLIPSE
  5
181
330
1F
100
AcDbEntity
  8
0
  6
CONTINUOUS
 62
     7
100
AcDbEllipse
 10
1581.8101724138
 20
1360.6044736968
 30
0.0
 11
-9.990482215818245
 21
9.990482215818702
 31
0.0
210
0.0
220
0.0
230
1.0
 40
0.0436609429
 41
6.239552075880272
 42
6.326818538479743
  0
ELLIPSE
  5
182
330
1F
100
AcDbEntity
  8
0
  6
CONTINUOUS
 62
     7
100
AcDbEllipse
 10
1999.8101724138
 20
1360.6044736968
 30
0.0
 11
9.990482215818247
 21
9.990482215818474
 31
0.0
210
0.0
220
0.0
230
1.0
 40
0.0436609429
 41
6.239552075880008
 42
6.326818538479742
  0
LINE
  5
183
330
1F
100
AcDbEntity
  8
0
  6
CONTINUOUS
 62
     7
100
AcDbLine
 10
2004.8101724138
 20
793.253257873
 30
0.0
 11
2004.8101724138
 21
759.253257873
 31
0.0
  0
LINE
  5
184
330
1F
100
AcDbEntity
  8
0
  6
CONTINUOUS
 62
     7
100
AcDbLine
 10
1576.8101724138
 20
759.253257873
 30
0.0
 11
1576.8101724138
 21
793.253257873
 31
0.0
  0
LINE
  5
185
330
1F
100
AcDbEntity
  8
0
  6
CONTINUOUS
 62
     7
100
AcDbLine
 10
2004.8101724138
 20
793.253257873
 30
0.0
 11
2004.8101724138
 21
796.253257873
 31
0.0
  0
LINE
  5
186
330
1F
100
AcDbEntity
  8
0
  6
CONTINUOUS
 62
     7
100
AcDbLine
 10
1576.8101724138
 20
793.253257873
 30
0.0
 11
1576.8101724138
 21
796.253257873
 31
0.0
  0
ARC
  5
187
330
1F
100
AcDbEntity
  8
0
  6
CONTINUOUS
 62
     7
100
AcDbCircle
 10
2001.8101724138
 20
759.253257873
 30
0.0
 40
3.0
100
AcDbArc
 50
270.0
 51
0.0
  0
LINE
  5
188
330
1F
100
AcDbEntity
  8
0
  6
CONTINUOUS
 62
     7
100
AcDbLine
 10
1579.8101724138
 20
756.253257873
 30
0.0
 11
2001.8101724138
 21
756.253257873
 31
0.0
  0
ARC
  5
189
330
1F
100
AcDbEntity
  8
0
  6
CONTINUOUS
 62
     7
100
AcDbCircle
 10
1579.8101724138
 20
759.253257873
 30
0.0
 40
3.0
100
AcDbArc
 50
180.0
 51
270.0
  0
LINE
  5
18A
330
1F
100
AcDbEntity
  8
0
  6
CONTINUOUS
 62
     7
100
AcDbLine
 10
1571.8101724138
 20
793.253257873
 30
0.0
 11
1571.8101724138
 21
763.253257873
 31
0.0
  0
LINE
  5
18B
330
1F
100
AcDbEntity
  8
0
  6
CONTINUOUS
 62
     7
100
AcDbLine
 10
2009.8101724138
 20
763.253257873
 30
0.0
 11
2009.8101724138
 21
793.253257873
 31
0.0
  0
LINE
  5
18C
330
1F
100
AcDbEntity
  8
0
  6
CONTINUOUS
 62
     7
100
AcDbLine
 10
91.430862069
 20
551.4959659363
 30
0.0
 11
87.430862069
 21
551.4959659363
 31
0.0
  0
LINE
  5
18D
330
1F
100
AcDbEntity
  8
0
  6
CONTINUOUS
 62
     7
100
AcDbLine
 10
534.430862069
 20
551.4959659363
 30
0.0
 11
530.430862069
 21
551.4959659363
 31
0.0
  0
LINE
  5
18E
330
1F
100
AcDbEntity
  8
0
  6
CONTINUOUS
 62
     7
100
AcDbLine
 10
530.430862069
 20
405.3074962464
 30
0.0
 11
529.930862069
 21
405.3074962464
 31
0.0
  0
LINE
  5
18F
330
1F
100
AcDbEntity
  8
0
  6
CONTINUOUS
 62
     7
100
AcDbLine
 10
91.930862069
 20
405.3074962464
 30
0.0
 11
91.430862069
 21
405.3074962464
 31
0.0
  0
LINE
  5
190
330
1F
100
AcDbEntity
  8
0
  6
CONTINUOUS
 62
     7
100
AcDbLine
 10
91.430862069
 20
395.3074962464
 30
0.0
 11
91.930862069
 21
395.3074962464
 31
0.0
  0
LINE
  5
191
330
1F
100
AcDbEntity
  8
0
  6
CONTINUOUS
 62
     7
100
AcDbLine
 10
529.930862069
 20
395.3074962464
 30
0.0
 11
530.430862069
 21
395.3074962464
 31
0.0
  0
LINE
  5
192
330
1F
100
AcDbEntity
  8
0
  6
CONTINUOUS
 62
     7
100
AcDbLine
 10
87.430862069
 20
372.3315282638
 30
0.0
 11
91.430862069
 21
372.3315282638
 31
0.0
  0
LINE
  5
193
330
1F
100
AcDbEntity
  8
0
  6
CONTINUOUS
 62
     7
100
AcDbLine
 10
530.430862069
 20
372.3315282638
 30
0.0
 11
534.430862069
 21
372.3315282638
 31
0.0
  0
LINE
  5
194
330
1F
100
AcDbEntity
  8
0
  6
CONTINUOUS
 62
     7
100
AcDbLine
 10
514.4767309819
 20
481.4396137332
 30
0.0
 11
107.384993156
 21
481.4396137332
 31
0.0
  0
LINE
  5
195
330
1F
100
AcDbEntity
  8
0
  6
CONTINUOUS
 62
     7
100
AcDbLine
 10
524.930862069
 20
385.3074962464
 30
0.0
 11
529.930862069
 21
385.3074962464
 31
0.0
  0
LINE
  5
196
330
1F
100
AcDbEntity
  8
0
  6
CONTINUOUS
 62
     7
100
AcDbLine
 10
529.930862069
 20
415.3074962464
 30
0.0
 11
524.930862069
 21
415.3074962464
 31
0.0
  0
LINE
  5
197
330
1F
100
AcDbEntity
  8
0
  6
CONTINUOUS
 62
     7
100
AcDbLine
 10
91.930862069
 20
385.3074962464
 30
0.0
 11
96.930862069
 21
385.3074962464
 31
0.0
  0
LINE
  5
198
330
1F
100
AcDbEntity
  8
0
  6
CONTINUOUS
 62
     7
100
AcDbLine
 10
96.930862069
 20
415.3074962464
 30
0.0
 11
91.930862069
 21
415.3074962464
 31
0.0
  0
LINE
  5
199
330
1F
100
AcDbEntity
  8
0
  6
CONTINUOUS
 62
     7
100
AcDbLine
 10
99.6693948407
 20
370.8844031063
 30
0.0
 11
522.1923292972
 21
370.8844031063
 31
0.0
  0
LINE
  5
19A
330
1F
100
AcDbEntity
  8
0
  6
CONTINUOUS
 62
     7
100
AcDbLine
 10
529.930862069
 20
465.9499980803
 30
0.0
 11
529.930862069
 21
514.3650131766
 31
0.0
  0
ELLIPSE
  5
19B
330
1F
100
AcDbEntity
  8
0
  6
CONTINUOUS
 62
     7
100
AcDbEllipse
 10
519.930862069
 20
466.8215555078
 30
0.0
 11
7.372773368101207
 21
-7.372773368101207
 31
0.0
210
0.0
220
0.0
230
1.0
 40
0.916331174
 41
6.03651815035103
 42
7.02495023927718
  0
ELLIPSE
  5
19C
330
1F
100
AcDbEntity
  8
0
  6
CONTINUOUS
 62
     7
100
AcDbEllipse
 10
519.930862069
 20
513.4934557492
 30
0.0
 11
7.372773368101206
 21
7.372773368101321
 31
0.0
210
0.0
220
0.0
230
1.0
 40
0.916331174
 41
3.970624048287104
 42
5.541420375082
  0
ELLIPSE
  5
19D
330
1F
100
AcDbEntity
  8
0
  6
CONTINUOUS
 62
     7
100
AcDbEllipse
 10
101.930862069
 20
513.4934557492
 30
0.0
 11
7.372773368101192
 21
-7.37277336810115
 31
0.0
210
0.0
220
0.0
230
1.0
 40
0.916331174
 41
3.88335758568739
 42
5.454153912482298
  0
LINE
  5
19E
330
1F
100
AcDbEntity
  8
0
  6
CONTINUOUS
 62
     7
100
AcDbLine
 10
91.930862069
 20
514.3650131766
 30
0.0
 11
91.930862069
 21
465.9499980803
 31
0.0
  0
ELLIPSE
  5
19F
330
1F
100
AcDbEntity
  8
0
  6
CONTINUOUS
 62
     7
100
AcDbEllipse
 10
101.930862069
 20
466.8215555078
 30
0.0
 11
7.372773368101235
 21
7.372773368101206
 31
0.0
210
0.0
220
0.0
230
1.0
 40
0.916331174
 41
2.3998277214922
 42
3.38825981041837
  0
LINE
  5
1A0
330
1F
100
AcDbEntity
  8
0
  6
CONTINUOUS
 62
     7
100
AcDbLine
 10
91.930862069
 20
537.2774912328
 30
0.0
 11
91.930862069
 21
514.3650131766
 31
0.0
  0
LINE
  5
1A1
330
1F
100
AcDbEntity
  8
0
  6
CONTINUOUS
 62
     7
100
AcDbLine
 10
529.930862069
 20
537.2774912328
 30
0.0
 11
91.930862069
 21
537.2774912328
 31
0.0
  0
LINE
  5
1A2
330
1F
100
AcDbEntity
  8
0
  6
CONTINUOUS
 62
     7
100
AcDbLine
 10
529.930862069
 20
537.2774912328
 30
0.0
 11
529.930862069
 21
514.3650131766
 31
0.0
  0
LINE
  5
1A3
330
1F
100
AcDbEntity
  8
0
  6
CONTINUOUS
 62
     7
100
AcDbLine
 10
530.430862069
 20
488.8624761364
 30
0.0
 11
529.930862069
 21
488.8624761364
 31
0.0
  0
LINE
  5
1A4
330
1F
100
AcDbEntity
  8
0
  6
CONTINUOUS
 62
     7
100
AcDbLine
 10
91.930862069
 20
488.8624761364
 30
0.0
 11
91.430862069
 21
488.8624761364
 31
0.0
  0
LINE
  5
1A5
330
1F
100
AcDbEntity
  8
0
  6
CONTINUOUS
 62
     7
100
AcDbLine
 10
87.430862069
 20
490.9389742588
 30
0.0
 11
87.430862069
 21
511.6101249936
 31
0.0
  0
LINE
  5
1A6
330
1F
100
AcDbEntity
  8
0
  6
CONTINUOUS
 62
     7
100
AcDbLine
 10
91.430862069
 20
537.3210691041
 30
0.0
 11
91.430862069
 21
511.6101249936
 31
0.0
  0
LINE
  5
1A7
330
1F
100
AcDbEntity
  8
0
  6
CONTINUOUS
 62
     7
100
AcDbLine
 10
530.430862069
 20
537.3210691041
 30
0.0
 11
91.430862069
 21
537.3210691041
 31
0.0
  0
LINE
  5
1A8
330
1F
100
AcDbEntity
  8
0
  6
CONTINUOUS
 62
     7
100
AcDbLine
 10
530.430862069
 20
537.3210691041
 30
0.0
 11
530.430862069
 21
511.6101249936
 31
0.0
  0
LINE
  5
1A9
330
1F
100
AcDbEntity
  8
0
  6
CONTINUOUS
 62
     7
100
AcDbLine
 10
534.430862069
 20
490.9389742588
 30
0.0
 11
534.430862069
 21
511.6101249936
 31
0.0
  0
LINE
  5
1AA
330
1F
100
AcDbEntity
  8
0
  6
CONTINUOUS
 62
     7
100
AcDbLine
 10
91.430862069
 20
577.1688570278
 30
0.0
 11
91.430862069
 21
537.3210691041
 31
0.0
  0
LINE
  5
1AB
330
1F
100
AcDbEntity
  8
0
  6
CONTINUOUS
 62
     7
100
AcDbLine
 10
530.430862069
 20
577.1688570278
 30
0.0
 11
91.430862069
 21
577.1688570278
 31
0.0
  0
LINE
  5
1AC
330
1F
100
AcDbEntity
  8
0
  6
CONTINUOUS
 62
     7
100
AcDbLine
 10
530.430862069
 20
577.1688570278
 30
0.0
 11
530.430862069
 21
537.3210691041
 31
0.0
  0
LINE
  5
1AD
330
1F
100
AcDbEntity
  8
0
  6
CONTINUOUS
 62
     7
100
AcDbLine
 10
534.430862069
 20
511.6101249936
 30
0.0
 11
534.430862069
 21
522.443629402
 31
0.0
  0
LINE
  5
1AE
330
1F
100
AcDbEntity
  8
0
  6
CONTINUOUS
 62
     7
100
AcDbLine
 10
87.430862069
 20
511.6101249936
 30
0.0
 11
87.430862069
 21
522.443629402
 31
0.0
  0
LINE
  5
1AF
330
1F
100
AcDbEntity
  8
0
  6
CONTINUOUS
 62
     7
100
AcDbLine
 10
534.430862069
 20
522.443629402
 30
0.0
 11
534.430862069
 21
542.3675233638
 31
0.0
  0
LINE
  5
1B0
330
1F
100
AcDbEntity
  8
0
  6
CONTINUOUS
 62
     7
100
AcDbLine
 10
87.430862069
 20
522.443629402
 30
0.0
 11
87.430862069
 21
542.3675233638
 31
0.0
  0
LINE
  5
1B1
330
1F
100
AcDbEntity
  8
0
  6
CONTINUOUS
 62
     7
100
AcDbLine
 10
87.430862069
 20
542.3675233638
 30
0.0
 11
87.430862069
 21
551.4959659363
 31
0.0
  0
LINE
  5
1B2
330
1F
100
AcDbEntity
  8
0
  6
CONTINUOUS
 62
     7
100
AcDbLine
 10
534.430862069
 20
542.3675233638
 30
0.0
 11
534.430862069
 21
551.4959659363
 31
0.0
  0
LINE
  5
1B3
330
1F
100
AcDbEntity
  8
0
  6
CONTINUOUS
 62
     7
100
AcDbLine
 10
91.430862069
 20
490.9389742588
 30
0.0
 11
91.430862069
 21
472.758195152
 31
0.0
  0
LINE
  5
1B4
330
1F
100
AcDbEntity
  8
0
  6
CONTINUOUS
 62
     7
100
AcDbLine
 10
87.430862069
 20
472.758195152
 30
0.0
 11
87.430862069
 21
490.9389742588
 31
0.0
  0
LINE
  5
1B5
330
1F
100
AcDbEntity
  8
0
  6
CONTINUOUS
 62
     7
100
AcDbLine
 10
530.430862069
 20
490.9389742588
 30
0.0
 11
530.430862069
 21
472.758195152
 31
0.0
  0
LINE
  5
1B6
330
1F
100
AcDbEntity
  8
0
  6
CONTINUOUS
 62
     7
100
AcDbLine
 10
534.430862069
 20
472.758195152
 30
0.0
 11
534.430862069
 21
490.9389742588
 31
0.0
  0
LINE
  5
1B7
330
1F
100
AcDbEntity
  8
0
  6
CONTINUOUS
 62
     7
100
AcDbLine
 10
91.430862069
 20
472.758195152
 30
0.0
 11
91.430862069
 21
393.7777273276
 31
0.0
  0
LINE
  5
1B8
330
1F
100
AcDbEntity
  8
0
  6
CONTINUOUS
 62
     7
100
AcDbLine
 10
87.430862069
 20
393.7777273276
 30
0.0
 11
87.430862069
 21
472.758195152
 31
0.0
  0
LINE
  5
1B9
330
1F
100
AcDbEntity
  8
0
  6
CONTINUOUS
 62
     7
100
AcDbLine
 10
530.430862069
 20
472.758195152
 30
0.0
 11
530.430862069
 21
393.7777273276
 31
0.0
  0
LINE
  5
1BA
330
1F
100
AcDbEntity
  8
0
  6
CONTINUOUS
 62
     7
100
AcDbLine
 10
534.430862069
 20
393.7777273276
 30
0.0
 11
534.430862069
 21
472.758195152
 31
0.0
  0
LINE
  5
1BB
330
1F
100
AcDbEntity
  8
0
  6
CONTINUOUS
 62
     7
100
AcDbLine
 10
529.930862069
 20
473.9195556651
 30
0.0
 11
530.430862069
 21
473.9195556651
 31
0.0
  0
LINE
  5
1BC
330
1F
100
AcDbEntity
  8
0
  6
CONTINUOUS
 62
     7
100
AcDbLine
 10
91.430862069
 20
473.9195556651
 30
0.0
 11
91.930862069
 21
473.9195556651
 31
0.0
  0
LINE
  5
1BD
330
1F
100
AcDbEntity
  8
0
  6
CONTINUOUS
 62
     7
100
AcDbLine
 10
91.430862069
 20
472.1496808179
 30
0.0
 11
91.930862069
 21
472.1496808179
 31
0.0
  0
LINE
  5
1BE
330
1F
100
AcDbEntity
  8
0
  6
CONTINUOUS
 62
     7
100
AcDbLine
 10
529.930862069
 20
472.1496808179
 30
0.0
 11
530.430862069
 21
472.1496808179
 31
0.0
  0
LINE
  5
1BF
330
1F
100
AcDbEntity
  8
0
  6
CONTINUOUS
 62
     7
100
AcDbLine
 10
91.430862069
 20
393.7777273276
 30
0.0
 11
91.430862069
 21
380.1421429974
 31
0.0
  0
LINE
  5
1C0
330
1F
100
AcDbEntity
  8
0
  6
CONTINUOUS
 62
     7
100
AcDbLine
 10
87.430862069
 20
380.1421429974
 30
0.0
 11
87.430862069
 21
393.7777273276
 31
0.0
  0
LINE
  5
1C1
330
1F
100
AcDbEntity
  8
0
  6
CONTINUOUS
 62
     7
100
AcDbLine
 10
530.430862069
 20
393.7777273276
 30
0.0
 11
530.430862069
 21
380.1421429974
 31
0.0
  0
LINE
  5
1C2
330
1F
100
AcDbEntity
  8
0
  6
CONTINUOUS
 62
     7
100
AcDbLine
 10
534.430862069
 20
380.1421429974
 30
0.0
 11
534.430862069
 21
393.7777273276
 31
0.0
  0
LINE
  5
1C3
330
1F
100
AcDbEntity
  8
0
  6
CONTINUOUS
 62
     7
100
AcDbLine
 10
91.430862069
 20
380.1421429974
 30
0.0
 11
91.430862069
 21
372.3886077924
 31
0.0
  0
LINE
  5
1C4
330
1F
100
AcDbEntity
  8
0
  6
CONTINUOUS
 62
     7
100
AcDbLine
 10
87.430862069
 20
372.3886077924
 30
0.0
 11
87.430862069
 21
380.1421429974
 31
0.0
  0
LINE
  5
1C5
330
1F
100
AcDbEntity
  8
0
  6
CONTINUOUS
 62
     7
100
AcDbLine
 10
530.430862069
 20
380.1421429974
 30
0.0
 11
530.430862069
 21
372.3886077924
 31
0.0
  0
LINE
  5
1C6
330
1F
100
AcDbEntity
  8
0
  6
CONTINUOUS
 62
     7
100
AcDbLine
 10
534.430862069
 20
372.3886077924
 30
0.0
 11
534.430862069
 21
380.1421429974
 31
0.0
  0
ARC
  5
1C7
330
1F
100
AcDbEntity
  8
0
  6
CONTINUOUS
 62
     7
100
AcDbCircle
 10
84.430862069
 20
543.5405346578
 30
0.0
 40
3.000000000000014
100
AcDbArc
 50
0.0
 51
90.0
  0
LINE
  5
1C8
330
1F
100
AcDbEntity
  8
0
  6
CONTINUOUS
 62
     7
100
AcDbLine
 10
84.430862069
 20
546.5405346578
 30
0.0
 11
44.430862069
 21
546.5405346578
 31
0.0
  0
LINE
  5
1C9
330
1F
100
AcDbEntity
  8
0
  6
CONTINUOUS
 62
     7
100
AcDbLine
 10
44.430862069
 20
550.5405346578
 30
0.0
 11
84.430862069
 21
550.5405346578
 31
0.0
  0
ARC
  5
1CA
330
1F
100
AcDbEntity
  8
0
  6
CONTINUOUS
 62
     7
100
AcDbCircle
 10
84.430862069
 20
543.5405346578
 30
0.0
 40
6.99999999999994
100
AcDbArc
 50
64.6230664748
 51
90.0
  0
LINE
  5
1CB
330
1F
100
AcDbEntity
  8
0
  6
CONTINUOUS
 62
     7
100
AcDbLine
 10
537.430862069
 20
550.5405346578
 30
0.0
 11
577.430862069
 21
550.5405346578
 31
0.0
  0
LINE
  5
1CC
330
1F
100
AcDbEntity
  8
0
  6
CONTINUOUS
 62
     7
100
AcDbLine
 10
577.430862069
 20
546.5405346578
 30
0.0
 11
537.430862069
 21
546.5405346578
 31
0.0
  0
ARC
  5
1CD
330
1F
100
AcDbEntity
  8
0
  6
CONTINUOUS
 62
     7
100
AcDbCircle
 10
537.430862069
 20
543.5405346578
 30
0.0
 40
3.000000000000114
100
AcDbArc
 50
90.0
 51
180.0
  0
ARC
  5
1CE
330
1F
100
AcDbEntity
  8
0
  6
CONTINUOUS
 62
     7
100
AcDbCircle
 10
537.430862069
 20
543.5405346578
 30
0.0
 40
6.999999999999982
100
AcDbArc
 50
90.0
 51
115.3769335252
  0
LINE
  5
1CF
330
1F
100
AcDbEntity
  8
0
  6
CONTINUOUS
 62
     7
100
AcDbLine
 10
580.430862069
 20
546.5405346578
 30
0.0
 11
580.430862069
 21
550.5405346578
 31
0.0
  0
LINE
  5
1D0
330
1F
100
AcDbEntity
  8
0
  6
CONTINUOUS
 62
     7
100
AcDbLine
 10
580.430862069
 20
546.5405346578
 30
0.0
 11
577.430862069
 21
546.5405346578
 31
0.0
  0
LINE
  5
1D1
330
1F
100
AcDbEntity
  8
0
  6
CONTINUOUS
 62
     7
100
AcDbLine
 10
580.430862069
 20
550.5405346578
 30
0.0
 11
577.430862069
 21
550.5405346578
 31
0.0
  0
LINE
  5
1D2
330
1F
100
AcDbEntity
  8
0
  6
CONTINUOUS
 62
     7
100
AcDbLine
 10
41.430862069
 20
546.5405346578
 30
0.0
 11
44.430862069
 21
546.5405346578
 31
0.0
  0
LINE
  5
1D3
330
1F
100
AcDbEntity
  8
0
  6
CONTINUOUS
 62
     7
100
AcDbLine
 10
41.430862069
 20
550.5405346578
 30
0.0
 11
41.430862069
 21
546.5405346578
 31
0.0
  0
LINE
  5
1D4
330
1F
100
AcDbEntity
  8
0
  6
CONTINUOUS
 62
     7
100
AcDbLine
 10
44.430862069
 20
550.5405346578
 30
0.0
 11
41.430862069
 21
550.5405346578
 31
0.0
  0
LINE
  5
1D5
330
1F
100
AcDbEntity
  8
0
  6
CONTINUOUS
 62
     7
100
AcDbLine
 10
91.430862069
 20
372.3886077924
 30
0.0
 11
91.430862069
 21
372.3315282638
 31
0.0
  0
LINE
  5
1D6
330
1F
100
AcDbEntity
  8
0
  6
CONTINUOUS
 62
     7
100
AcDbLine
 10
87.430862069
 20
372.3315282638
 30
0.0
 11
87.430862069
 21
372.3886077924
 31
0.0
  0
LINE
  5
1D7
330
1F
100
AcDbEntity
  8
0
  6
CONTINUOUS
 62
     7
100
AcDbLine
 10
530.430862069
 20
372.3886077924
 30
0.0
 11
530.430862069
 21
372.3315282638
 31
0.0
  0
LINE
  5
1D8
330
1F
100
AcDbEntity
  8
0
  6
CONTINUOUS
 62
     7
100
AcDbLine
 10
534.430862069
 20
372.3315282638
 30
0.0
 11
534.430862069
 21
372.3886077924
 31
0.0
  0
ELLIPSE
  5
1D9
330
1F
100
AcDbEntity
  8
0
  6
CONTINUOUS
 62
     7
100
AcDbEllipse
 10
99.930862069
 20
409.8886270929
 30
0.0
 11
0.0
 21
3.139542268885521
 31
0.0
210
0.0
220
0.0
230
1.0
 40
0.9555533078
 41
1.570796326794897
 42
2.094395102393213
  0
ELLIPSE
  5
1DA
330
1F
100
AcDbEntity
  8
0
  6
CONTINUOUS
 62
     7
100
AcDbEllipse
 10
521.930862069
 20
409.8886270929
 30
0.0
 11
0.0
 21
3.139542268885521
 31
0.0
210
0.0
220
0.0
230
1.0
 40
0.9555533078
 41
4.188790204786383
 42
4.712388980384703
  0
LINE
  5
1DB
330
1F
100
AcDbEntity
  8
0
  6
CONTINUOUS
 62
     7
100
AcDbLine
 10
96.930862069
 20
409.8886270929
 30
0.0
 11
96.930862069
 21
447.0398772747
 31
0.0
  0
LINE
  5
1DC
330
1F
100
AcDbEntity
  8
0
  6
CONTINUOUS
 62
     7
100
AcDbLine
 10
524.930862069
 20
447.0398772747
 30
0.0
 11
524.930862069
 21
409.8886270929
 31
0.0
  0
LINE
  5
1DD
330
1F
100
AcDbEntity
  8
0
  6
CONTINUOUS
 62
     7
100
AcDbLine
 10
96.930862069
 20
448.5691992882
 30
0.0
 11
96.930862069
 21
447.0398772747
 31
0.0
  0
LINE
  5
1DE
330
1F
100
AcDbEntity
  8
0
  6
CONTINUOUS
 62
     7
100
AcDbLine
 10
524.930862069
 20
448.5691992882
 30
0.0
 11
524.930862069
 21
447.0398772747
 31
0.0
  0
LINE
  5
1DF
330
1F
100
AcDbEntity
  8
0
  6
CONTINUOUS
 62
     7
100
AcDbLine
 10
524.930862069
 20
448.5691992882
 30
0.0
 11
525.430862069
 21
448.5691992882
 31
0.0
  0
LINE
  5
1E0
330
1F
100
AcDbEntity
  8
0
  6
CONTINUOUS
 62
     7
100
AcDbLine
 10
524.930862069
 20
416.5830416998
 30
0.0
 11
525.430862069
 21
416.5830416998
 31
0.0
  0
LINE
  5
1E1
330
1F
100
AcDbEntity
  8
0
  6
CONTINUOUS
 62
     7
100
AcDbLine
 10
525.430862069
 20
448.5691992882
 30
0.0
 11
525.430862069
 21
416.5830416998
 31
0.0
  0
LINE
  5
1E2
330
1F
100
AcDbEntity
  8
0
  6
CONTINUOUS
 62
     7
100
AcDbLine
 10
96.930862069
 20
416.5830416998
 30
0.0
 11
96.430862069
 21
416.5830416998
 31
0.0
  0
LINE
  5
1E3
330
1F
100
AcDbEntity
  8
0
  6
CONTINUOUS
 62
     7
100
AcDbLine
 10
96.430862069
 20
416.5830416998
 30
0.0
 11
96.430862069
 21
448.5691992882
 31
0.0
  0
LINE
  5
1E4
330
1F
100
AcDbEntity
  8
0
  6
CONTINUOUS
 62
     7
100
AcDbLine
 10
96.430862069
 20
448.5691992882
 30
0.0
 11
96.930862069
 21
448.5691992882
 31
0.0
  0
LINE
  5
1E5
330
1F
100
AcDbEntity
  8
0
  6
CONTINUOUS
 62
     7
100
AcDbLine
 10
96.430862069
 20
448.5691992882
 30
0.0
 11
96.430862069
 21
470.4854826462
 31
0.0
  0
LINE
  5
1E6
330
1F
100
AcDbEntity
  8
0
  6
CONTINUOUS
 62
     7
100
AcDbLine
 10
525.430862069
 20
470.4854826462
 30
0.0
 11
525.430862069
 21
448.5691992882
 31
0.0
  0
ELLIPSE
  5
1E7
330
1F
100
AcDbEntity
  8
0
  6
CONTINUOUS
 62
     7
100
AcDbEllipse
 10
108.430862069
 20
469.4396137332
 30
0.0
 11
-8.847328041721482
 21
8.847328041721426
 31
0.0
210
0.0
220
0.0
230
1.0
 40
0.916331174
 41
5.541420375082007
 42
7.024950239277182
  0
ELLIPSE
  5
1E8
330
1F
100
AcDbEntity
  8
0
  6
CONTINUOUS
 62
     7
100
AcDbEllipse
 10
513.430862069
 20
469.4396137332
 30
0.0
 11
8.847328041721426
 21
8.847328041721426
 31
0.0
210
0.0
220
0.0
230
1.0
 40
0.916331174
 41
5.541420375082005
 42
7.024950239277182
  0
ELLIPSE
  5
1E9
330
1F
100
AcDbEntity
  8
0
  6
CONTINUOUS
 62
     7
100
AcDbEllipse
 10
521.930862069
 20
373.8844031063
 30
0.0
 11
2.211832010430384
 21
-2.211832010430384
 31
0.0
210
0.0
220
0.0
230
1.0
 40
0.916331174
 41
5.454153912482284
 42
7.024950239277211
  0
ELLIPSE
  5
1EA
330
1F
100
AcDbEntity
  8
0
  6
CONTINUOUS
 62
     7
100
AcDbEllipse
 10
521.930862069
 20
409.5867107437
 30
0.0
 11
2.211832010430385
 21
2.211832010430328
 31
0.0
210
0.0
220
0.0
230
1.0
 40
0.916331174
 41
3.970624048287116
 42
5.017821599483741
  0
LINE
  5
1EB
330
1F
100
AcDbEntity
  8
0
  6
CONTINUOUS
 62
     7
100
AcDbLine
 10
524.930862069
 20
373.6229358781
 30
0.0
 11
524.930862069
 21
409.8886270929
 31
0.0
  0
ELLIPSE
  5
1EC
330
1F
100
AcDbEntity
  8
0
  6
CONTINUOUS
 62
     7
100
AcDbEllipse
 10
99.930862069
 20
409.5867107437
 30
0.0
 11
2.211832010430356
 21
-2.211832010430385
 31
0.0
210
0.0
220
0.0
230
1.0
 40
0.916331174
 41
4.406956361285694
 42
5.454153912482306
  0
ELLIPSE
  5
1ED
330
1F
100
AcDbEntity
  8
0
  6
CONTINUOUS
 62
     7
100
AcDbEllipse
 10
99.930862069
 20
373.8844031063
 30
0.0
 11
2.211832010430356
 21
2.211832010430328
 31
0.0
210
0.0
220
0.0
230
1.0
 40
0.916331174
 41
2.399827721492192
 42
3.970624048287114
  0
LINE
  5
1EE
330
1F
100
AcDbEntity
  8
0
  6
CONTINUOUS
 62
     7
100
AcDbLine
 10
96.930862069
 20
409.8886270929
 30
0.0
 11
96.930862069
 21
373.6229358781
 31
0.0
  0
LINE
  5
1EF
330
1F
100
AcDbEntity
  8
0
  6
CONTINUOUS
 62
     7
100
AcDbLine
 10
529.930862069
 20
401.6148323876
 30
0.0
 11
529.930862069
 21
415.3074962464
 31
0.0
  0
LINE
  5
1F0
330
1F
100
AcDbEntity
  8
0
  6
CONTINUOUS
 62
     7
100
AcDbLine
 10
529.930862069
 20
385.3074962464
 30
0.0
 11
529.930862069
 21
401.6148323876
 31
0.0
  0
LINE
  5
1F1
330
1F
100
AcDbEntity
  8
0
  6
CONTINUOUS
 62
     7
100
AcDbLine
 10
91.930862069
 20
401.6148323876
 30
0.0
 11
91.930862069
 21
385.3074962464
 31
0.0
  0
LINE
  5
1F2
330
1F
100
AcDbEntity
  8
0
  6
CONTINUOUS
 62
     7
100
AcDbLine
 10
91.930862069
 20
415.3074962464
 30
0.0
 11
91.930862069
 21
401.6148323876
 31
0.0
  0
LINE
  5
1F3
330
1F
100
AcDbEntity
  8
0
  6
CONTINUOUS
 62
     7
100
AcDbLine
 10
1567.3101724138
 20
61.8307160871
 30
0.0
 11
1571.3101724138
 21
61.8307160871
 31
0.0
  0
LINE
  5
1F4
330
1F
100
AcDbEntity
  8
0
  6
CONTINUOUS
 62
     7
100
AcDbLine
 10
2010.3101724138
 20
61.8307160871
 30
0.0
 11
2014.3101724138
 21
61.8307160871
 31
0.0
  0
LINE
  5
1F5
330
1F
100
AcDbEntity
  8
0
  6
CONTINUOUS
 62
     7
100
AcDbLine
 10
2000.6817298413
 20
156.5051265156
 30
0.0
 11
1580.9386149863
 21
156.5051265156
 31
0.0
  0
LINE
  5
1F6
330
1F
100
AcDbEntity
  8
0
  6
CONTINUOUS
 62
     7
100
AcDbLine
 10
1571.3101724138
 20
208.019185777
 30
0.0
 11
1571.8101724138
 21
208.019185777
 31
0.0
  0
LINE
  5
1F7
330
1F
100
AcDbEntity
  8
0
  6
CONTINUOUS
 62
     7
100
AcDbLine
 10
2009.8101724138
 20
208.019185777
 30
0.0
 11
2010.3101724138
 21
208.019185777
 31
0.0
  0
LINE
  5
1F8
330
1F
100
AcDbEntity
  8
0
  6
CONTINUOUS
 62
     7
100
AcDbLine
 10
2010.3101724138
 20
218.019185777
 30
0.0
 11
2009.8101724138
 21
218.019185777
 31
0.0
  0
LINE
  5
1F9
330
1F
100
AcDbEntity
  8
0
  6
CONTINUOUS
 62
     7
100
AcDbLine
 10
1571.8101724138
 20
218.019185777
 30
0.0
 11
1571.3101724138
 21
218.019185777
 31
0.0
  0
LINE
  5
1FA
330
1F
100
AcDbEntity
  8
0
  6
CONTINUOUS
 62
     7
100
AcDbLine
 10
1571.3101724138
 20
240.9951537596
 30
0.0
 11
1567.3101724138
 21
240.9951537596
 31
0.0
  0
LINE
  5
1FB
330
1F
100
AcDbEntity
  8
0
  6
CONTINUOUS
 62
     7
100
AcDbLine
 10
2014.3101724138
 20
240.9951537596
 30
0.0
 11
2010.3101724138
 21
240.9951537596
 31
0.0
  0
LINE
  5
1FC
330
1F
100
AcDbEntity
  8
0
  6
CONTINUOUS
 62
     7
100
AcDbLine
 10
2009.8101724138
 20
228.019185777
 30
0.0
 11
2005.3101724138
 21
228.019185777
 31
0.0
  0
LINE
  5
1FD
330
1F
100
AcDbEntity
  8
0
  6
CONTINUOUS
 62
     7
100
AcDbLine
 10
2005.3101724138
 20
198.019185777
 30
0.0
 11
2009.8101724138
 21
198.019185777
 31
0.0
  0
LINE
  5
1FE
330
1F
100
AcDbEntity
  8
0
  6
CONTINUOUS
 62
     7
100
AcDbLine
 10
1576.3101724138
 20
228.019185777
 30
0.0
 11
1571.8101724138
 21
228.019185777
 31
0.0
  0
LINE
  5
1FF
330
1F
100
AcDbEntity
  8
0
  6
CONTINUOUS
 62
     7
100
AcDbLine
 10
1571.8101724138
 20
198.019185777
 30
0.0
 11
1576.3101724138
 21
198.019185777
 31
0.0
  0
LINE
  5
200
330
1F
100
AcDbEntity
  8
0
  6
CONTINUOUS
 62
     7
100
AcDbLine
 10
1571.8101724138
 20
147.3766839431
 30
0.0
 11
1571.8101724138
 21
98.9616688467
 31
0.0
  0
ELLIPSE
  5
201
330
1F
100
AcDbEntity
  8
0
  6
CONTINUOUS
 62
     7
100
AcDbEllipse
 10
1581.8101724138
 20
146.5051265156
 30
0.0
 11
7.372773368101206
 21
-7.372773368101263
 31
0.0
210
0.0
220
0.0
230
1.0
 40
0.916331174
 41
2.312561258892493
 42
3.883357585687399
  0
ELLIPSE
  5
202
330
1F
100
AcDbEntity
  8
0
  6
CONTINUOUS
 62
     7
100
AcDbEllipse
 10
1581.8101724138
 20
99.8332262742
 30
0.0
 11
7.372773368101206
 21
7.372773368101235
 31
0.0
210
0.0
220
0.0
230
1.0
 40
0.916331174
 41
0.8290313946973025
 42
2.399827721492201
  0
ELLIPSE
  5
203
330
1F
100
AcDbEntity
  8
0
  6
CONTINUOUS
 62
     7
100
AcDbEllipse
 10
1999.8101724138
 20
99.8332262742
 30
0.0
 11
7.372773368100979
 21
-7.372773368101265
 31
0.0
210
0.0
220
0.0
230
1.0
 40
0.916331174
 41
0.741764932097588
 42
2.312561258892526
  0
LINE
  5
204
330
1F
100
AcDbEntity
  8
0
  6
CONTINUOUS
 62
     7
100
AcDbLine
 10
2009.8101724138
 20
98.9616688467
 30
0.0
 11
2009.8101724138
 21
147.3766839431
 31
0.0
  0
ELLIPSE
  5
205
330
1F
100
AcDbEntity
  8
0
  6
CONTINUOUS
 62
     7
100
AcDbEllipse
 10
1999.8101724138
 20
146.5051265156
 30
0.0
 11
7.372773368100979
 21
7.372773368101235
 31
0.0
210
0.0
220
0.0
230
1.0
 40
0.916331174
 41
5.541420375081994
 42
7.112216701876873
  0
LINE
  5
206
330
1F
100
AcDbEntity
  8
0
  6
CONTINUOUS
 62
     7
100
AcDbLine
 10
2009.8101724138
 20
76.0491907906
 30
0.0
 11
2009.8101724138
 21
98.9616688467
 31
0.0
  0
LINE
  5
207
330
1F
100
AcDbEntity
  8
0
  6
CONTINUOUS
 62
     7
100
AcDbLine
 10
1571.8101724138
 20
76.0491907906
 30
0.0
 11
2009.8101724138
 21
76.0491907906
 31
0.0
  0
LINE
  5
208
330
1F
100
AcDbEntity
  8
0
  6
CONTINUOUS
 62
     7
100
AcDbLine
 10
1571.8101724138
 20
76.0491907906
 30
0.0
 11
1571.8101724138
 21
98.9616688467
 31
0.0
  0
LINE
  5
209
330
1F
100
AcDbEntity
  8
0
  6
CONTINUOUS
 62
     7
100
AcDbLine
 10
1571.3101724138
 20
124.464205887
 30
0.0
 11
1571.8101724138
 21
124.464205887
 31
0.0
  0
LINE
  5
20A
330
1F
100
AcDbEntity
  8
0
  6
CONTINUOUS
 62
     7
100
AcDbLine
 10
2009.8101724138
 20
124.464205887
 30
0.0
 11
2010.3101724138
 21
124.464205887
 31
0.0
  0
LINE
  5
20B
330
1F
100
AcDbEntity
  8
0
  6
CONTINUOUS
 62
     7
100
AcDbLine
 10
2014.3101724138
 20
122.3877077646
 30
0.0
 11
2014.3101724138
 21
101.7165570298
 31
0.0
  0
LINE
  5
20C
330
1F
100
AcDbEntity
  8
0
  6
CONTINUOUS
 62
     7
100
AcDbLine
 10
2010.3101724138
 20
76.0056129193
 30
0.0
 11
2010.3101724138
 21
101.7165570298
 31
0.0
  0
LINE
  5
20D
330
1F
100
AcDbEntity
  8
0
  6
CONTINUOUS
 62
     7
100
AcDbLine
 10
1571.3101724138
 20
76.0056129193
 30
0.0
 11
2010.3101724138
 21
76.0056129193
 31
0.0
  0
LINE
  5
20E
330
1F
100
AcDbEntity
  8
0
  6
CONTINUOUS
 62
     7
100
AcDbLine
 10
1571.3101724138
 20
76.0056129193
 30
0.0
 11
1571.3101724138
 21
101.7165570298
 31
0.0
  0
LINE
  5
20F
330
1F
100
AcDbEntity
  8
0
  6
CONTINUOUS
 62
     7
100
AcDbLine
 10
1567.3101724138
 20
122.3877077646
 30
0.0
 11
1567.3101724138
 21
101.7165570298
 31
0.0
  0
LINE
  5
210
330
1F
100
AcDbEntity
  8
0
  6
CONTINUOUS
 62
     7
100
AcDbLine
 10
2010.3101724138
 20
36.1578249956
 30
0.0
 11
2010.3101724138
 21
76.0056129193
 31
0.0
  0
LINE
  5
211
330
1F
100
AcDbEntity
  8
0
  6
CONTINUOUS
 62
     7
100
AcDbLine
 10
1571.3101724138
 20
36.1578249956
 30
0.0
 11
2010.3101724138
 21
36.1578249956
 31
0.0
  0
LINE
  5
212
330
1F
100
AcDbEntity
  8
0
  6
CONTINUOUS
 62
     7
100
AcDbLine
 10
1571.3101724138
 20
36.1578249956
 30
0.0
 11
1571.3101724138
 21
76.0056129193
 31
0.0
  0
LINE
  5
213
330
1F
100
AcDbEntity
  8
0
  6
CONTINUOUS
 62
     7
100
AcDbLine
 10
2014.3101724138
 20
101.7165570298
 30
0.0
 11
2014.3101724138
 21
90.8830526214
 31
0.0
  0
LINE
  5
214
330
1F
100
AcDbEntity
  8
0
  6
CONTINUOUS
 62
     7
100
AcDbLine
 10
1567.3101724138
 20
101.7165570298
 30
0.0
 11
1567.3101724138
 21
90.8830526214
 31
0.0
  0
LINE
  5
215
330
1F
100
AcDbEntity
  8
0
  6
CONTINUOUS
 62
     7
100
AcDbLine
 10
2014.3101724138
 20
90.8830526214
 30
0.0
 11
2014.3101724138
 21
70.9591586596
 31
0.0
  0
LINE
  5
216
330
1F
100
AcDbEntity
  8
0
  6
CONTINUOUS
 62
     7
100
AcDbLine
 10
1567.3101724138
 20
90.8830526214
 30
0.0
 11
1567.3101724138
 21
70.9591586596
 31
0.0
  0
LINE
  5
217
330
1F
100
AcDbEntity
  8
0
  6
CONTINUOUS
 62
     7
100
AcDbLine
 10
1567.3101724138
 20
70.9591586596
 30
0.0
 11
1567.3101724138
 21
61.8307160871
 31
0.0
  0
LINE
  5
218
330
1F
100
AcDbEntity
  8
0
  6
CONTINUOUS
 62
     7
100
AcDbLine
 10
2014.3101724138
 20
70.9591586596
 30
0.0
 11
2014.3101724138
 21
61.8307160871
 31
0.0
  0
LINE
  5
219
330
1F
100
AcDbEntity
  8
0
  6
CONTINUOUS
 62
     7
100
AcDbLine
 10
2010.3101724138
 20
122.3877077646
 30
0.0
 11
2010.3101724138
 21
140.5684868714
 31
0.0
  0
LINE
  5
21A
330
1F
100
AcDbEntity
  8
0
  6
CONTINUOUS
 62
     7
100
AcDbLine
 10
2014.3101724138
 20
140.5684868714
 30
0.0
 11
2014.3101724138
 21
122.3877077646
 31
0.0
  0
LINE
  5
21B
330
1F
100
AcDbEntity
  8
0
  6
CONTINUOUS
 62
     7
100
AcDbLine
 10
1571.3101724138
 20
122.3877077646
 30
0.0
 11
1571.3101724138
 21
140.5684868714
 31
0.0
  0
LINE
  5
21C
330
1F
100
AcDbEntity
  8
0
  6
CONTINUOUS
 62
     7
100
AcDbLine
 10
1567.3101724138
 20
140.5684868714
 30
0.0
 11
1567.3101724138
 21
122.3877077646
 31
0.0
  0
LINE
  5
21D
330
1F
100
AcDbEntity
  8
0
  6
CONTINUOUS
 62
     7
100
AcDbLine
 10
2010.3101724138
 20
140.5684868714
 30
0.0
 11
2010.3101724138
 21
219.5489546958
 31
0.0
  0
LINE
  5
21E
330
1F
100
AcDbEntity
  8
0
  6
CONTINUOUS
 62
     7
100
AcDbLine
 10
2014.3101724138
 20
219.5489546958
 30
0.0
 11
2014.3101724138
 21
140.5684868714
 31
0.0
  0
LINE
  5
21F
330
1F
100
AcDbEntity
  8
0
  6
CONTINUOUS
 62
     7
100
AcDbLine
 10
1571.3101724138
 20
140.5684868714
 30
0.0
 11
1571.3101724138
 21
219.5489546958
 31
0.0
  0
LINE
  5
220
330
1F
100
AcDbEntity
  8
0
  6
CONTINUOUS
 62
     7
100
AcDbLine
 10
1567.3101724138
 20
219.5489546958
 30
0.0
 11
1567.3101724138
 21
140.5684868714
 31
0.0
  0
LINE
  5
221
330
1F
100
AcDbEntity
  8
0
  6
CONTINUOUS
 62
     7
100
AcDbLine
 10
1571.8101724138
 20
139.4071263583
 30
0.0
 11
1571.3101724138
 21
139.4071263583
 31
0.0
  0
LINE
  5
222
330
1F
100
AcDbEntity
  8
0
  6
CONTINUOUS
 62
     7
100
AcDbLine
 10
2010.3101724138
 20
139.4071263583
 30
0.0
 11
2009.8101724138
 21
139.4071263583
 31
0.0
  0
LINE
  5
223
330
1F
100
AcDbEntity
  8
0
  6
CONTINUOUS
 62
     7
100
AcDbLine
 10
2010.3101724138
 20
141.1770012055
 30
0.0
 11
2009.8101724138
 21
141.1770012055
 31
0.0
  0
LINE
  5
224
330
1F
100
AcDbEntity
  8
0
  6
CONTINUOUS
 62
     7
100
AcDbLine
 10
1571.8101724138
 20
141.1770012055
 30
0.0
 11
1571.3101724138
 21
141.1770012055
 31
0.0
  0
LINE
  5
225
330
1F
100
AcDbEntity
  8
0
  6
CONTINUOUS
 62
     7
100
AcDbLine
 10
2010.3101724138
 20
219.5489546958
 30
0.0
 11
2010.3101724138
 21
233.184539026
 31
0.0
  0
LINE
  5
226
330
1F
100
AcDbEntity
  8
0
  6
CONTINUOUS
 62
     7
100
AcDbLine
 10
2014.3101724138
 20
233.184539026
 30
0.0
 11
2014.3101724138
 21
219.5489546958
 31
0.0
  0
LINE
  5
227
330
1F
100
AcDbEntity
  8
0
  6
CONTINUOUS
 62
     7
100
AcDbLine
 10
1571.3101724138
 20
219.5489546958
 30
0.0
 11
1571.3101724138
 21
233.184539026
 31
0.0
  0
LINE
  5
228
330
1F
100
AcDbEntity
  8
0
  6
CONTINUOUS
 62
     7
100
AcDbLine
 10
1567.3101724138
 20
233.184539026
 30
0.0
 11
1567.3101724138
 21
219.5489546958
 31
0.0
  0
LINE
  5
229
330
1F
100
AcDbEntity
  8
0
  6
CONTINUOUS
 62
     7
100
AcDbLine
 10
1571.3101724138
 20
233.184539026
 30
0.0
 11
1571.3101724138
 21
240.938074231
 31
0.0
  0
LINE
  5
22A
330
1F
100
AcDbEntity
  8
0
  6
CONTINUOUS
 62
     7
100
AcDbLine
 10
1567.3101724138
 20
240.938074231
 30
0.0
 11
1567.3101724138
 21
233.184539026
 31
0.0
  0
LINE
  5
22B
330
1F
100
AcDbEntity
  8
0
  6
CONTINUOUS
 62
     7
100
AcDbLine
 10
2010.3101724138
 20
233.184539026
 30
0.0
 11
2010.3101724138
 21
240.938074231
 31
0.0
  0
LINE
  5
22C
330
1F
100
AcDbEntity
  8
0
  6
CONTINUOUS
 62
     7
100
AcDbLine
 10
2014.3101724138
 20
240.938074231
 30
0.0
 11
2014.3101724138
 21
233.184539026
 31
0.0
  0
ARC
  5
22D
330
1F
100
AcDbEntity
  8
0
  6
CONTINUOUS
 62
     7
100
AcDbCircle
 10
2017.3101724138
 20
69.7861473656
 30
0.0
 40
3.0
100
AcDbArc
 50
180.0
 51
270.0
  0
LINE
  5
22E
330
1F
100
AcDbEntity
  8
0
  6
CONTINUOUS
 62
     7
100
AcDbLine
 10
2017.3101724138
 20
66.7861473656
 30
0.0
 11
2057.3101724138
 21
66.7861473656
 31
0.0
  0
LINE
  5
22F
330
1F
100
AcDbEntity
  8
0
  6
CONTINUOUS
 62
     7
100
AcDbLine
 10
2057.3101724138
 20
62.7861473656
 30
0.0
 11
2017.3101724138
 21
62.7861473656
 31
0.0
  0
ARC
  5
230
330
1F
100
AcDbEntity
  8
0
  6
CONTINUOUS
 62
     7
100
AcDbCircle
 10
2017.3101724138
 20
69.7861473656
 30
0.0
 40
7.000000000000021
100
AcDbArc
 50
244.6230664748
 51
270.0
  0
LINE
  5
231
330
1F
100
AcDbEntity
  8
0
  6
CONTINUOUS
 62
     7
100
AcDbLine
 10
1564.3101724138
 20
62.7861473656
 30
0.0
 11
1524.3101724138
 21
62.7861473656
 31
0.0
  0
LINE
  5
232
330
1F
100
AcDbEntity
  8
0
  6
CONTINUOUS
 62
     7
100
AcDbLine
 10
1524.3101724138
 20
66.7861473656
 30
0.0
 11
1564.3101724138
 21
66.7861473656
 31
0.0
  0
ARC
  5
233
330
1F
100
AcDbEntity
  8
0
  6
CONTINUOUS
 62
     7
100
AcDbCircle
 10
1564.3101724138
 20
69.7861473656
 30
0.0
 40
3.0
100
AcDbArc
 50
270.0
 51
0.0
  0
ARC
  5
234
330
1F
100
AcDbEntity
  8
0
  6
CONTINUOUS
 62
     7
100
AcDbCircle
 10
1564.3101724138
 20
69.7861473656
 30
0.0
 40
7.000000000000021
100
AcDbArc
 50
270.0
 51
295.3769335252
  0
LINE
  5
235
330
1F
100
AcDbEntity
  8
0
  6
CONTINUOUS
 62
     7
100
AcDbLine
 10
1521.3101724138
 20
66.7861473656
 30
0.0
 11
1521.3101724138
 21
62.7861473656
 31
0.0
  0
LINE
  5
236
330
1F
100
AcDbEntity
  8
0
  6
CONTINUOUS
 62
     7
100
AcDbLine
 10
1521.3101724138
 20
66.7861473656
 30
0.0
 11
1524.3101724138
 21
66.7861473656
 31
0.0
  0
LINE
  5
237
330
1F
100
AcDbEntity
  8
0
  6
CONTINUOUS
 62
     7
100
AcDbLine
 10
1521.3101724138
 20
62.7861473656
 30
0.0
 11
1524.3101724138
 21
62.7861473656
 31
0.0
  0
LINE
  5
238
330
1F
100
AcDbEntity
  8
0
  6
CONTINUOUS
 62
     7
100
AcDbLine
 10
2060.3101724138
 20
66.7861473656
 30
0.0
 11
2057.3101724138
 21
66.7861473656
 31
0.0
  0
LINE
  5
239
330
1F
100
AcDbEntity
  8
0
  6
CONTINUOUS
 62
     7
100
AcDbLine
 10
2060.3101724138
 20
62.7861473656
 30
0.0
 11
2060.3101724138
 21
66.7861473656
 31
0.0
  0
LINE
  5
23A
330
1F
100
AcDbEntity
  8
0
  6
CONTINUOUS
 62
     7
100
AcDbLine
 10
2057.3101724138
 20
62.7861473656
 30
0.0
 11
2060.3101724138
 21
62.7861473656
 31
0.0
  0
LINE
  5
23B
330
1F
100
AcDbEntity
  8
0
  6
CONTINUOUS
 62
     7
100
AcDbLine
 10
1571.3101724138
 20
240.938074231
 30
0.0
 11
1571.3101724138
 21
240.9951537596
 31
0.0
  0
LINE
  5
23C
330
1F
100
AcDbEntity
  8
0
  6
CONTINUOUS
 62
     7
100
AcDbLine
 10
1567.3101724138
 20
240.9951537596
 30
0.0
 11
1567.3101724138
 21
240.938074231
 31
0.0
  0
LINE
  5
23D
330
1F
100
AcDbEntity
  8
0
  6
CONTINUOUS
 62
     7
100
AcDbLine
 10
2010.3101724138
 20
240.938074231
 30
0.0
 11
2010.3101724138
 21
240.9951537596
 31
0.0
  0
LINE
  5
23E
330
1F
100
AcDbEntity
  8
0
  6
CONTINUOUS
 62
     7
100
AcDbLine
 10
2014.3101724138
 20
240.9951537596
 30
0.0
 11
2014.3101724138
 21
240.938074231
 31
0.0
  0
LINE
  5
23F
330
1F
100
AcDbEntity
  8
0
  6
CONTINUOUS
 62
     7
100
AcDbLine
 10
2005.3101724138
 20
561.019185777
 30
0.0
 11
1576.3101724138
 21
561.019185777
 31
0.0
  0
LINE
  5
240
330
1F
100
AcDbEntity
  8
0
  6
CONTINUOUS
 62
     7
100
AcDbLine
 10
1993.3101724138
 20
549.019185777
 30
0.0
 11
2005.3101724138
 21
561.019185777
 31
0.0
  0
LINE
  5
241
330
1F
100
AcDbEntity
  8
0
  6
CONTINUOUS
 62
     7
100
AcDbLine
 10
1576.3101724138
 20
561.019185777
 30
0.0
 11
1588.3101724138
 21
549.019185777
 31
0.0
  0
LINE
  5
242
330
1F
100
AcDbEntity
  8
0
  6
CONTINUOUS
 62
     7
100
AcDbLine
 10
2005.3101724138
 20
194.019185777
 30
0.0
 11
2005.3101724138
 21
561.019185777
 31
0.0
  0
LINE
  5
243
330
1F
100
AcDbEntity
  8
0
  6
CONTINUOUS
 62
     7
100
AcDbLine
 10
2005.3101724138
 20
194.019185777
 30
0.0
 11
1993.3101724138
 21
206.019185777
 31
0.0
  0
LINE
  5
244
330
1F
100
AcDbEntity
  8
0
  6
CONTINUOUS
 62
     7
100
AcDbLine
 10
1576.3101724138
 20
194.019185777
 30
0.0
 11
1588.3101724138
 21
206.019185777
 31
0.0
  0
LINE
  5
245
330
1F
100
AcDbEntity
  8
0
  6
CONTINUOUS
 62
     7
100
AcDbLine
 10
1576.3101724138
 20
194.019185777
 30
0.0
 11
1576.3101724138
 21
561.019185777
 31
0.0
  0
LINE
  5
246
330
1F
100
AcDbEntity
  8
0
  6
CONTINUOUS
 62
     7
100
AcDbLine
 10
1576.3101724138
 20
194.019185777
 30
0.0
 11
2005.3101724138
 21
194.019185777
 31
0.0
  0
LINE
  5
247
330
1F
100
AcDbEntity
  8
0
  6
CONTINUOUS
 62
     7
100
AcDbLine
 10
1576.8101724138
 20
155.568204386
 30
0.0
 11
1576.8101724138
 21
194.019185777
 31
0.0
  0
LINE
  5
248
330
1F
100
AcDbEntity
  8
0
  6
CONTINUOUS
 62
     7
100
AcDbLine
 10
2004.8101724138
 20
155.568204386
 30
0.0
 11
2004.8101724138
 21
194.019185777
 31
0.0
  0
LINE
  5
249
330
1F
100
AcDbEntity
  8
0
  6
CONTINUOUS
 62
     7
100
AcDbLine
 10
2009.8101724138
 20
198.019185777
 30
0.0
 11
2009.8101724138
 21
228.019185777
 31
0.0
  0
LINE
  5
24A
330
1F
100
AcDbEntity
  8
0
  6
CONTINUOUS
 62
     7
100
AcDbLine
 10
1571.8101724138
 20
228.019185777
 30
0.0
 11
1571.8101724138
 21
198.019185777
 31
0.0
  0
ENDSEC
  0
SECTION
  2
OBJECTS
  0
DICTIONARY
  5
C
330
0
100
AcDbDictionary
  3
ACAD_GROUP
350
D
  3
ACAD_MLINESTYLE
350
17
  0
DICTIONARY
  5
D
102
{ACAD_REACTORS
330
C
102
}
330
C
100
AcDbDictionary
  0
DICTIONARY
  5
17
102
{ACAD_REACTORS
330
C
102
}
330
C
100
AcDbDictionary
  3
STANDARD
350
18
  0
MLINESTYLE
  5
18
102
{ACAD_REACTORS
330
17
102
}
330
17
100
AcDbMlineStyle
  2
Standard
 70
     0
  3

 62
   256
 51
90.0
 52
90.0
 71
     2
 49
0.5
 62
   256
  6
BYLAYER
 49
-0.5
 62
   256
  6
BYLAYER
  0
ENDSEC
  0
EOF
