  0
SECTION
  2
HEADER
  9
$ACADVER
  1
AC1021
  9
$ACADMAINTVER
 70
    25
  9
$DWGCODEPAGE
  3
ANSI_1252
  9
$INSBASE
 10
0.0
 20
0.0
 30
0.0
  9
$EXTMIN
 10
0.0
 20
0.0
 30
0.0
  9
$EXTMAX
 10
4200.0
 20
2970.0
 30
0.0
  9
$LIMMIN
 10
0.0
 20
0.0
  9
$LIMMAX
 10
4200.0
 20
2970.0
  9
$ORTHOMODE
 70
     0
  9
$REGENMODE
 70
     1
  9
$FILLMODE
 70
     1
  9
$QTEXTMODE
 70
     0
  9
$MIRRTEXT
 70
     1
  9
$LTSCALE
 40
10.0
  9
$ATTMODE
 70
     1
  9
$TEXTSIZE
 40
35.0
  9
$TRACEWID
 40
1.0
  9
$TEXTSTYLE
  7
Standard
  9
$CLAYER
  8
0
  9
$CELTYPE
  6
ByLayer
  9
$CECOLOR
 62
   256
  9
$CELTSCALE
 40
1.0
  9
$DISPSILH
 70
     0
  9
$DIMSCALE
 40
1.0
  9
$DIMASZ
 40
40.0
  9
$DIMEXO
 40
0.0
  9
$DIMDLI
 40
3.75
  9
$DIMRND
 40
0.0
  9
$DIMDLE
 40
0.0
  9
$DIMEXE
 40
20.0
  9
$DIMTP
 40
0.0
  9
$DIMTM
 40
0.0
  9
$DIMTXT
 40
35.0
  9
$DIMCEN
 40
2.5
  9
$DIMTSZ
 40
0.0
  9
$DIMTOL
 70
     0
  9
$DIMLIM
 70
     0
  9
$DIMTIH
 70
     1
  9
$DIMTOH
 70
     1
  9
$DIMSE1
 70
     0
  9
$DIMSE2
 70
     0
  9
$DIMTAD
 70
     1
  9
$DIMZIN
 70
     0
  9
$DIMBLK
  1

  9
$DIMASO
 70
     1
  9
$DIMSHO
 70
     1
  9
$DIMPOST
  1

  9
$DIMAPOST
  1

  9
$DIMALT
 70
     0
  9
$DIMALTD
 70
     3
  9
$DIMALTF
 40
0.0393700787
  9
$DIMLFAC
 40
1.0
  9
$DIMTOFL
 70
     1
  9
$DIMTVP
 40
0.0
  9
$DIMTIX
 70
     0
  9
$DIMSOXD
 70
     0
  9
$DIMSAH
 70
     0
  9
$DIMBLK1
  1

  9
$DIMBLK2
  1

  9
$DIMSTYLE
  2
ISO-25
  9
$DIMCLRD
 70
     0
  9
$DIMCLRE
 70
     0
  9
$DIMCLRT
 70
     0
  9
$DIMTFAC
 40
1.0
  9
$DIMGAP
 40
15.24
  9
$DIMJUST
 70
     0
  9
$DIMSD1
 70
     0
  9
$DIMSD2
 70
     0
  9
$DIMTOLJ
 70
     0
  9
$DIMTZIN
 70
     0
  9
$DIMALTZ
 70
     0
  9
$DIMALTTZ
 70
     0
  9
$DIMUPT
 70
     0
  9
$DIMDEC
 70
     2
  9
$DIMTDEC
 70
     2
  9
$DIMALTU
 70
     2
  9
$DIMALTTD
 70
     3
  9
$DIMTXSTY
  7
Standard
  9
$DIMAUNIT
 70
     0
  9
$DIMADEC
 70
     2
  9
$DIMALTRND
 40
0.0
  9
$DIMAZIN
 70
     0
  9
$DIMDSEP
 70
    44
  9
$DIMATFIT
 70
     3
  9
$DIMFRAC
 70
     0
  9
$DIMLDRBLK
  1

  9
$DIMLUNIT
 70
     2
  9
$DIMLWD
 70
    -2
  9
$DIMLWE
 70
    -2
  9
$DIMTMOVE
 70
     0
  9
$DIMFXL
 40
1.0
  9
$DIMFXLON
 70
     0
  9
$DIMJOGANG
 40
0.7853981634
  9
$DIMTFILL
 70
     0
  9
$DIMTFILLCLR
 70
     0
  9
$DIMARCSYM
 70
     0
  9
$DIMLTYPE
  6

  9
$DIMLTEX1
  6

  9
$DIMLTEX2
  6

  9
$LUNITS
 70
     2
  9
$LUPREC
 70
     2
  9
$SKETCHINC
 40
1.0
  9
$FILLETRAD
 40
10.0
  9
$AUNITS
 70
     0
  9
$AUPREC
 70
     2
  9
$MENU
  1
.
  9
$ELEVATION
 40
0.0
  9
$PELEVATION
 40
0.0
  9
$THICKNESS
 40
0.0
  9
$LIMCHECK
 70
     0
  9
$CHAMFERA
 40
10.0
  9
$CHAMFERB
 40
10.0
  9
$CHAMFERC
 40
20.0
  9
$CHAMFERD
 40
0.0
  9
$SKPOLY
 70
     0
  9
$TDCREATE
 40
2458116.752755764
  9
$TDUCREATE
 40
2458116.711089097
  9
$TDUPDATE
 40
2458116.752756412
  9
$TDUUPDATE
 40
2458116.711089745
  9
$TDINDWG
 40
0.0000000116
  9
$TDUSRTIMER
 40
0.0000000116
  9
$USRTIMER
 70
     1
  9
$ANGBASE
 50
0.0
  9
$ANGDIR
 70
     0
  9
$PDMODE
 70
     0
  9
$PDSIZE
 40
-1.0
  9
$PLINEWID
 40
0.0
  9
$SPLFRAME
 70
     0
  9
$SPLINETYPE
 70
     6
  9
$SPLINESEGS
 70
     8
  9
$HANDSEED
  5
3D0
  9
$SURFTAB1
 70
     6
  9
$SURFTAB2
 70
     6
  9
$SURFTYPE
 70
     6
  9
$SURFU
 70
     6
  9
$SURFV
 70
     6
  9
$UCSBASE
  2

  9
$UCSNAME
  2

  9
$UCSORG
 10
0.0
 20
0.0
 30
0.0
  9
$UCSXDIR
 10
1.0
 20
0.0
 30
0.0
  9
$UCSYDIR
 10
0.0
 20
1.0
 30
0.0
  9
$UCSORTHOREF
  2

  9
$UCSORTHOVIEW
 70
     0
  9
$UCSORGTOP
 10
0.0
 20
0.0
 30
0.0
  9
$UCSORGBOTTOM
 10
0.0
 20
0.0
 30
0.0
  9
$UCSORGLEFT
 10
0.0
 20
0.0
 30
0.0
  9
$UCSORGRIGHT
 10
0.0
 20
0.0
 30
0.0
  9
$UCSORGFRONT
 10
0.0
 20
0.0
 30
0.0
  9
$UCSORGBACK
 10
0.0
 20
0.0
 30
0.0
  9
$PUCSBASE
  2

  9
$PUCSNAME
  2

  9
$PUCSORG
 10
0.0
 20
0.0
 30
0.0
  9
$PUCSXDIR
 10
1.0
 20
0.0
 30
0.0
  9
$PUCSYDIR
 10
0.0
 20
1.0
 30
0.0
  9
$PUCSORTHOREF
  2

  9
$PUCSORTHOVIEW
 70
     0
  9
$PUCSORGTOP
 10
0.0
 20
0.0
 30
0.0
  9
$PUCSORGBOTTOM
 10
0.0
 20
0.0
 30
0.0
  9
$PUCSORGLEFT
 10
0.0
 20
0.0
 30
0.0
  9
$PUCSORGRIGHT
 10
0.0
 20
0.0
 30
0.0
  9
$PUCSORGFRONT
 10
0.0
 20
0.0
 30
0.0
  9
$PUCSORGBACK
 10
0.0
 20
0.0
 30
0.0
  9
$USERI1
 70
     0
  9
$USERI2
 70
     0
  9
$USERI3
 70
     0
  9
$USERI4
 70
     0
  9
$USERI5
 70
     0
  9
$USERR1
 40
0.0
  9
$USERR2
 40
0.0
  9
$USERR3
 40
0.0
  9
$USERR4
 40
0.0
  9
$USERR5
 40
0.0
  9
$WORLDVIEW
 70
     1
  9
$SHADEDGE
 70
     3
  9
$SHADEDIF
 70
    70
  9
$TILEMODE
 70
     1
  9
$MAXACTVP
 70
    64
  9
$PINSBASE
 10
0.0
 20
0.0
 30
0.0
  9
$PLIMCHECK
 70
     0
  9
$PEXTMIN
 10
1.0000000000E+20
 20
1.0000000000E+20
 30
1.0000000000E+20
  9
$PEXTMAX
 10
-1.0000000000E+20
 20
-1.0000000000E+20
 30
-1.0000000000E+20
  9
$PLIMMIN
 10
0.0
 20
0.0
  9
$PLIMMAX
 10
420.0
 20
297.0
  9
$UNITMODE
 70
     0
  9
$VISRETAIN
 70
     1
  9
$PLINEGEN
 70
     0
  9
$PSLTSCALE
 70
     1
  9
$TREEDEPTH
 70
  3020
  9
$CMLSTYLE
  2
Standard
  9
$CMLJUST
 70
     0
  9
$CMLSCALE
 40
20.0
  9
$PROXYGRAPHICS
 70
     1
  9
$MEASUREMENT
 70
     1
  9
$CELWEIGHT
370
    -1
  9
$ENDCAPS
280
     0
  9
$JOINSTYLE
280
     0
  9
$LWDISPLAY
290
     1
  9
$INSUNITS
 70
     4
  9
$HYPERLINKBASE
  1

  9
$STYLESHEET
  1

  9
$XEDIT
290
     1
  9
$CEPSNTYPE
380
     0
  9
$PSTYLEMODE
290
     1
  9
$FINGERPRINTGUID
  2
{0D09A387-6017-4106-BDF7-B55DE21E6EE5}
  9
$VERSIONGUID
  2
{FAEB1C32-E019-11D5-929B-00C0DF256EC4}
  9
$EXTNAMES
290
     1
  9
$PSVPSCALE
 40
0.0
  9
$OLESTARTUP
290
     0
  9
$SORTENTS
280
   127
  9
$INDEXCTL
280
     0
  9
$HIDETEXT
280
     1
  9
$XCLIPFRAME
290
     0
  9
$HALOGAP
280
     0
  9
$OBSCOLOR
 70
   257
  9
$OBSLTYPE
280
     0
  9
$INTERSECTIONDISPLAY
280
     0
  9
$INTERSECTIONCOLOR
 70
   257
  9
$DIMASSOC
280
     2
  9
$PROJECTNAME
  1

  9
$CAMERADISPLAY
290
     0
  9
$LENSLENGTH
 40
50.0
  9
$CAMERAHEIGHT
 40
0.0
  9
$STEPSPERSEC
 40
2.0
  9
$STEPSIZE
 40
6.0
  9
$3DDWFPREC
 40
2.0
  9
$PSOLWIDTH
 40
5.0
  9
$PSOLHEIGHT
 40
80.0
  9
$LOFTANG1
 40
1.5707963268
  9
$LOFTANG2
 40
1.5707963268
  9
$LOFTMAG1
 40
0.0
  9
$LOFTMAG2
 40
0.0
  9
$LOFTPARAM
 70
     7
  9
$LOFTNORMALS
280
     1
  9
$LATITUDE
 40
37.795
  9
$LONGITUDE
 40
-122.394
  9
$NORTHDIRECTION
 40
0.0
  9
$TIMEZONE
 70
 -8000
  9
$LIGHTGLYPHDISPLAY
280
     1
  9
$TILEMODELIGHTSYNCH
280
     1
  9
$SOLIDHIST
280
     1
  9
$SHOWHIST
280
     1
  9
$DWFFRAME
280
     2
  9
$DGNFRAME
280
     2
  9
$REALWORLDSCALE
290
     1
  9
$INTERFERECOLOR
 62
   256
  9
$CSHADOW
280
     0
  9
$SHADOWPLANELOCATION
 40
0.0
  0
ENDSEC
  0
SECTION
  2
CLASSES
  0
CLASS
  1
ACDBDICTIONARYWDFLT
  2
AcDbDictionaryWithDefault
  3
ObjectDBX Classes
 90
        0
 91
        4
280
     0
281
     0
  0
CLASS
  1
VISUALSTYLE
  2
AcDbVisualStyle
  3
ObjectDBX Classes
 90
     4095
 91
        4
280
     0
281
     0
  0
CLASS
  1
MATERIAL
  2
AcDbMaterial
  3
ObjectDBX Classes
 90
     1153
 91
        4
280
     0
281
     0
  0
ENDSEC
  0
SECTION
  2
TABLES
  0
TABLE
  2
VPORT
  5
8
330
0
100
AcDbSymbolTable
 70
     1
  0
VPORT
  5
29
330
8
100
AcDbSymbolTableRecord
100
AcDbViewportTableRecord
  2
*Active
 70
     0
 10
0.0
 20
0.0
 11
1.0
 21
1.0
 12
2100.0
 22
1485.0
 13
0.0
 23
0.0
 14
10.0
 24
10.0
 15
10.0
 25
10.0
 16
0.0
 26
0.0
 36
1.0
 17
0.0
 27
0.0
 37
0.0
 40
2970.0
 41
1.4141414141
 42
50.0
 43
0.0
 44
0.0
 50
0.0
 51
0.0
 71
     0
 72
  2000
 73
     1
 74
     3
 75
     0
 76
     0
 77
     0
 78
     0
281
     0
 65
     1
110
0.0
120
0.0
130
0.0
111
1.0
121
0.0
131
0.0
112
0.0
122
1.0
132
0.0
 79
     0
146
0.0
 60
     3
 61
     5
292
     1
282
     1
141
0.0
142
0.0
 63
   250
  0
ENDTAB
  0
TABLE
  2
LTYPE
  5
5
330
0
100
AcDbSymbolTable
 70
     6
  0
LTYPE
  5
14
330
5
100
AcDbSymbolTableRecord
100
AcDbLinetypeTableRecord
  2
ByBlock
 70
     0
  3

 72
    65
 73
     0
 40
0.0
  0
LTYPE
  5
15
330
5
100
AcDbSymbolTableRecord
100
AcDbLinetypeTableRecord
  2
ByLayer
 70
     0
  3

 72
    65
 73
     0
 40
0.0
  0
LTYPE
  5
16
330
5
100
AcDbSymbolTableRecord
100
AcDbLinetypeTableRecord
  2
Continuous
 70
     0
  3
Solid line
 72
    65
 73
     0
 40
0.0
  0
LTYPE
  5
3F
330
5
100
AcDbSymbolTableRecord
100
AcDbLinetypeTableRecord
  2
HIDDEN
 70
     0
  3
Hidden __ __ __ __ __ __ __ __ __ __ __ __ __ __
 72
    65
 73
     2
 40
1.905
 49
1.27
 74
     0
 49
-0.635
 74
     0
  0
LTYPE
  5
40
330
5
100
AcDbSymbolTableRecord
100
AcDbLinetypeTableRecord
  2
PHANTOM
 70
     0
  3
Phantom ______  __  __  ______  __  __  ______
 72
    65
 73
     6
 40
12.7
 49
6.35
 74
     0
 49
-1.27
 74
     0
 49
1.27
 74
     0
 49
-1.27
 74
     0
 49
1.27
 74
     0
 49
-1.27
 74
     0
  0
LTYPE
  5
41
330
5
100
AcDbSymbolTableRecord
100
AcDbLinetypeTableRecord
  2
CENTER
 70
     0
  3
Center ____ _ ____ _ ____ _ ____ _ ____ _ ____
 72
    65
 73
     4
 40
10.16
 49
6.35
 74
     0
 49
-1.27
 74
     0
 49
1.27
 74
     0
 49
-1.27
 74
     0
  0
LTYPE
  5
42
330
5
100
AcDbSymbolTableRecord
100
AcDbLinetypeTableRecord
  2
CENTERX2
 70
     0
  3
Center (2x) ________  __  ________  __  _____
 72
    65
 73
     4
 40
20.32
 49
12.7
 74
     0
 49
-2.54
 74
     0
 49
2.54
 74
     0
 49
-2.54
 74
     0
  0
LTYPE
  5
43
330
5
100
AcDbSymbolTableRecord
100
AcDbLinetypeTableRecord
  2
DOT2
 70
     0
  3
Dot (.5x) ........................................
 72
    65
 73
     2
 40
0.635
 49
0.0
 74
     0
 49
-0.635
 74
     0
  0
ENDTAB
  0
TABLE
  2
LAYER
  5
2
330
0
100
AcDbSymbolTable
 70
     2
  0
LAYER
  5
10
330
2
100
AcDbSymbolTableRecord
100
AcDbLayerTableRecord
  2
0
 70
     0
 62
     7
  6
Continuous
370
    -3
390
F
347
3E
  0
LAYER
  5
44
330
2
100
AcDbSymbolTableRecord
100
AcDbLayerTableRecord
  2
FORMAT
 70
     0
 62
     7
  6
Continuous
370
    -3
390
F
347
3E
  0
ENDTAB
  0
TABLE
  2
STYLE
  5
3
330
0
100
AcDbSymbolTable
 70
     1
  0
STYLE
  5
11
330
3
100
AcDbSymbolTableRecord
100
AcDbTextStyleTableRecord
  2
Standard
 70
     0
 40
0.0
 41
1.0
 50
0.0
 71
     0
 42
35.0
  3
txt
  4

  0
ENDTAB
  0
TABLE
  2
VIEW
  5
6
330
0
100
AcDbSymbolTable
 70
     0
  0
ENDTAB
  0
TABLE
  2
UCS
  5
7
330
0
100
AcDbSymbolTable
 70
     0
  0
ENDTAB
  0
TABLE
  2
APPID
  5
9
330
0
100
AcDbSymbolTable
 70
     1
  0
APPID
  5
12
330
9
100
AcDbSymbolTableRecord
100
AcDbRegAppTableRecord
  2
ACAD
 70
     0
  0
ENDTAB
  0
TABLE
  2
DIMSTYLE
  5
A
330
0
100
AcDbSymbolTable
 70
     1
100
AcDbDimStyleTable
  0
DIMSTYLE
105
27
330
A
100
AcDbSymbolTableRecord
100
AcDbDimStyleTableRecord
  2
ISO-25
 70
     0
 41
2.5
 42
0.625
 43
3.75
 44
1.25
 73
     0
 74
     0
 77
     1
 78
     8
140
2.5
141
2.5
143
0.0393700787
147
0.625
171
     3
172
     1
178
     0
271
     2
272
     2
274
     3
278
    44
283
     0
284
     8
340
11
  0
ENDTAB
  0
TABLE
  2
BLOCK_RECORD
  5
1
330
0
100
AcDbSymbolTable
 70
     1
  0
BLOCK_RECORD
  5
1F
330
1
100
AcDbSymbolTableRecord
100
AcDbBlockTableRecord
  2
*Model_Space
340
22
 70
     0
280
     1
281
     0
  0
BLOCK_RECORD
  5
1B
330
1
100
AcDbSymbolTableRecord
100
AcDbBlockTableRecord
  2
*Paper_Space
340
1E
 70
     0
280
     1
281
     0
  0
BLOCK_RECORD
  5
23
330
1
100
AcDbSymbolTableRecord
100
AcDbBlockTableRecord
  2
*Paper_Space0
340
26
 70
     0
280
     1
281
     0
  0
ENDTAB
  0
ENDSEC
  0
SECTION
  2
BLOCKS
  0
BLOCK
  5
20
330
1F
100
AcDbEntity
  8
0
100
AcDbBlockBegin
  2
*Model_Space
 70
     0
 10
0.0
 20
0.0
 30
0.0
  3
*Model_Space
  1

  0
ENDBLK
  5
21
330
1F
100
AcDbEntity
  8
0
100
AcDbBlockEnd
  0
BLOCK
  5
1C
330
1B
100
AcDbEntity
 67
     1
  8
0
100
AcDbBlockBegin
  2
*Paper_Space
 70
     0
 10
0.0
 20
0.0
 30
0.0
  3
*Paper_Space
  1

  0
ENDBLK
  5
1D
330
1B
100
AcDbEntity
 67
     1
  8
0
100
AcDbBlockEnd
  0
BLOCK
  5
24
330
23
100
AcDbEntity
  8
0
100
AcDbBlockBegin
  2
*Paper_Space0
 70
     0
 10
0.0
 20
0.0
 30
0.0
  3
*Paper_Space0
  1

  0
ENDBLK
  5
25
330
23
100
AcDbEntity
  8
0
100
AcDbBlockEnd
  0
ENDSEC
  0
SECTION
  2
ENTITIES
  0
LINE
  5
45
330
1F
100
AcDbEntity
  8
0
  6
Continuous
 62
     7
370
     0
100
AcDbLine
 10
4148.5
 20
51.5
 30
0.0
 11
51.5
 21
51.5
 31
0.0
  0
LINE
  5
46
330
1F
100
AcDbEntity
  8
0
  6
Continuous
 62
     7
370
     0
100
AcDbLine
 10
4150.0
 20
50.0
 30
0.0
 11
4150.0
 21
2770.0
 31
0.0
  0
LINE
  5
47
330
1F
100
AcDbEntity
  8
0
  6
Continuous
 62
     7
370
     0
100
AcDbLine
 10
4150.0
 20
2770.0
 30
0.0
 11
50.0
 21
2770.0
 31
0.0
  0
LINE
  5
48
330
1F
100
AcDbEntity
  8
0
  6
Continuous
 62
     7
370
     0
100
AcDbLine
 10
51.5
 20
2768.5
 30
0.0
 11
51.5
 21
51.5
 31
0.0
  0
ARC
  5
49
330
1F
100
AcDbEntity
  8
0
  6
Continuous
 62
     7
370
    40
100
AcDbCircle
 10
1525.913584636
 20
1832.1742188041
 30
0.0
 40
5.0
100
AcDbArc
 50
180.0
 51
239.8544076487
  0
LINE
  5
4A
330
1F
100
AcDbEntity
  8
0
  6
Continuous
 62
     7
370
    40
100
AcDbLine
 10
1523.4025958045
 20
1827.8504608517
 30
0.0
 11
1539.7875103219
 21
1818.3350263482
 31
0.0
  0
LINE
  5
4B
330
1F
100
AcDbEntity
  8
0
  6
Continuous
 62
     7
370
    40
100
AcDbLine
 10
1542.2985049947
 20
1817.6587893014
 30
0.0
 11
1573.753112839
 21
1817.6587893014
 31
0.0
  0
ARC
  5
4C
330
1F
100
AcDbEntity
  8
0
  6
Continuous
 62
     7
370
    40
100
AcDbCircle
 10
1542.2985044608
 20
1822.6587857021
 30
0.0
 40
5.0
100
AcDbArc
 50
239.8544076487
 51
270.0
  0
LINE
  5
4D
330
1F
100
AcDbEntity
  8
0
  6
Continuous
 62
     7
370
    40
100
AcDbLine
 10
1570.9135773643
 20
1798.9173380976
 30
0.0
 11
1573.9135834439
 21
1798.9173380976
 31
0.0
  0
SPLINE
  5
4E
330
1F
100
AcDbEntity
  8
0
  6
Continuous
 62
     7
370
    40
100
AcDbSpline
210
0.0
220
0.0
230
1.0
 70
     8
 71
     3
 72
    22
 73
    18
 74
     0
 42
0.00000001
 43
0.00000001
 12
1.0
 22
0.0
 32
0.0
 13
1.0
 23
0.0
 33
0.0
 40
0.0
 40
0.0
 40
0.0
 40
0.0
 40
0.040870853777754
 40
0.1113982518046433
 40
0.1819535229218237
 40
0.2525015218810218
 40
0.3230307501468782
 40
0.3935304249771963
 40
0.4639901637877473
 40
0.534400626431237
 40
0.6047543923749601
 40
0.6750468683546853
 40
0.7452765431286202
 40
0.8154451364102301
 40
0.8855582005356004
 40
0.9556248692541156
 40
1.0
 40
1.0
 40
1.0
 40
1.0
 10
1546.913588331523
 20
1899.351578982703
 30
0.0
 10
1546.358802442277
 20
1899.341207143256
 30
0.0
 10
1544.846669162067
 20
1899.312937492013
 30
0.0
 10
1542.389133026471
 20
1899.01490385722
 30
0.0
 10
1539.586024093634
 20
1898.379716493901
 30
0.0
 10
1536.871472561582
 20
1897.442407076229
 30
0.0
 10
1534.279364064069
 20
1896.220032162736
 30
0.0
 10
1531.841542373046
 20
1894.726038317938
 30
0.0
 10
1529.588011453586
 20
1892.979188390458
 30
0.0
 10
1527.5464541151
 20
1891.000917101107
 30
0.0
 10
1525.741914018245
 20
1888.815681862445
 30
0.0
 10
1524.196268088172
 20
1886.450479051936
 30
0.0
 10
1522.928633149844
 20
1883.934513996849
 30
0.0
 10
1521.952614531823
 20
1881.298693383896
 30
0.0
 10
1521.285798973212
 20
1878.575507815174
 30
0.0
 10
1520.958732043748
 20
1876.13667681305
 30
0.0
 10
1520.926196207022
 20
1874.615430265926
 30
0.0
 10
1520.913580344501
 20
1874.025562623671
 30
0.0
  0
LINE
  5
4F
330
1F
100
AcDbEntity
  8
0
  6
Continuous
 62
     7
370
    40
100
AcDbLine
 10
1565.9135821326
 20
1899.3515789827
 30
0.0
 11
1546.9135883315
 21
1899.3515789827
 31
0.0
  0
LINE
  5
50
330
1F
100
AcDbEntity
  8
0
  6
Continuous
 62
     7
370
    40
100
AcDbLine
 10
1880.0965639814
 20
1876.3693215644
 30
0.0
 11
1897.6281973584
 21
1876.3693215644
 31
0.0
  0
ARC
  5
51
330
1F
100
AcDbEntity
  8
0
  6
Continuous
 62
     7
370
    40
100
AcDbCircle
 10
1897.628195537
 20
1879.3693218612
 30
0.0
 40
3.000000000000227
100
AcDbArc
 50
270.0
 51
344.0544823446
  0
LINE
  5
52
330
1F
100
AcDbEntity
  8
0
  6
Continuous
 62
     7
370
    40
100
AcDbLine
 10
1881.913581775
 20
1956.8831397539
 30
0.0
 11
1880.0178560479
 21
1956.8831397539
 31
0.0
  0
LINE
  5
53
330
1F
100
AcDbEntity
  8
0
  6
Continuous
 62
     7
370
    40
100
AcDbLine
 10
1907.809311436
 20
1956.8831397539
 30
0.0
 11
1905.9135857089
 21
1956.8831397539
 31
0.0
  0
LINE
  5
54
330
1F
100
AcDbEntity
  8
0
  6
Continuous
 62
     7
370
    40
100
AcDbLine
 10
1884.9135878547
 20
1800.9173347002
 30
0.0
 11
1887.9135790332
 21
1800.9173347002
 31
0.0
  0
LINE
  5
55
330
1F
100
AcDbEntity
  8
0
  6
Continuous
 62
     7
370
    40
100
AcDbLine
 10
1868.9135852321
 20
1886.4173375388
 30
0.0
 11
1872.9135784372
 21
1886.4173375388
 31
0.0
  0
LINE
  5
56
330
1F
100
AcDbEntity
  8
0
  6
Continuous
 62
     7
370
    40
100
AcDbLine
 10
1872.9135784372
 20
1916.4173368683
 30
0.0
 11
1868.9135852321
 21
1916.4173368683
 31
0.0
  0
LINE
  5
57
330
1F
100
AcDbEntity
  8
0
  6
Continuous
 62
     7
370
    40
100
AcDbLine
 10
1588.91358404
 20
1916.4173368683
 30
0.0
 11
1584.9135908349
 21
1916.4173368683
 31
0.0
  0
LINE
  5
58
330
1F
100
AcDbEntity
  8
0
  6
Continuous
 62
     7
370
    40
100
AcDbLine
 10
1584.9135908349
 20
1886.4173375388
 30
0.0
 11
1588.91358404
 21
1886.4173375388
 31
0.0
  0
LINE
  5
59
330
1F
100
AcDbEntity
  8
0
  6
Continuous
 62
     7
370
    40
100
AcDbLine
 10
1874.9135824903
 20
1906.4173370918
 30
0.0
 11
1872.9135784372
 21
1906.4173370918
 31
0.0
  0
LINE
  5
5A
330
1F
100
AcDbEntity
  8
0
  6
Continuous
 62
     7
370
    40
100
AcDbLine
 10
1584.9135908349
 20
1906.4173370918
 30
0.0
 11
1582.9135867818
 21
1906.4173370918
 31
0.0
  0
LINE
  5
5B
330
1F
100
AcDbEntity
  8
0
  6
Continuous
 62
     7
370
    40
100
AcDbLine
 10
1582.9135867818
 20
1896.4173373153
 30
0.0
 11
1584.9135908349
 21
1896.4173373153
 31
0.0
  0
LINE
  5
5C
330
1F
100
AcDbEntity
  8
0
  6
Continuous
 62
     7
370
    40
100
AcDbLine
 10
1872.9135784372
 20
1896.4173373153
 30
0.0
 11
1874.9135824903
 21
1896.4173373153
 31
0.0
  0
LINE
  5
5D
330
1F
100
AcDbEntity
  8
0
  6
Continuous
 62
     7
370
    40
100
AcDbLine
 10
1578.9135786756
 20
1799.9173401242
 30
0.0
 11
1582.9135867818
 21
1799.9173401242
 31
0.0
  0
LINE
  5
5E
330
1F
100
AcDbEntity
  8
0
  6
Continuous
 62
     7
370
    40
100
AcDbLine
 10
1874.9135824903
 20
1799.9173401242
 30
0.0
 11
1878.9135905965
 21
1799.9173401242
 31
0.0
  0
LINE
  5
5F
330
1F
100
AcDbEntity
  8
0
  6
Continuous
 62
     7
370
    40
100
AcDbLine
 10
1565.9135821326
 20
1942.0609360879
 30
0.0
 11
1568.4135797485
 21
1942.0609360879
 31
0.0
  0
LINE
  5
60
330
1F
100
AcDbEntity
  8
0
  6
Continuous
 62
     7
370
    40
100
AcDbLine
 10
1568.4135797485
 20
1942.0609360879
 30
0.0
 11
1571.4135858281
 21
1942.0609360879
 31
0.0
  0
LINE
  5
61
330
1F
100
AcDbEntity
  8
0
  6
Continuous
 62
     7
370
    40
100
AcDbLine
 10
1571.4135858281
 20
1942.0609360879
 30
0.0
 11
1573.9135834439
 21
1942.0609360879
 31
0.0
  0
LINE
  5
62
330
1F
100
AcDbEntity
  8
0
  6
Continuous
 62
     7
370
    40
100
AcDbLine
 10
1565.9135821326
 20
1934.8872414177
 30
0.0
 11
1573.9135834439
 21
1934.8872414177
 31
0.0
  0
LINE
  5
63
330
1F
100
AcDbEntity
  8
0
  6
Continuous
 62
     7
370
    40
100
AcDbLine
 10
1565.9135821326
 20
1934.8872414177
 30
0.0
 11
1565.9135821326
 21
1942.0609360879
 31
0.0
  0
LINE
  5
64
330
1F
100
AcDbEntity
  8
0
  6
Continuous
 62
     7
370
    40
100
AcDbLine
 10
1573.9135834439
 20
1934.8872414177
 30
0.0
 11
1573.9135834439
 21
1942.0609360879
 31
0.0
  0
LINE
  5
65
330
1F
100
AcDbEntity
  8
0
  6
Continuous
 62
     7
370
    40
100
AcDbLine
 10
1565.9135821326
 20
1912.6230486056
 30
0.0
 11
1573.9135834439
 21
1912.6230486056
 31
0.0
  0
LINE
  5
66
330
1F
100
AcDbEntity
  8
0
  6
Continuous
 62
     7
370
    40
100
AcDbLine
 10
1565.9135821326
 20
1912.6230486056
 30
0.0
 11
1565.9135821326
 21
1934.8872414177
 31
0.0
  0
LINE
  5
67
330
1F
100
AcDbEntity
  8
0
  6
Continuous
 62
     7
370
    40
100
AcDbLine
 10
1573.9135834439
 20
1912.6230486056
 30
0.0
 11
1573.9135834439
 21
1934.8872414177
 31
0.0
  0
ELLIPSE
  5
68
330
1F
100
AcDbEntity
  8
0
  6
Continuous
 62
     7
370
    40
100
AcDbEllipse
 10
1568.913584636
 20
1822.6587857021
 30
0.0
 11
-4.959719712930337
 21
4.959719712930564
 31
0.0
210
0.0
220
0.0
230
1.0
 40
0.1277064119
 41
1.697815202466122
 42
3.26861152926132
  0
LINE
  5
69
330
1F
100
AcDbEntity
  8
0
  6
Continuous
 62
     7
370
    40
100
AcDbLine
 10
1573.9135834439
 20
1872.9898760413
 30
0.0
 11
1573.9135834439
 21
1817.8192599063
 31
0.0
  0
ARC
  5
6A
330
1F
100
AcDbEntity
  8
0
  6
Continuous
 62
     7
370
    40
100
AcDbCircle
 10
1568.9925249769
 20
1877.5576142358
 30
0.0
 40
4.921734512214856
100
AcDbArc
 50
0.9496670127
 51
90.9189722375
  0
LINE
  5
6B
330
1F
100
AcDbEntity
  8
0
  6
Continuous
 62
     7
370
    40
100
AcDbLine
 10
1573.9135834439
 20
1877.6391873454
 30
0.0
 11
1573.9135834439
 21
1872.9898760413
 31
0.0
  0
LINE
  5
6C
330
1F
100
AcDbEntity
  8
0
  6
Continuous
 62
     7
370
    40
100
AcDbLine
 10
1520.9135803445
 20
1874.0255626237
 30
0.0
 11
1520.9135803445
 21
1852.6638595706
 31
0.0
  0
LINE
  5
6D
330
1F
100
AcDbEntity
  8
0
  6
Continuous
 62
     7
370
    40
100
AcDbLine
 10
1565.9135821326
 20
1882.4787156975
 30
0.0
 11
1568.9135882123
 21
1882.4787156975
 31
0.0
  0
LINE
  5
6E
330
1F
100
AcDbEntity
  8
0
  6
Continuous
 62
     7
370
    40
100
AcDbLine
 10
1520.9135803445
 20
1832.1742190366
 30
0.0
 11
1520.9135803445
 21
1852.6638595706
 31
0.0
  0
LINE
  5
6F
330
1F
100
AcDbEntity
  8
0
  6
Continuous
 62
     7
370
    40
100
AcDbLine
 10
1568.4135797485
 20
1979.6954689866
 30
0.0
 11
1571.4135858281
 21
1979.6954689866
 31
0.0
  0
LINE
  5
70
330
1F
100
AcDbEntity
  8
0
  6
Continuous
 62
     7
370
    40
100
AcDbLine
 10
1568.4135797485
 20
1948.7224890237
 30
0.0
 11
1571.4135858281
 21
1948.7224890237
 31
0.0
  0
LINE
  5
71
330
1F
100
AcDbEntity
  8
0
  6
Continuous
 62
     7
370
    40
100
AcDbLine
 10
1568.4135797485
 20
1948.7224890237
 30
0.0
 11
1568.4135797485
 21
1979.6954689866
 31
0.0
  0
LINE
  5
72
330
1F
100
AcDbEntity
  8
0
  6
Continuous
 62
     7
370
    40
100
AcDbLine
 10
1571.4135858281
 20
1979.6954689866
 30
0.0
 11
1571.4135858281
 21
1948.7224890237
 31
0.0
  0
LINE
  5
73
330
1F
100
AcDbEntity
  8
0
  6
Continuous
 62
     7
370
    40
100
AcDbLine
 10
1568.4135797485
 20
1985.0987194424
 30
0.0
 11
1571.4135858281
 21
1985.0987194424
 31
0.0
  0
LINE
  5
74
330
1F
100
AcDbEntity
  8
0
  6
Continuous
 62
     7
370
    40
100
AcDbLine
 10
1568.4135797485
 20
1985.0987194424
 30
0.0
 11
1568.4135797485
 21
1979.6954689866
 31
0.0
  0
LINE
  5
75
330
1F
100
AcDbEntity
  8
0
  6
Continuous
 62
     7
370
    40
100
AcDbLine
 10
1571.4135858281
 20
1985.0987194424
 30
0.0
 11
1571.4135858281
 21
1979.6954689866
 31
0.0
  0
LINE
  5
76
330
1F
100
AcDbEntity
  8
0
  6
Continuous
 62
     7
370
    40
100
AcDbLine
 10
1568.4135797485
 20
1942.0609360879
 30
0.0
 11
1568.4135797485
 21
1948.7224890237
 31
0.0
  0
LINE
  5
77
330
1F
100
AcDbEntity
  8
0
  6
Continuous
 62
     7
370
    40
100
AcDbLine
 10
1571.4135858281
 20
1948.7224890237
 30
0.0
 11
1571.4135858281
 21
1942.0609360879
 31
0.0
  0
LINE
  5
78
330
1F
100
AcDbEntity
  8
0
  6
Continuous
 62
     7
370
    40
100
AcDbLine
 10
1571.4135858281
 20
1951.108243162
 30
0.0
 11
1573.9135834439
 21
1951.108243162
 31
0.0
  0
LINE
  5
79
330
1F
100
AcDbEntity
  8
0
  6
Continuous
 62
     7
370
    40
100
AcDbLine
 10
1573.9135834439
 20
1951.108243162
 30
0.0
 11
1573.9135834439
 21
1942.0609360879
 31
0.0
  0
LINE
  5
7A
330
1F
100
AcDbEntity
  8
0
  6
Continuous
 62
     7
370
    40
100
AcDbLine
 10
1565.9135821326
 20
1951.108243162
 30
0.0
 11
1568.4135797485
 21
1951.108243162
 31
0.0
  0
LINE
  5
7B
330
1F
100
AcDbEntity
  8
0
  6
Continuous
 62
     7
370
    40
100
AcDbLine
 10
1565.9135821326
 20
1951.108243162
 30
0.0
 11
1565.9135821326
 21
1942.0609360879
 31
0.0
  0
LINE
  5
7C
330
1F
100
AcDbEntity
  8
0
  6
Continuous
 62
     7
370
    40
100
AcDbLine
 10
1565.9135821326
 20
1882.4787156975
 30
0.0
 11
1565.9135821326
 21
1912.6230486056
 31
0.0
  0
LINE
  5
7D
330
1F
100
AcDbEntity
  8
0
  6
Continuous
 62
     7
370
    40
100
AcDbLine
 10
1573.9135834439
 20
1877.6391873454
 30
0.0
 11
1573.9135834439
 21
1912.6230486056
 31
0.0
  0
LINE
  5
7E
330
1F
100
AcDbEntity
  8
0
  6
Continuous
 62
     7
370
    40
100
AcDbLine
 10
1570.9135773643
 20
1806.4906074052
 30
0.0
 11
1570.9135773643
 21
1817.6587893014
 31
0.0
  0
LINE
  5
7F
330
1F
100
AcDbEntity
  8
0
  6
Continuous
 62
     7
370
    40
100
AcDbLine
 10
1573.9135834439
 20
1806.4906074052
 30
0.0
 11
1573.9135834439
 21
1817.8192599063
 31
0.0
  0
LINE
  5
80
330
1F
100
AcDbEntity
  8
0
  6
Continuous
 62
     7
370
    40
100
AcDbLine
 10
1565.9135821326
 20
1952.4792319482
 30
0.0
 11
1568.4135797485
 21
1952.4792319482
 31
0.0
  0
LINE
  5
81
330
1F
100
AcDbEntity
  8
0
  6
Continuous
 62
     7
370
    40
100
AcDbLine
 10
1571.4135858281
 20
1952.4792319482
 30
0.0
 11
1573.9135834439
 21
1952.4792319482
 31
0.0
  0
LINE
  5
82
330
1F
100
AcDbEntity
  8
0
  6
Continuous
 62
     7
370
    40
100
AcDbLine
 10
1565.9135821326
 20
1951.108243162
 30
0.0
 11
1565.9135821326
 21
1952.4792319482
 31
0.0
  0
LINE
  5
83
330
1F
100
AcDbEntity
  8
0
  6
Continuous
 62
     7
370
    40
100
AcDbLine
 10
1573.9135834439
 20
1951.108243162
 30
0.0
 11
1573.9135834439
 21
1952.4792319482
 31
0.0
  0
LINE
  5
84
330
1F
100
AcDbEntity
  8
0
  6
Continuous
 62
     7
370
    40
100
AcDbLine
 10
1570.9135773643
 20
1798.9173380976
 30
0.0
 11
1570.9135773643
 21
1806.4906074052
 31
0.0
  0
LINE
  5
85
330
1F
100
AcDbEntity
  8
0
  6
Continuous
 62
     7
370
    40
100
AcDbLine
 10
1573.9135834439
 20
1798.9173380976
 30
0.0
 11
1573.9135834439
 21
1806.4906074052
 31
0.0
  0
SPLINE
  5
86
330
1F
100
AcDbEntity
  8
0
  6
Continuous
 62
     7
370
    40
100
AcDbSpline
210
0.0
220
0.0
230
1.0
 70
     8
 71
     3
 72
    11
 73
     7
 74
     0
 42
0.00000001
 43
0.00000001
 12
1.0
 22
0.0
 32
0.0
 13
1.0
 23
0.0
 33
0.0
 40
0.0
 40
0.0
 40
0.0
 40
0.0
 40
0.2477089702148064
 40
0.4954187385410699
 40
0.7477085007097862
 40
1.0
 40
1.0
 40
1.0
 40
1.0
 10
1907.913589762035
 20
1931.740702906779
 30
0.0
 10
1907.826151145746
 20
1927.26512795388
 30
0.0
 10
1907.651273631443
 20
1918.313963627902
 30
0.0
 10
1906.210480324138
 20
1904.94816782848
 30
0.0
 10
1903.965368398196
 20
1891.658887008494
 30
0.0
 10
1901.671611948154
 20
1882.96343620059
 30
0.0
 10
1900.524729774776
 20
1878.615695828728
 30
0.0
  0
LINE
  5
87
330
1F
100
AcDbEntity
  8
0
  6
Continuous
 62
     7
370
    40
100
AcDbLine
 10
1900.5247297748
 20
1878.6156958287
 30
0.0
 11
1900.5127641423
 21
1878.545151869
 31
0.0
  0
SPLINE
  5
88
330
1F
100
AcDbEntity
  8
0
  6
Continuous
 62
     7
370
    40
100
AcDbSpline
210
0.0
220
0.0
230
1.0
 70
     8
 71
     3
 72
    13
 73
     9
 74
     0
 42
0.00000001
 43
0.00000001
 12
1.0
 22
0.0
 32
0.0
 13
1.0
 23
0.0
 33
0.0
 40
0.0
 40
0.0
 40
0.0
 40
0.0
 40
0.0019212012002764
 40
0.2520382421083531
 40
0.5243977440754913
 40
0.720811065969964
 40
0.8600763357500618
 40
1.0
 40
1.0
 40
1.0
 40
1.0
 10
1882.913583801571
 20
1941.527530396513
 30
0.0
 10
1882.911000955409
 20
1941.530027274707
 30
0.0
 10
1882.572162937829
 20
1941.8575873401
 30
0.0
 10
1881.864827562255
 20
1942.572212032545
 30
0.0
 10
1880.951376696734
 20
1943.593482537043
 30
0.0
 10
1880.324183628673
 20
1944.401914042417
 30
0.0
 10
1879.977691177143
 20
1944.945187402838
 30
0.0
 10
1879.934982446123
 20
1945.127597352679
 30
0.0
 10
1879.913577721897
 20
1945.219017410806
 30
0.0
  0
SPLINE
  5
89
330
1F
100
AcDbEntity
  8
0
  6
Continuous
 62
     7
370
    40
100
AcDbSpline
210
0.0
220
0.0
230
1.0
 70
     8
 71
     3
 72
    13
 73
     9
 74
     0
 42
0.00000001
 43
0.00000001
 12
1.0
 22
0.0
 32
0.0
 13
1.0
 23
0.0
 33
0.0
 40
0.0
 40
0.0
 40
0.0
 40
0.0
 40
0.0020065444091889
 40
0.1511640231903583
 40
0.4645587663875468
 40
0.6929636324490399
 40
0.8459984487814477
 40
1.0
 40
1.0
 40
1.0
 40
1.0
 10
1882.913583801571
 20
1878.352090561918
 30
0.0
 10
1882.911000928249
 20
1878.349656312824
 30
0.0
 10
1882.716418879149
 20
1878.166270944017
 30
0.0
 10
1882.118709010636
 20
1877.623240856414
 30
0.0
 10
1881.245834949697
 20
1876.92209277014
 30
0.0
 10
1880.501482892952
 20
1876.469853444898
 30
0.0
 10
1880.062048207337
 20
1876.323238415555
 30
0.0
 10
1879.969860226517
 20
1876.424116098809
 30
0.0
 10
1879.923621104541
 20
1876.474713752202
 30
0.0
  0
LINE
  5
8A
330
1F
100
AcDbEntity
  8
0
  6
Continuous
 62
     7
370
    40
100
AcDbLine
 10
1879.9236211045
 20
1876.4747137522
 30
0.0
 11
1879.9135777219
 21
1876.5393549895
 31
0.0
  0
LINE
  5
8B
330
1F
100
AcDbEntity
  8
0
  6
Continuous
 62
     7
370
    40
100
AcDbLine
 10
1879.9135777219
 20
1876.5393549895
 30
0.0
 11
1879.9135777219
 21
1945.2190211361
 31
0.0
  0
LINE
  5
8C
330
1F
100
AcDbEntity
  8
0
  6
Continuous
 62
     7
370
    40
100
AcDbLine
 10
1881.913581775
 20
1944.7889624482
 30
0.0
 11
1905.9135857089
 21
1944.7889624482
 31
0.0
  0
LINE
  5
8D
330
1F
100
AcDbEntity
  8
0
  6
Continuous
 62
     7
370
    40
100
AcDbLine
 10
1907.913589762
 20
1945.2190211361
 30
0.0
 11
1907.913589762
 21
1945.2203920429
 31
0.0
  0
SPLINE
  5
8E
330
1F
100
AcDbEntity
  8
0
  6
Continuous
 62
     7
370
    40
100
AcDbSpline
210
0.0
220
0.0
230
1.0
 70
     8
 71
     3
 72
    13
 73
     9
 74
     0
 42
0.00000001
 43
0.00000001
 12
1.0
 22
0.0
 32
0.0
 13
1.0
 23
0.0
 33
0.0
 40
0.0
 40
0.0
 40
0.0
 40
0.0
 40
0.1399236011429714
 40
0.279188808113045
 40
0.475600663038065
 40
0.7479600421683541
 40
0.9980787996662044
 40
1.0
 40
1.0
 40
1.0
 40
1.0
 10
1907.913589762035
 20
1945.219017410806
 30
0.0
 10
1907.892185207286
 20
1945.127597263777
 30
0.0
 10
1907.849476814422
 20
1944.94518713655
 30
0.0
 10
1907.50298249496
 20
1944.401916857266
 30
0.0
 10
1906.875809184608
 20
1943.593478430554
 30
0.0
 10
1905.962354562303
 20
1942.572206520476
 30
0.0
 10
1905.25500699355
 20
1941.857589730785
 30
0.0
 10
1904.916166528432
 20
1941.530027274806
 30
0.0
 10
1904.913583682361
 20
1941.527530396513
 30
0.0
  0
LINE
  5
8F
330
1F
100
AcDbEntity
  8
0
  6
Continuous
 62
     7
370
    40
100
AcDbLine
 10
1879.9135777219
 20
1945.2190211361
 30
0.0
 11
1879.9135777219
 21
1945.2203920429
 31
0.0
  0
LINE
  5
90
330
1F
100
AcDbEntity
  8
0
  6
Continuous
 62
     7
370
    40
100
AcDbLine
 10
1907.913589762
 20
1945.2190211361
 30
0.0
 11
1907.913589762
 21
1931.7407029068
 31
0.0
  0
LINE
  5
91
330
1F
100
AcDbEntity
  8
0
  6
Continuous
 62
     7
370
    40
100
AcDbLine
 10
1881.913581775
 20
1946.8860326653
 30
0.0
 11
1905.9135857089
 21
1946.8860326653
 31
0.0
  0
LINE
  5
92
330
1F
100
AcDbEntity
  8
0
  6
Continuous
 62
     7
370
    40
100
AcDbLine
 10
1905.9135857089
 20
1946.8860326653
 30
0.0
 11
1905.9135857089
 21
1944.7889624482
 31
0.0
  0
LINE
  5
93
330
1F
100
AcDbEntity
  8
0
  6
Continuous
 62
     7
370
    40
100
AcDbLine
 10
1881.913581775
 20
1946.8860326653
 30
0.0
 11
1881.913581775
 21
1944.7889624482
 31
0.0
  0
LINE
  5
94
330
1F
100
AcDbEntity
  8
0
  6
Continuous
 62
     7
370
    40
100
AcDbLine
 10
1905.9135857089
 20
1958.9715896493
 30
0.0
 11
1881.913581775
 21
1958.9715896493
 31
0.0
  0
LINE
  5
95
330
1F
100
AcDbEntity
  8
0
  6
Continuous
 62
     7
370
    40
100
AcDbLine
 10
1905.9135857089
 20
1946.8860326653
 30
0.0
 11
1905.9135857089
 21
1958.9715896493
 31
0.0
  0
LINE
  5
96
330
1F
100
AcDbEntity
  8
0
  6
Continuous
 62
     7
370
    40
100
AcDbLine
 10
1881.913581775
 20
1950.0387868231
 30
0.0
 11
1881.913581775
 21
1946.8860326653
 31
0.0
  0
LINE
  5
97
330
1F
100
AcDbEntity
  8
0
  6
Continuous
 62
     7
370
    40
100
AcDbLine
 10
1886.4135834439
 20
1950.0387868231
 30
0.0
 11
1881.913581775
 21
1950.0387868231
 31
0.0
  0
LINE
  5
98
330
1F
100
AcDbEntity
  8
0
  6
Continuous
 62
     7
370
    40
100
AcDbLine
 10
1886.4135834439
 20
1955.8188354915
 30
0.0
 11
1886.4135834439
 21
1950.0387868231
 31
0.0
  0
LINE
  5
99
330
1F
100
AcDbEntity
  8
0
  6
Continuous
 62
     7
370
    40
100
AcDbLine
 10
1881.913581775
 20
1955.8188354915
 30
0.0
 11
1886.4135834439
 21
1955.8188354915
 31
0.0
  0
LINE
  5
9A
330
1F
100
AcDbEntity
  8
0
  6
Continuous
 62
     7
370
    40
100
AcDbLine
 10
1881.913581775
 20
1958.9715896493
 30
0.0
 11
1881.913581775
 21
1955.8188354915
 31
0.0
  0
LINE
  5
9B
330
1F
100
AcDbEntity
  8
0
  6
Continuous
 62
     7
370
    40
100
AcDbLine
 10
1907.913589762
 20
1945.2203920429
 30
0.0
 11
1907.913589762
 21
1956.7777512913
 31
0.0
  0
LINE
  5
9C
330
1F
100
AcDbEntity
  8
0
  6
Continuous
 62
     7
370
    40
100
AcDbLine
 10
1881.913581775
 20
1953.8890941387
 30
0.0
 11
1886.4135834439
 21
1953.8890941387
 31
0.0
  0
LINE
  5
9D
330
1F
100
AcDbEntity
  8
0
  6
Continuous
 62
     7
370
    40
100
AcDbLine
 10
1879.9135777219
 20
1945.2203920429
 30
0.0
 11
1879.9135777219
 21
1956.7777512913
 31
0.0
  0
LINE
  5
9E
330
1F
100
AcDbEntity
  8
0
  6
Continuous
 62
     7
370
    40
100
AcDbLine
 10
1887.9135790332
 20
1876.3693215644
 30
0.0
 11
1887.9135790332
 21
1811.9763953929
 31
0.0
  0
LINE
  5
9F
330
1F
100
AcDbEntity
  8
0
  6
Continuous
 62
     7
370
    40
100
AcDbLine
 10
1884.9135878547
 20
1876.3693215644
 30
0.0
 11
1884.9135878547
 21
1811.9763953929
 31
0.0
  0
LINE
  5
A0
330
1F
100
AcDbEntity
  8
0
  6
Continuous
 62
     7
370
    40
100
AcDbLine
 10
1881.913581775
 20
1955.8188354915
 30
0.0
 11
1881.913581775
 21
1953.8890941387
 31
0.0
  0
LINE
  5
A1
330
1F
100
AcDbEntity
  8
0
  6
Continuous
 62
     7
370
    40
100
AcDbLine
 10
1879.9135777219
 20
1956.7791147476
 30
0.0
 11
1880.0178560479
 21
1956.8828454559
 31
0.0
  0
LINE
  5
A2
330
1F
100
AcDbEntity
  8
0
  6
Continuous
 62
     7
370
    40
100
AcDbLine
 10
1907.913589762
 20
1956.7791147476
 30
0.0
 11
1907.809311436
 21
1956.8828454559
 31
0.0
  0
LINE
  5
A3
330
1F
100
AcDbEntity
  8
0
  6
Continuous
 62
     7
370
    40
100
AcDbLine
 10
1879.9135777219
 20
1956.7777512913
 30
0.0
 11
1879.9135777219
 21
1956.7791184729
 31
0.0
  0
LINE
  5
A4
330
1F
100
AcDbEntity
  8
0
  6
Continuous
 62
     7
370
    40
100
AcDbLine
 10
1907.913589762
 20
1956.7777512913
 30
0.0
 11
1907.913589762
 21
1956.7791184729
 31
0.0
  0
LINE
  5
A5
330
1F
100
AcDbEntity
  8
0
  6
Continuous
 62
     7
370
    40
100
AcDbLine
 10
1887.9135790332
 20
1811.9763953929
 30
0.0
 11
1887.9135790332
 21
1800.9173347002
 31
0.0
  0
LINE
  5
A6
330
1F
100
AcDbEntity
  8
0
  6
Continuous
 62
     7
370
    40
100
AcDbLine
 10
1884.9135878547
 20
1800.9173347002
 30
0.0
 11
1884.9135878547
 21
1811.9763953929
 31
0.0
  0
LINE
  5
A7
330
1F
100
AcDbEntity
  8
0
  6
Continuous
 62
     7
370
    40
100
AcDbLine
 10
1868.9135852321
 20
1919.4173364287
 30
0.0
 11
1588.91358404
 21
1919.4173364287
 31
0.0
  0
LINE
  5
A8
330
1F
100
AcDbEntity
  8
0
  6
Continuous
 62
     7
370
    40
100
AcDbLine
 10
1588.91358404
 20
1919.4173364287
 30
0.0
 11
1588.91358404
 21
1882.4173378145
 31
0.0
  0
LINE
  5
A9
330
1F
100
AcDbEntity
  8
0
  6
Continuous
 62
     7
370
    40
100
AcDbLine
 10
1868.9135852321
 20
1919.4173364287
 30
0.0
 11
1868.9135852321
 21
1882.4173378145
 31
0.0
  0
LINE
  5
AA
330
1F
100
AcDbEntity
  8
0
  6
Continuous
 62
     7
370
    40
100
AcDbLine
 10
1865.9135791524
 20
1879.4173373228
 30
0.0
 11
1591.9135901197
 21
1879.4173373228
 31
0.0
  0
ARC
  5
AB
330
1F
100
AcDbEntity
  8
0
  6
Continuous
 62
     7
370
    40
100
AcDbCircle
 10
1591.913584636
 20
1882.4173372036
 30
0.0
 40
3.000000000000227
100
AcDbArc
 50
180.0
 51
270.0
  0
ARC
  5
AC
330
1F
100
AcDbEntity
  8
0
  6
Continuous
 62
     7
370
    40
100
AcDbCircle
 10
1865.913584636
 20
1882.4173372036
 30
0.0
 40
3.000000000000227
100
AcDbArc
 50
270.0
 51
0.0
  0
LINE
  5
AD
330
1F
100
AcDbEntity
  8
0
  6
Continuous
 62
     7
370
    40
100
AcDbLine
 10
1601.4135870202
 20
1952.4173362499
 30
0.0
 11
1856.4135822518
 21
1952.4173362499
 31
0.0
  0
ARC
  5
AE
330
1F
100
AcDbEntity
  8
0
  6
Continuous
 62
     7
370
    40
100
AcDbCircle
 10
1856.413584636
 20
1940.4173372036
 30
0.0
 40
12.0
100
AcDbArc
 50
0.0
 51
90.0
  0
ARC
  5
AF
330
1F
100
AcDbEntity
  8
0
  6
Continuous
 62
     7
370
    40
100
AcDbCircle
 10
1601.413584636
 20
1940.4173372036
 30
0.0
 40
12.0
100
AcDbArc
 50
90.0
 51
180.0
  0
LINE
  5
B0
330
1F
100
AcDbEntity
  8
0
  6
Continuous
 62
     7
370
    40
100
AcDbLine
 10
1868.4135916694
 20
1940.4173380082
 30
0.0
 11
1868.4135916694
 21
1919.4173364287
 31
0.0
  0
LINE
  5
B1
330
1F
100
AcDbEntity
  8
0
  6
Continuous
 62
     7
370
    40
100
AcDbLine
 10
1589.4135776027
 20
1919.4173364287
 30
0.0
 11
1589.4135776027
 21
1940.4173380082
 31
0.0
  0
LINE
  5
B2
330
1F
100
AcDbEntity
  8
0
  6
Continuous
 62
     7
370
    40
100
AcDbLine
 10
1872.9135784372
 20
1916.4173368683
 30
0.0
 11
1872.9135784372
 21
1886.4173375388
 31
0.0
  0
LINE
  5
B3
330
1F
100
AcDbEntity
  8
0
  6
Continuous
 62
     7
370
    40
100
AcDbLine
 10
1584.9135908349
 20
1901.4173372036
 30
0.0
 11
1584.9135908349
 21
1916.4173368683
 31
0.0
  0
LINE
  5
B4
330
1F
100
AcDbEntity
  8
0
  6
Continuous
 62
     7
370
    40
100
AcDbLine
 10
1584.9135908349
 20
1886.4173375388
 30
0.0
 11
1584.9135908349
 21
1901.4173372036
 31
0.0
  0
LINE
  5
B5
330
1F
100
AcDbEntity
  8
0
  6
Continuous
 62
     7
370
    40
100
AcDbLine
 10
1582.9135867818
 20
1831.9173379188
 30
0.0
 11
1582.9135867818
 21
1926.0700846409
 31
0.0
  0
LINE
  5
B6
330
1F
100
AcDbEntity
  8
0
  6
Continuous
 62
     7
370
    40
100
AcDbLine
 10
1578.9135786756
 20
1926.0700846409
 30
0.0
 11
1578.9135786756
 21
1831.9173379188
 31
0.0
  0
LINE
  5
B7
330
1F
100
AcDbEntity
  8
0
  6
Continuous
 62
     7
370
    40
100
AcDbLine
 10
1878.9135905965
 20
1926.0700846409
 30
0.0
 11
1878.9135905965
 21
1831.9173379188
 31
0.0
  0
LINE
  5
B8
330
1F
100
AcDbEntity
  8
0
  6
Continuous
 62
     7
370
    40
100
AcDbLine
 10
1874.9135824903
 20
1831.9173379188
 30
0.0
 11
1874.9135824903
 21
1926.0700846409
 31
0.0
  0
LINE
  5
B9
330
1F
100
AcDbEntity
  8
0
  6
Continuous
 62
     7
370
    40
100
AcDbLine
 10
1878.9135905965
 20
1821.917340005
 30
0.0
 11
1874.9135824903
 21
1821.917340005
 31
0.0
  0
LINE
  5
BA
330
1F
100
AcDbEntity
  8
0
  6
Continuous
 62
     7
370
    40
100
AcDbLine
 10
1878.9135905965
 20
1831.9173379188
 30
0.0
 11
1878.9135905965
 21
1821.917340005
 31
0.0
  0
LINE
  5
BB
330
1F
100
AcDbEntity
  8
0
  6
Continuous
 62
     7
370
    40
100
AcDbLine
 10
1874.9135824903
 20
1821.917340005
 30
0.0
 11
1874.9135824903
 21
1831.9173379188
 31
0.0
  0
LINE
  5
BC
330
1F
100
AcDbEntity
  8
0
  6
Continuous
 62
     7
370
    40
100
AcDbLine
 10
1582.9135867818
 20
1821.917340005
 30
0.0
 11
1578.9135786756
 21
1821.917340005
 31
0.0
  0
LINE
  5
BD
330
1F
100
AcDbEntity
  8
0
  6
Continuous
 62
     7
370
    40
100
AcDbLine
 10
1578.9135786756
 20
1821.917340005
 30
0.0
 11
1578.9135786756
 21
1831.9173379188
 31
0.0
  0
LINE
  5
BE
330
1F
100
AcDbEntity
  8
0
  6
Continuous
 62
     7
370
    40
100
AcDbLine
 10
1582.9135867818
 20
1831.9173379188
 30
0.0
 11
1582.9135867818
 21
1821.917340005
 31
0.0
  0
LINE
  5
BF
330
1F
100
AcDbEntity
  8
0
  6
Continuous
 62
     7
370
    40
100
AcDbLine
 10
1578.9135786756
 20
1926.0700846409
 30
0.0
 11
1578.9135786756
 21
1935.9955450838
 31
0.0
  0
LINE
  5
C0
330
1F
100
AcDbEntity
  8
0
  6
Continuous
 62
     7
370
    40
100
AcDbLine
 10
1582.9135867818
 20
1935.9955450838
 30
0.0
 11
1582.9135867818
 21
1926.0700846409
 31
0.0
  0
LINE
  5
C1
330
1F
100
AcDbEntity
  8
0
  6
Continuous
 62
     7
370
    40
100
AcDbLine
 10
1878.9135905965
 20
1935.9955450838
 30
0.0
 11
1878.9135905965
 21
1926.0700846409
 31
0.0
  0
LINE
  5
C2
330
1F
100
AcDbEntity
  8
0
  6
Continuous
 62
     7
370
    40
100
AcDbLine
 10
1874.9135824903
 20
1926.0700846409
 30
0.0
 11
1874.9135824903
 21
1935.9955450838
 31
0.0
  0
LINE
  5
C3
330
1F
100
AcDbEntity
  8
0
  6
Continuous
 62
     7
370
    40
100
AcDbLine
 10
1878.9135905965
 20
1942.1724712794
 30
0.0
 11
1878.9135905965
 21
1935.9955450838
 31
0.0
  0
LINE
  5
C4
330
1F
100
AcDbEntity
  8
0
  6
Continuous
 62
     7
370
    40
100
AcDbLine
 10
1874.9135824903
 20
1942.1724712794
 30
0.0
 11
1874.9135824903
 21
1935.9955450838
 31
0.0
  0
LINE
  5
C5
330
1F
100
AcDbEntity
  8
0
  6
Continuous
 62
     7
370
    40
100
AcDbLine
 10
1578.9135786756
 20
1942.1724712794
 30
0.0
 11
1578.9135786756
 21
1935.9955450838
 31
0.0
  0
LINE
  5
C6
330
1F
100
AcDbEntity
  8
0
  6
Continuous
 62
     7
370
    40
100
AcDbLine
 10
1582.9135867818
 20
1935.9955450838
 30
0.0
 11
1582.9135867818
 21
1942.1724712794
 31
0.0
  0
LINE
  5
C7
330
1F
100
AcDbEntity
  8
0
  6
Continuous
 62
     7
370
    40
100
AcDbLine
 10
1878.9135905965
 20
1821.917340005
 30
0.0
 11
1878.9135905965
 21
1816.9173373228
 31
0.0
  0
LINE
  5
C8
330
1F
100
AcDbEntity
  8
0
  6
Continuous
 62
     7
370
    40
100
AcDbLine
 10
1874.9135824903
 20
1821.917340005
 30
0.0
 11
1874.9135824903
 21
1816.9173373228
 31
0.0
  0
LINE
  5
C9
330
1F
100
AcDbEntity
  8
0
  6
Continuous
 62
     7
370
    40
100
AcDbLine
 10
1578.9135786756
 20
1816.9173373228
 30
0.0
 11
1578.9135786756
 21
1821.917340005
 31
0.0
  0
LINE
  5
CA
330
1F
100
AcDbEntity
  8
0
  6
Continuous
 62
     7
370
    40
100
AcDbLine
 10
1582.9135867818
 20
1816.9173373228
 30
0.0
 11
1582.9135867818
 21
1821.917340005
 31
0.0
  0
LINE
  5
CB
330
1F
100
AcDbEntity
  8
0
  6
Continuous
 62
     7
370
    40
100
AcDbLine
 10
1578.9135786756
 20
1799.9173401242
 30
0.0
 11
1578.9135786756
 21
1815.9173352962
 31
0.0
  0
LINE
  5
CC
330
1F
100
AcDbEntity
  8
0
  6
Continuous
 62
     7
370
    40
100
AcDbLine
 10
1582.9135867818
 20
1815.9173352962
 30
0.0
 11
1582.9135867818
 21
1799.9173401242
 31
0.0
  0
LINE
  5
CD
330
1F
100
AcDbEntity
  8
0
  6
Continuous
 62
     7
370
    40
100
AcDbLine
 10
1878.9135905965
 20
1815.9173352962
 30
0.0
 11
1878.9135905965
 21
1799.9173401242
 31
0.0
  0
LINE
  5
CE
330
1F
100
AcDbEntity
  8
0
  6
Continuous
 62
     7
370
    40
100
AcDbLine
 10
1874.9135824903
 20
1799.9173401242
 30
0.0
 11
1874.9135824903
 21
1815.9173352962
 31
0.0
  0
LINE
  5
CF
330
1F
100
AcDbEntity
  8
0
  6
Continuous
 62
     7
370
    40
100
AcDbLine
 10
1578.9135786756
 20
1815.9173352962
 30
0.0
 11
1578.9135786756
 21
1816.9173373228
 31
0.0
  0
LINE
  5
D0
330
1F
100
AcDbEntity
  8
0
  6
Continuous
 62
     7
370
    40
100
AcDbLine
 10
1582.9135867818
 20
1816.9173373228
 30
0.0
 11
1582.9135867818
 21
1815.9173352962
 31
0.0
  0
LINE
  5
D1
330
1F
100
AcDbEntity
  8
0
  6
Continuous
 62
     7
370
    40
100
AcDbLine
 10
1878.9135905965
 20
1816.9173373228
 30
0.0
 11
1878.9135905965
 21
1815.9173352962
 31
0.0
  0
LINE
  5
D2
330
1F
100
AcDbEntity
  8
0
  6
Continuous
 62
     7
370
    40
100
AcDbLine
 10
1874.9135824903
 20
1815.9173352962
 30
0.0
 11
1874.9135824903
 21
1816.9173373228
 31
0.0
  0
LINE
  5
D3
330
1F
100
AcDbEntity
  8
0
  6
Continuous
 62
     7
370
    40
100
AcDbLine
 10
1578.9135786756
 20
1942.1724712794
 30
0.0
 11
1578.9135786756
 21
1946.236826325
 31
0.0
  0
LINE
  5
D4
330
1F
100
AcDbEntity
  8
0
  6
Continuous
 62
     7
370
    40
100
AcDbLine
 10
1582.9135867818
 20
1946.236826325
 30
0.0
 11
1582.9135867818
 21
1942.1724712794
 31
0.0
  0
LINE
  5
D5
330
1F
100
AcDbEntity
  8
0
  6
Continuous
 62
     7
370
    40
100
AcDbLine
 10
1878.9135905965
 20
1946.236826325
 30
0.0
 11
1878.9135905965
 21
1942.1724712794
 31
0.0
  0
LINE
  5
D6
330
1F
100
AcDbEntity
  8
0
  6
Continuous
 62
     7
370
    40
100
AcDbLine
 10
1874.9135824903
 20
1942.1724712794
 30
0.0
 11
1874.9135824903
 21
1946.236826325
 31
0.0
  0
LINE
  5
D7
330
1F
100
AcDbEntity
  8
0
  6
Continuous
 62
     7
370
    40
100
AcDbLine
 10
1878.9135905965
 20
2001.9173397069
 30
0.0
 11
1878.9135905965
 21
1946.236826325
 31
0.0
  0
LINE
  5
D8
330
1F
100
AcDbEntity
  8
0
  6
Continuous
 62
     7
370
    40
100
AcDbLine
 10
1874.9135824903
 20
1946.236826325
 30
0.0
 11
1874.9135824903
 21
2001.9173397069
 31
0.0
  0
LINE
  5
D9
330
1F
100
AcDbEntity
  8
0
  6
Continuous
 62
     7
370
    40
100
AcDbLine
 10
1578.9135786756
 20
1946.236826325
 30
0.0
 11
1578.9135786756
 21
2001.9173397069
 31
0.0
  0
LINE
  5
DA
330
1F
100
AcDbEntity
  8
0
  6
Continuous
 62
     7
370
    40
100
AcDbLine
 10
1582.9135867818
 20
2001.9173397069
 30
0.0
 11
1582.9135867818
 21
1946.236826325
 31
0.0
  0
LWPOLYLINE
  5
DB
330
1F
100
AcDbEntity
  8
0
  6
Continuous
 62
     7
370
    40
100
AcDbPolyline
 90
       10
 70
   128
 43
0.0
 10
1864.7135886415
 20
1960.9173385745
 10
1866.4500656589
 20
1959.1808541065
 10
1868.1337925656
 20
1957.4971346503
 10
1869.7135838731
 20
1955.9173358923
 10
1871.1414578422
 20
1954.4894619232
 10
1872.3740222915
 20
1953.2568937486
 10
1873.3738455041
 20
1952.2570817118
 10
1874.11051421
 20
1951.5204092806
 10
1874.5616617664
 20
1951.069257999
 10
1874.7135791047
 20
1950.9173369353
  0
LINE
  5
DC
330
1F
100
AcDbEntity
  8
0
  6
Continuous
 62
     7
370
    40
100
AcDbLine
 10
1874.7135791047
 20
1950.9173369353
 30
0.0
 11
1862.223053263
 21
1950.9173369353
 31
0.0
  0
LINE
  5
DD
330
1F
100
AcDbEntity
  8
0
  6
Continuous
 62
     7
370
    40
100
AcDbLine
 10
1595.6041160091
 20
1950.9173369353
 30
0.0
 11
1583.1135901673
 21
1950.9173369353
 31
0.0
  0
LWPOLYLINE
  5
DE
330
1F
100
AcDbEntity
  8
0
  6
Continuous
 62
     7
370
    40
100
AcDbPolyline
 90
       10
 70
   128
 43
0.0
 10
1593.1135806306
 20
1960.9173385745
 10
1591.3771036132
 20
1959.1808541065
 10
1589.6933767064
 20
1957.4971346503
 10
1588.113585399
 20
1955.9173358923
 10
1586.6857114299
 20
1954.4894619232
 10
1585.4531469806
 20
1953.2568937486
 10
1584.453323768
 20
1952.2570817118
 10
1583.716655062
 20
1951.5204092806
 10
1583.2655075057
 20
1951.069257999
 10
1583.1135901673
 20
1950.9173369353
  0
LINE
  5
DF
330
1F
100
AcDbEntity
  8
0
  6
Continuous
 62
     7
370
    40
100
AcDbLine
 10
1638.1913292273
 20
2552.9173238521
 30
0.0
 11
1819.6358400448
 21
2552.9173238521
 31
0.0
  0
LWPOLYLINE
  5
E0
330
1F
100
AcDbEntity
  8
0
  6
Continuous
 62
     7
370
    40
100
AcDbPolyline
 90
       10
 70
   128
 43
0.0
 10
1819.6358400448
 20
2552.9173238521
 10
1819.5192682608
 20
2552.7653916126
 10
1819.1730844839
 20
2552.3142440563
 10
1818.6078163846
 20
2551.5775902515
 10
1817.8406375511
 20
2550.57778194
 10
1816.8948533996
 20
2549.3452174907
 10
1815.7992082699
 20
2547.9173286205
 10
1814.5869839056
 20
2546.3375671154
 10
1813.2950159772
 20
2544.6537955051
 10
1811.9625690444
 20
2542.9173333889
  0
LWPOLYLINE
  5
E1
330
1F
100
AcDbEntity
  8
0
  6
Continuous
 62
     7
370
    40
100
AcDbPolyline
 90
       10
 70
   128
 43
0.0
 10
1638.1913292273
 20
2552.9173238521
 10
1638.3079010113
 20
2552.7653916126
 10
1638.6540847881
 20
2552.3142440563
 10
1639.2193528875
 20
2551.5775902515
 10
1639.9865317209
 20
2550.57778194
 10
1640.9323158725
 20
2549.3452174907
 10
1642.0279610022
 20
2547.9173286205
 10
1643.2401853665
 20
2546.3375671154
 10
1644.5321532949
 20
2544.6537955051
 10
1645.8646002277
 20
2542.9173333889
  0
LINE
  5
E2
330
1F
100
AcDbEntity
  8
0
  6
Continuous
 62
     7
370
    40
100
AcDbLine
 10
1819.6358400448
 20
2552.9173238521
 30
0.0
 11
1874.7135791047
 21
2347.3643882518
 31
0.0
  0
LWPOLYLINE
  5
E3
330
1F
100
AcDbEntity
  8
0
  6
Continuous
 62
     7
370
    40
100
AcDbPolyline
 90
        9
 70
   128
 43
0.0
 10
1874.7135791047
 20
2347.3643882518
 10
1874.5214435323
 20
2347.3390860801
 10
1873.9523830875
 20
2347.264192844
 10
1873.028287576
 20
2347.1425099617
 10
1871.7846515639
 20
2346.9788058048
 10
1870.2692928775
 20
2346.7792792564
 10
1868.5404154523
 20
2346.5516789203
 10
1866.6644933684
 20
2346.3047070747
 10
1864.7135886415
 20
2346.0478706604
  0
LINE
  5
E4
330
1F
100
AcDbEntity
  8
0
  6
Continuous
 62
     7
370
    40
100
AcDbLine
 10
1874.7135791047
 20
2347.3643882518
 30
0.0
 11
1874.7135791047
 21
1950.9173369353
 31
0.0
  0
LINE
  5
E5
330
1F
100
AcDbEntity
  8
0
  6
Continuous
 62
     7
370
    40
100
AcDbLine
 10
1583.1135901673
 20
1950.9173369353
 30
0.0
 11
1583.1135901673
 21
2347.3643882518
 31
0.0
  0
LWPOLYLINE
  5
E6
330
1F
100
AcDbEntity
  8
0
  6
Continuous
 62
     7
370
    40
100
AcDbPolyline
 90
        9
 70
   128
 43
0.0
 10
1593.1135806306
 20
2346.0478706604
 10
1591.1626759036
 20
2346.3047070747
 10
1589.2867538198
 20
2346.5516789203
 10
1587.5578763946
 20
2346.7792792564
 10
1586.0425177081
 20
2346.9788058048
 10
1584.798881696
 20
2347.1425099617
 10
1583.8747861846
 20
2347.264192844
 10
1583.3057257398
 20
2347.3390860801
 10
1583.1135901673
 20
2347.3643882518
  0
LINE
  5
E7
330
1F
100
AcDbEntity
  8
0
  6
Continuous
 62
     7
370
    40
100
AcDbLine
 10
1583.1135901673
 20
2347.3643882518
 30
0.0
 11
1638.1913292273
 21
2552.9173238521
 31
0.0
  0
LINE
  5
E8
330
1F
100
AcDbEntity
  8
0
  6
Continuous
 62
     7
370
    40
100
AcDbLine
 10
1821.1826401814
 20
2547.9173286205
 30
0.0
 11
1825.3237473829
 21
2547.9173286205
 31
0.0
  0
LWPOLYLINE
  5
E9
330
1F
100
AcDbEntity
  8
0
  6
Continuous
 62
     7
370
    40
100
AcDbPolyline
 90
        9
 70
   128
 43
0.0
 10
1825.3237473829
 20
2547.9173286205
 10
1825.3752308949
 20
2547.7251632457
 10
1825.5277070268
 20
2547.1561177021
 10
1825.7753196223
 20
2546.2320072895
 10
1826.1085542901
 20
2544.9884159809
 10
1826.5145885809
 20
2543.4730274921
 10
1826.9778433307
 20
2541.7441947704
 10
1827.4804967507
 20
2539.8682577854
 10
1828.0032369359
 20
2537.9173381572
  0
LWPOLYLINE
  5
EA
330
1F
100
AcDbEntity
  8
0
  6
Continuous
 62
     7
370
    40
100
AcDbPolyline
 90
        9
 70
   128
 43
0.0
 10
1823.8621297343
 20
2537.9173381572
 10
1823.3393895491
 20
2539.8682577854
 10
1822.8367361291
 20
2541.7441947704
 10
1822.3734888299
 20
2543.4730274921
 10
1821.9674470885
 20
2544.9884159809
 10
1821.6342198713
 20
2546.2320072895
 10
1821.3866072758
 20
2547.1561177021
 10
1821.2341236933
 20
2547.7251632457
 10
1821.1826401814
 20
2547.9173286205
  0
LWPOLYLINE
  5
EB
330
1F
100
AcDbEntity
  8
0
  6
Continuous
 62
     7
370
    40
100
AcDbPolyline
 90
        9
 70
   128
 43
0.0
 10
1629.8239323362
 20
2537.9173381572
 10
1630.3466725214
 20
2539.8682577854
 10
1630.8493259414
 20
2541.7441947704
 10
1631.3125806912
 20
2543.4730274921
 10
1631.718614982
 20
2544.9884159809
 10
1632.0518496497
 20
2546.2320072895
 10
1632.2994622453
 20
2547.1561177021
 10
1632.4519383772
 20
2547.7251632457
 10
1632.5034218891
 20
2547.9173286205
  0
LINE
  5
EC
330
1F
100
AcDbEntity
  8
0
  6
Continuous
 62
     7
370
    40
100
AcDbLine
 10
1632.5034218891
 20
2547.9173286205
 30
0.0
 11
1636.6445290907
 21
2547.9173286205
 31
0.0
  0
LWPOLYLINE
  5
ED
330
1F
100
AcDbEntity
  8
0
  6
Continuous
 62
     7
370
    40
100
AcDbPolyline
 90
       10
 70
   128
 43
0.0
 10
1636.6445290907
 20
2547.9173286205
 10
1636.6038191183
 20
2547.765396381
 10
1636.4829334481
 20
2547.3142488246
 10
1636.2855452164
 20
2546.5775950199
 10
1636.0176446899
 20
2545.5777867084
 10
1635.6873828037
 20
2544.3452222591
 10
1635.3047805889
 20
2542.9173333889
 10
1634.8814758523
 20
2541.3375122791
 10
1634.430328296
 20
2539.6538002735
 10
1633.9650395377
 20
2537.9173381572
  0
LINE
  5
EE
330
1F
100
AcDbEntity
  8
0
  6
Continuous
 62
     7
370
    40
100
AcDbLine
 10
1828.0032369359
 20
2537.9173381572
 30
0.0
 11
1878.9135905965
 21
2347.9173405414
 31
0.0
  0
LINE
  5
EF
330
1F
100
AcDbEntity
  8
0
  6
Continuous
 62
     7
370
    40
100
AcDbLine
 10
1823.8621297343
 20
2537.9173381572
 30
0.0
 11
1874.9135824903
 21
2347.3907335048
 31
0.0
  0
LINE
  5
F0
330
1F
100
AcDbEntity
  8
0
  6
Continuous
 62
     7
370
    40
100
AcDbLine
 10
1878.9135905965
 20
2347.9173405414
 30
0.0
 11
1878.9135905965
 21
2001.9173397069
 31
0.0
  0
LINE
  5
F1
330
1F
100
AcDbEntity
  8
0
  6
Continuous
 62
     7
370
    40
100
AcDbLine
 10
1874.9135824903
 20
2347.3907335048
 30
0.0
 11
1874.9135824903
 21
2001.9173397069
 31
0.0
  0
LINE
  5
F2
330
1F
100
AcDbEntity
  8
0
  6
Continuous
 62
     7
370
    40
100
AcDbLine
 10
1582.9135867818
 20
2347.3907335048
 30
0.0
 11
1633.9650395377
 21
2537.9173381572
 31
0.0
  0
LINE
  5
F3
330
1F
100
AcDbEntity
  8
0
  6
Continuous
 62
     7
370
    40
100
AcDbLine
 10
1578.9135786756
 20
2347.9173405414
 30
0.0
 11
1629.8239323362
 21
2537.9173381572
 31
0.0
  0
LINE
  5
F4
330
1F
100
AcDbEntity
  8
0
  6
Continuous
 62
     7
370
    40
100
AcDbLine
 10
1578.9135786756
 20
2347.9173405414
 30
0.0
 11
1578.9135786756
 21
2001.9173397069
 31
0.0
  0
LINE
  5
F5
330
1F
100
AcDbEntity
  8
0
  6
Continuous
 62
     7
370
    40
100
AcDbLine
 10
1582.9135867818
 20
2001.9173397069
 30
0.0
 11
1582.9135867818
 21
2347.3907335048
 31
0.0
  0
LINE
  5
F6
330
1F
100
AcDbEntity
  8
0
  6
Continuous
 62
     7
370
    40
100
AcDbLine
 10
1626.9135865434
 20
1831.9173379188
 30
0.0
 11
1626.9135865434
 21
1879.4173373228
 31
0.0
  0
ARC
  5
F7
330
1F
100
AcDbEntity
  8
0
  6
Continuous
 62
     7
370
    40
100
AcDbCircle
 10
1616.913584636
 20
1831.9173372036
 30
0.0
 40
10.0
100
AcDbArc
 50
270.0
 51
0.0
  0
CIRCLE
  5
F8
330
1F
100
AcDbEntity
  8
0
  6
Continuous
 62
     7
370
    40
100
AcDbCircle
 10
1607.913584636
 20
1836.9173372036
 30
0.0
 40
4.0
  0
LINE
  5
F9
330
1F
100
AcDbEntity
  8
0
  6
Continuous
 62
     7
370
    40
100
AcDbLine
 10
1636.8515807255
 20
2547.9173286205
 30
0.0
 11
1636.6445290907
 21
2547.9173286205
 31
0.0
  0
LINE
  5
FA
330
1F
100
AcDbEntity
  8
0
  6
Continuous
 62
     7
370
    40
100
AcDbLine
 10
1616.913581179
 20
1821.917340005
 30
0.0
 11
1582.9135867818
 21
1821.917340005
 31
0.0
  0
CIRCLE
  5
FB
330
1F
100
AcDbEntity
  8
0
  6
Continuous
 62
     7
370
    40
100
AcDbCircle
 10
1849.913584636
 20
1836.9173372036
 30
0.0
 40
4.000000000000227
  0
ARC
  5
FC
330
1F
100
AcDbEntity
  8
0
  6
Continuous
 62
     7
370
    40
100
AcDbCircle
 10
1840.913584636
 20
1831.9173372036
 30
0.0
 40
10.0
100
AcDbArc
 50
180.0
 51
270.0
  0
LINE
  5
FD
330
1F
100
AcDbEntity
  8
0
  6
Continuous
 62
     7
370
    40
100
AcDbLine
 10
1830.9135827287
 20
1879.4173373228
 30
0.0
 11
1830.9135827287
 21
1831.9173379188
 31
0.0
  0
LINE
  5
FE
330
1F
100
AcDbEntity
  8
0
  6
Continuous
 62
     7
370
    40
100
AcDbLine
 10
1821.1826401814
 20
2547.9173286205
 30
0.0
 11
1820.9755885466
 21
2547.9173286205
 31
0.0
  0
LINE
  5
FF
330
1F
100
AcDbEntity
  8
0
  6
Continuous
 62
     7
370
    40
100
AcDbLine
 10
1874.9135824903
 20
1821.917340005
 30
0.0
 11
1840.9135880931
 21
1821.917340005
 31
0.0
  0
LINE
  5
100
330
1F
100
AcDbEntity
  8
0
  6
Continuous
 62
     7
370
    40
100
AcDbLine
 10
2343.2506719762
 20
1854.7924941724
 30
0.0
 11
2348.5707516008
 21
1875.2821328437
 31
0.0
  0
LWPOLYLINE
  5
101
330
1F
100
AcDbEntity
  8
0
  6
Continuous
 62
     7
370
    40
100
AcDbPolyline
 90
       13
 70
   128
 43
0.0
 10
2348.5707516008
 20
1875.2821328437
 10
2349.2596173817
 20
1877.9352100884
 10
2349.936696344
 20
1880.5428928083
 10
2350.590402835
 20
1883.0605632012
 10
2351.2095460826
 20
1885.4451420104
 10
2351.7835462624
 20
1887.6558279937
 10
2352.3025760585
 20
1889.6547973474
 10
2352.7577469283
 20
1891.4078463187
 10
2353.1412804657
 20
1892.8849798014
 10
2353.4466127092
 20
1894.0609235635
 10
2353.6685208017
 20
1894.915557312
 10
2353.8031974965
 20
1895.4342578856
 10
2353.8483480149
 20
1895.6081497801
  0
ARC
  5
102
330
1F
100
AcDbEntity
  8
0
  6
Continuous
 62
     7
370
    40
100
AcDbCircle
 10
2358.6878754078
 20
1894.3515789061
 30
0.0
 40
5.000000000000203
100
AcDbArc
 50
75.4447090111
 51
165.4447090111
  0
LINE
  5
103
330
1F
100
AcDbEntity
  8
0
  6
Continuous
 62
     7
370
    40
100
AcDbLine
 10
2359.9444428617
 20
1899.191106748
 30
0.0
 11
2442.2164192581
 21
1877.8294025307
 31
0.0
  0
LINE
  5
104
330
1F
100
AcDbEntity
  8
0
  6
Continuous
 62
     7
370
    40
100
AcDbLine
 10
2440.5217791134
 20
1851.4072893506
 30
0.0
 11
2435.2016976261
 21
1830.9176488166
 31
0.0
  0
LWPOLYLINE
  5
105
330
1F
100
AcDbEntity
  8
0
  6
Continuous
 62
     7
370
    40
100
AcDbPolyline
 90
       13
 70
   128
 43
0.0
 10
2445.7993773901
 20
1871.7333039587
 10
2445.7542268717
 20
1871.5594129955
 10
2445.6195464516
 20
1871.0407128876
 10
2445.397643947
 20
1870.186079139
 10
2445.0923135662
 20
1869.010135377
 10
2444.7087781662
 20
1867.5330018943
 10
2444.253603571
 20
1865.7799510603
 10
2443.7345775002
 20
1863.7809826379
 10
2443.1605773204
 20
1861.570294792
 10
2442.5414284849
 20
1859.1857178455
 10
2441.8877219939
 20
1856.6680474525
 10
2441.2106439629
 20
1854.0603665953
 10
2440.5217791134
 20
1851.4072893506
  0
ARC
  5
106
330
1F
100
AcDbEntity
  8
0
  6
Continuous
 62
     7
370
    40
100
AcDbCircle
 10
2440.9598488975
 20
1872.9898753663
 30
0.0
 40
5.000000000000146
100
AcDbArc
 50
345.4447090111
 51
75.4447090111
  0
LINE
  5
107
330
1F
100
AcDbEntity
  8
0
  6
Continuous
 62
     7
370
    40
100
AcDbLine
 10
2340.7800147468
 20
1845.2770596688
 30
0.0
 11
2343.2506719762
 21
1854.7924941724
 31
0.0
  0
LINE
  5
108
330
1F
100
AcDbEntity
  8
0
  6
Continuous
 62
     7
370
    40
100
AcDbLine
 10
2435.2016976261
 20
1830.9176488166
 30
0.0
 11
2432.7310403967
 21
1821.4022143131
 31
0.0
  0
ARC
  5
109
330
1F
100
AcDbEntity
  8
0
  6
Continuous
 62
     7
370
    40
100
AcDbCircle
 10
2345.6195391247
 20
1844.0204892418
 30
0.0
 40
5.000000000000424
100
AcDbArc
 50
165.4447090111
 51
255.4447090111
  0
LINE
  5
10A
330
1F
100
AcDbEntity
  8
0
  6
Continuous
 62
     7
370
    40
100
AcDbLine
 10
2426.6349418247
 20
1817.8192599063
 30
0.0
 11
2344.3629691535
 21
1839.1809610968
 31
0.0
  0
ARC
  5
10B
330
1F
100
AcDbEntity
  8
0
  6
Continuous
 62
     7
370
    40
100
AcDbCircle
 10
2427.8915126144
 20
1822.6587857021
 30
0.0
 40
5.000000000000146
100
AcDbArc
 50
255.4447090111
 51
345.4447090111
  0
LINE
  5
10C
330
1F
100
AcDbEntity
  8
0
  6
Continuous
 62
     7
370
    40
100
AcDbLine
 10
2381.5292591387
 20
1952.4792319482
 30
0.0
 11
2375.7484207088
 21
1930.2150400674
 31
0.0
  0
LINE
  5
10D
330
1F
100
AcDbEntity
  8
0
  6
Continuous
 62
     7
370
    40
100
AcDbLine
 10
2398.7369822496
 20
1951.108243162
 30
0.0
 11
2381.5292591387
 21
1952.4792319482
 31
0.0
  0
LINE
  5
10E
330
1F
100
AcDbEntity
  8
0
  6
Continuous
 62
     7
370
    40
100
AcDbLine
 10
2398.7369822496
 20
1951.108243162
 30
0.0
 11
2433.5815828451
 21
1942.0609360879
 31
0.0
  0
LINE
  5
10F
330
1F
100
AcDbEntity
  8
0
  6
Continuous
 62
     7
370
    40
100
AcDbLine
 10
2449.2826486164
 20
1934.8872414177
 30
0.0
 11
2433.5815828451
 21
1942.0609360879
 31
0.0
  0
LINE
  5
110
330
1F
100
AcDbEntity
  8
0
  6
Continuous
 62
     7
370
    40
100
AcDbLine
 10
2443.5018101865
 20
1912.6230486056
 30
0.0
 11
2449.2826486164
 21
1934.8872414177
 31
0.0
  0
LINE
  5
111
330
1F
100
AcDbEntity
  8
0
  6
Continuous
 62
     7
370
    40
100
AcDbLine
 10
2432.8548480914
 20
1915.3875045797
 30
0.0
 11
2443.5018101865
 21
1912.6230486056
 31
0.0
  0
LINE
  5
112
330
1F
100
AcDbEntity
  8
0
  6
Continuous
 62
     7
370
    40
100
AcDbLine
 10
2424.3101666141
 20
1882.4787156975
 30
0.0
 11
2432.8548480914
 21
1915.3875045797
 31
0.0
  0
LINE
  5
113
330
1F
100
AcDbEntity
  8
0
  6
Continuous
 62
     7
370
    40
100
AcDbLine
 10
2386.3953823382
 20
1927.4505840933
 30
0.0
 11
2377.8506988817
 21
1894.5417947454
 31
0.0
  0
LINE
  5
114
330
1F
100
AcDbEntity
  8
0
  6
Continuous
 62
     7
370
    40
100
AcDbLine
 10
2375.7484207088
 20
1930.2150400674
 30
0.0
 11
2386.3953823382
 21
1927.4505840933
 31
0.0
  0
LINE
  5
115
330
1F
100
AcDbEntity
  8
0
  6
Continuous
 62
     7
370
    40
100
AcDbLine
 10
2387.4569708639
 20
1937.5077931529
 30
0.0
 11
2388.210913741
 21
1940.4115079289
 31
0.0
  0
LINE
  5
116
330
1F
100
AcDbEntity
  8
0
  6
Continuous
 62
     7
370
    40
100
AcDbLine
 10
2436.8201546529
 20
1924.6907698309
 30
0.0
 11
2387.4569708639
 21
1937.5077931529
 31
0.0
  0
LINE
  5
117
330
1F
100
AcDbEntity
  8
0
  6
Continuous
 62
     7
370
    40
100
AcDbLine
 10
2437.5740975299
 20
1927.5944864696
 30
0.0
 11
2436.8201546529
 21
1924.6907698309
 31
0.0
  0
LINE
  5
118
330
1F
100
AcDbEntity
  8
0
  6
Continuous
 62
     7
370
    40
100
AcDbLine
 10
2388.210913741
 20
1940.4115079289
 30
0.0
 11
2437.5740975299
 21
1927.5944864696
 31
0.0
  0
LINE
  5
119
330
1F
100
AcDbEntity
  8
0
  6
Continuous
 62
     7
370
    40
100
AcDbLine
 10
2415.0529211545
 20
1985.0987194424
 30
0.0
 11
2435.8628910193
 21
1979.6954689866
 31
0.0
  0
LINE
  5
11A
330
1F
100
AcDbEntity
  8
0
  6
Continuous
 62
     7
370
    40
100
AcDbLine
 10
2427.8208381654
 20
1948.7224890237
 30
0.0
 11
2435.8628910193
 21
1979.6954689866
 31
0.0
  0
LINE
  5
11B
330
1F
100
AcDbEntity
  8
0
  6
Continuous
 62
     7
370
    40
100
AcDbLine
 10
2433.5815828451
 20
1942.0609360879
 30
0.0
 11
2427.8208381654
 21
1948.7224890237
 31
0.0
  0
LINE
  5
11C
330
1F
100
AcDbEntity
  8
0
  6
Continuous
 62
     7
370
    40
100
AcDbLine
 10
2407.0108687663
 20
1954.1257432049
 30
0.0
 11
2398.7369822496
 21
1951.108243162
 31
0.0
  0
LINE
  5
11D
330
1F
100
AcDbEntity
  8
0
  6
Continuous
 62
     7
370
    40
100
AcDbLine
 10
2415.0529211545
 20
1985.0987194424
 30
0.0
 11
2407.0108687663
 21
1954.1257432049
 31
0.0
  0
LINE
  5
11E
330
1F
100
AcDbEntity
  8
0
  6
Continuous
 62
     7
370
    40
100
AcDbLine
 10
2412.8556527355
 20
1956.7407964116
 30
0.0
 11
2418.3845646837
 21
1978.0347196703
 31
0.0
  0
LINE
  5
11F
330
1F
100
AcDbEntity
  8
0
  6
Continuous
 62
     7
370
    40
100
AcDbLine
 10
2423.9865670604
 20
1953.8506826704
 30
0.0
 11
2412.8556527355
 21
1956.7407964116
 31
0.0
  0
LINE
  5
120
330
1F
100
AcDbEntity
  8
0
  6
Continuous
 62
     7
370
    40
100
AcDbLine
 10
2429.515478543
 20
1975.1446022039
 30
0.0
 11
2423.9865670604
 21
1953.8506826704
 31
0.0
  0
LINE
  5
121
330
1F
100
AcDbEntity
  8
0
  6
Continuous
 62
     7
370
    40
100
AcDbLine
 10
2418.3845646837
 20
1978.0347196703
 30
0.0
 11
2429.515478543
 21
1975.1446022039
 31
0.0
  0
LINE
  5
122
330
1F
100
AcDbEntity
  8
0
  6
Continuous
 62
     7
370
    40
100
AcDbLine
 10
2363.7210825616
 20
1834.1546802168
 30
0.0
 11
2365.2858385974
 21
1814.5638255721
 31
0.0
  0
LINE
  5
123
330
1F
100
AcDbEntity
  8
0
  6
Continuous
 62
     7
370
    40
100
AcDbLine
 10
2396.3788418257
 20
1806.4906074052
 30
0.0
 11
2407.2768302792
 21
1822.8455407863
 31
0.0
  0
ARC
  5
124
330
1F
100
AcDbEntity
  8
0
  6
Continuous
 62
     7
370
    40
100
AcDbCircle
 10
2382.2318710023
 20
1815.9173372036
 30
0.0
 40
16.99999999999999
100
AcDbArc
 50
184.5666296475
 51
326.3227883746
  0
CIRCLE
  5
125
330
1F
100
AcDbEntity
  8
0
  6
Continuous
 62
     7
370
    40
100
AcDbCircle
 10
2382.2318710023
 20
1815.9173372036
 30
0.0
 40
7.100000000000074
  0
LINE
  5
126
330
1F
100
AcDbEntity
  8
0
  6
Continuous
 62
     7
370
    40
100
AcDbLine
 10
2393.5069801444
 20
1952.4173362499
 30
0.0
 11
2394.106386804
 21
1954.6612574106
 31
0.0
  0
SPLINE
  5
127
330
1F
100
AcDbEntity
  8
0
  6
Continuous
 62
     7
370
    40
100
AcDbSpline
210
0.0
220
0.0
230
1.0
 70
     8
 71
     3
 72
    13
 73
     9
 74
     0
 42
0.00000001
 43
0.00000001
 12
1.0
 22
0.0
 32
0.0
 13
1.0
 23
0.0
 33
0.0
 40
0.0
 40
0.0
 40
0.0
 40
0.0
 40
0.1399237102916958
 40
0.2791888561474916
 40
0.4756020749534944
 40
0.747962317317852
 40
0.9980795048453888
 40
1.0
 40
1.0
 40
1.0
 40
1.0
 10
2397.786871173369
 20
1956.779114747575
 30
0.0
 10
2397.522875645304
 20
1956.828335018379
 30
0.0
 10
2396.996127109584
 20
1956.926543900033
 30
0.0
 10
2396.14328980403
 20
1956.797905089742
 30
0.0
 10
2395.239432689667
 20
1956.391625871536
 30
0.0
 10
2394.49543065434
 20
1955.644486721956
 30
0.0
 10
2394.195407483069
 20
1954.991675240872
 30
0.0
 10
2394.107060000576
 20
1954.663756112716
 30
0.0
 10
2394.106386803971
 20
1954.661257410578
 30
0.0
  0
LINE
  5
128
330
1F
100
AcDbEntity
  8
0
  6
Continuous
 62
     7
370
    40
100
AcDbLine
 10
2407.0452364319
 20
1954.2581102198
 30
0.0
 11
2397.7919059032
 21
1956.7777512913
 31
0.0
  0
LINE
  5
129
330
1F
100
AcDbEntity
  8
0
  6
Continuous
 62
     7
370
    40
100
AcDbLine
 10
2397.7919059032
 20
1956.7777512913
 30
0.0
 11
2397.786873036
 21
1956.7791184729
 31
0.0
  0
LINE
  5
12A
330
1F
100
AcDbEntity
  8
0
  6
Continuous
 62
     7
370
    40
100
AcDbLine
 10
2397.3474620068
 20
1958.9715896493
 30
0.0
 11
2407.5479010278
 21
1956.1940579062
 31
0.0
  0
LINE
  5
12B
330
1F
100
AcDbEntity
  8
0
  6
Continuous
 62
     7
370
    40
100
AcDbLine
 10
2397.3474620068
 20
1958.9715896493
 30
0.0
 11
2396.7764401966
 21
1956.8745194321
 31
0.0
  0
ARC
  5
12C
330
1F
100
AcDbEntity
  8
0
  6
Continuous
 62
     7
370
    40
100
AcDbCircle
 10
2721.2318710023
 20
1882.4173372036
 30
0.0
 40
3.000000000000227
100
AcDbArc
 50
270.0
 51
0.0
  0
LINE
  5
12D
330
1F
100
AcDbEntity
  8
0
  6
Continuous
 62
     7
370
    40
100
AcDbLine
 10
2721.2318578893
 20
1879.4173373228
 30
0.0
 11
2446.2318705553
 21
1879.4173373228
 31
0.0
  0
LINE
  5
12E
330
1F
100
AcDbEntity
  8
0
  6
Continuous
 62
     7
370
    40
100
AcDbLine
 10
2724.2318788701
 20
1919.4173364287
 30
0.0
 11
2724.2318788701
 21
1882.4173378145
 31
0.0
  0
LINE
  5
12F
330
1F
100
AcDbEntity
  8
0
  6
Continuous
 62
     7
370
    40
100
AcDbLine
 10
2446.2318705553
 20
1919.4173364287
 30
0.0
 11
2724.2318788701
 21
1919.4173364287
 31
0.0
  0
LINE
  5
130
330
1F
100
AcDbEntity
  8
0
  6
Continuous
 62
     7
370
    40
100
AcDbLine
 10
2388.7318695122
 20
1952.4173362499
 30
0.0
 11
2402.3264726782
 21
1952.4173362499
 31
0.0
  0
LINE
  5
131
330
1F
100
AcDbEntity
  8
0
  6
Continuous
 62
     7
370
    40
100
AcDbLine
 10
2428.780195645
 20
1952.4173362499
 30
0.0
 11
2711.7318609887
 21
1952.4173362499
 31
0.0
  0
ARC
  5
132
330
1F
100
AcDbEntity
  8
0
  6
Continuous
 62
     7
370
    40
100
AcDbCircle
 10
2711.7318710023
 20
1940.4173372036
 30
0.0
 40
12.0
100
AcDbArc
 50
0.0
 51
90.0
  0
ARC
  5
133
330
1F
100
AcDbEntity
  8
0
  6
Continuous
 62
     7
370
    40
100
AcDbCircle
 10
2388.7318710023
 20
1940.4173372036
 30
0.0
 40
12.0
100
AcDbArc
 50
90.0
 51
102.8308301753
  0
ARC
  5
134
330
1F
100
AcDbEntity
  8
0
  6
Continuous
 62
     7
370
    40
100
AcDbCircle
 10
2388.7318710023
 20
1940.4173372036
 30
0.0
 40
11.99999999999988
100
AcDbArc
 50
131.9113622964
 51
142.5200238409
  0
LINE
  5
135
330
1F
100
AcDbEntity
  8
0
  6
Continuous
 62
     7
370
    40
100
AcDbLine
 10
2723.7318853074
 20
1919.4173364287
 30
0.0
 11
2723.7318853074
 21
1940.4173380082
 31
0.0
  0
ARC
  5
136
330
1F
100
AcDbEntity
  8
0
  6
Continuous
 62
     7
370
    40
100
AcDbCircle
 10
2361.2318710023
 20
1816.9173372036
 30
0.0
 40
5.000000000000152
100
AcDbArc
 50
44.1459652469
 51
90.0
  0
LINE
  5
137
330
1F
100
AcDbEntity
  8
0
  6
Continuous
 62
     7
370
    40
100
AcDbLine
 10
2336.231867426
 20
1821.917340005
 30
0.0
 11
2336.231867426
 21
2347.9173405414
 31
0.0
  0
LINE
  5
138
330
1F
100
AcDbEntity
  8
0
  6
Continuous
 62
     7
370
    40
100
AcDbLine
 10
2362.2318679625
 20
2347.9173405414
 30
0.0
 11
2336.231867426
 21
2347.9173405414
 31
0.0
  0
LINE
  5
139
330
1F
100
AcDbEntity
  8
0
  6
Continuous
 62
     7
370
    40
100
AcDbLine
 10
2362.2318679625
 20
2347.9173405414
 30
0.0
 11
2362.2318679625
 21
2001.9173397069
 31
0.0
  0
ARC
  5
13A
330
1F
100
AcDbEntity
  8
0
  6
Continuous
 62
     7
370
    40
100
AcDbCircle
 10
2457.2318710023
 20
2001.9173372036
 30
0.0
 40
95.0
100
AcDbArc
 50
180.0
 51
215.6148227514
  0
LINE
  5
13B
330
1F
100
AcDbEntity
  8
0
  6
Continuous
 62
     7
370
    40
100
AcDbLine
 10
2446.2318705553
 20
1923.1375454312
 30
0.0
 11
2446.2318705553
 21
1831.9173379188
 31
0.0
  0
ARC
  5
13C
330
1F
100
AcDbEntity
  8
0
  6
Continuous
 62
     7
370
    40
100
AcDbCircle
 10
2436.2318710023
 20
1831.9173372036
 30
0.0
 40
10.0
100
AcDbArc
 50
270.0
 51
0.0
  0
LINE
  5
13D
330
1F
100
AcDbEntity
  8
0
  6
Continuous
 62
     7
370
    40
100
AcDbLine
 10
2436.2318707788
 20
1821.917340005
 30
0.0
 11
2432.8647904256
 21
1821.917340005
 31
0.0
  0
LINE
  5
13E
330
1F
100
AcDbEntity
  8
0
  6
Continuous
 62
     7
370
    40
100
AcDbLine
 10
2410.8516933554
 20
1821.917340005
 30
0.0
 11
2406.6583277815
 21
1821.917340005
 31
0.0
  0
CIRCLE
  5
13F
330
1F
100
AcDbEntity
  8
0
  6
Continuous
 62
     7
370
    40
100
AcDbCircle
 10
2382.2318710023
 20
1815.9173372036
 30
0.0
 40
5.25
  0
LINE
  5
140
330
1F
100
AcDbEntity
  8
0
  6
Continuous
 62
     7
370
    40
100
AcDbLine
 10
2361.2318733865
 20
1821.917340005
 30
0.0
 11
2336.231867426
 21
1821.917340005
 31
0.0
  0
LINE
  5
141
330
1F
100
AcDbEntity
  8
0
  6
Continuous
 62
     7
370
    40
100
AcDbLine
 10
2336.231867426
 20
2547.9173286205
 30
0.0
 11
2352.2318700486
 21
2547.9173286205
 31
0.0
  0
ARC
  5
142
330
1F
100
AcDbEntity
  8
0
  6
Continuous
 62
     7
370
    40
100
AcDbCircle
 10
2352.2318710023
 20
2537.9173372036
 30
0.0
 40
10.0
100
AcDbArc
 50
0.0
 51
90.0
  0
LINE
  5
143
330
1F
100
AcDbEntity
  8
0
  6
Continuous
 62
     7
370
    40
100
AcDbLine
 10
2362.2318679625
 20
2347.9173405414
 30
0.0
 11
2362.2318679625
 21
2537.9173381572
 31
0.0
  0
LINE
  5
144
330
1F
100
AcDbEntity
  8
0
  6
Continuous
 62
     7
370
    40
100
AcDbLine
 10
2336.231867426
 20
2347.9173405414
 30
0.0
 11
2336.231867426
 21
2547.9173286205
 31
0.0
  0
LINE
  5
145
330
1F
100
AcDbEntity
  8
0
  6
Continuous
 62
     7
370
    40
100
AcDbLine
 10
2364.2318720156
 20
2347.3643882518
 30
0.0
 11
2362.2318679625
 21
2347.3643882518
 31
0.0
  0
LINE
  5
146
330
1F
100
AcDbEntity
  8
0
  6
Continuous
 62
     7
370
    40
100
AcDbLine
 10
2340.2318680817
 20
2552.9173238521
 30
0.0
 11
2340.2318680817
 21
2547.9173286205
 31
0.0
  0
LINE
  5
147
330
1F
100
AcDbEntity
  8
0
  6
Continuous
 62
     7
370
    40
100
AcDbLine
 10
2364.2318720156
 20
2552.9173238521
 30
0.0
 11
2340.2318680817
 21
2552.9173238521
 31
0.0
  0
LINE
  5
148
330
1F
100
AcDbEntity
  8
0
  6
Continuous
 62
     7
370
    40
100
AcDbLine
 10
2374.2318699294
 20
2346.0478706604
 30
0.0
 11
2374.2318699294
 21
1960.9173385745
 31
0.0
  0
ARC
  5
149
330
1F
100
AcDbEntity
  8
0
  6
Continuous
 62
     7
370
    40
100
AcDbCircle
 10
2364.2318710023
 20
1960.9173372036
 30
0.0
 40
10.0
100
AcDbArc
 50
337.5149942047
 51
0.0
  0
ELLIPSE
  5
14A
330
1F
100
AcDbEntity
  8
0
  6
Continuous
 62
     7
370
    40
100
AcDbEllipse
 10
2364.2318710023
 20
2346.0478717378
 30
0.0
 11
10.0
 21
0.0
 31
0.0
210
0.0
220
0.0
230
1.0
 40
0.1316524976
 41
0.0
 42
1.570796326794897
  0
LINE
  5
14B
330
1F
100
AcDbEntity
  8
0
  6
Continuous
 62
     7
370
    40
100
AcDbLine
 10
2374.2318699294
 20
2542.9173333889
 30
0.0
 11
2374.2318699294
 21
2346.0478706604
 31
0.0
  0
ARC
  5
14C
330
1F
100
AcDbEntity
  8
0
  6
Continuous
 62
     7
370
    40
100
AcDbCircle
 10
2364.2318710023
 20
2542.9173372036
 30
0.0
 40
10.0
100
AcDbArc
 50
0.0
 51
90.0
  0
SPLINE
  5
14D
330
1F
100
AcDbEntity
  8
0
  6
Continuous
 62
     7
370
    40
100
AcDbSpline
210
0.0
220
0.0
230
1.0
 70
     8
 71
     3
 72
    23
 73
    19
 74
     0
 42
0.00000001
 43
0.00000001
 12
1.0
 22
0.0
 32
0.0
 13
1.0
 23
0.0
 33
0.0
 40
0.0
 40
0.0
 40
0.0
 40
0.0
 40
0.0458414383110571
 40
0.0924268813602619
 40
0.1388547392529085
 40
0.1871791426704129
 40
0.2399593117137558
 40
0.3007135574689067
 40
0.3734378010910714
 40
0.4568809013606397
 40
0.5387011786889181
 40
0.6165920228946624
 40
0.6919861187121319
 40
0.7658918043321409
 40
0.8388941608075436
 40
0.9113532258624965
 40
0.9796404378067965
 40
1.0
 40
1.0
 40
1.0
 40
1.0
 10
1520.913580344501
 20
1407.923548799912
 30
0.0
 10
1520.941728646367
 20
1407.473435362407
 30
0.0
 10
1520.998482095928
 20
1406.565903164037
 30
0.0
 10
1521.436750053956
 20
1405.293116467613
 30
0.0
 10
1522.077855638104
 20
1404.157070763743
 30
0.0
 10
1522.903623155846
 20
1403.163489544027
 30
0.0
 10
1523.911721026032
 20
1402.274600029449
 30
0.0
 10
1525.163876772417
 20
1401.445914847652
 30
0.0
 10
1526.747091815987
 20
1400.656103034976
 30
0.0
 10
1528.67670644805
 20
1399.933533740793
 30
0.0
 10
1530.880619209836
 20
1399.308683849429
 30
0.0
 10
1533.227729077826
 20
1398.798095682068
 30
0.0
 10
1535.680213915502
 20
1398.389544440776
 30
0.0
 10
1538.231035551312
 20
1398.072223010636
 30
0.0
 10
1540.865080063456
 20
1397.841262471769
 30
0.0
 10
1543.511531251919
 20
1397.698587149153
 30
0.0
 10
1545.539338607664
 20
1397.649677888301
 30
0.0
 10
1546.656914053094
 20
1397.646648304143
 30
0.0
 10
1546.913588331523
 20
1397.645952497581
 30
0.0
  0
LINE
  5
14E
330
1F
100
AcDbEntity
  8
0
  6
Continuous
 62
     7
370
    40
100
AcDbLine
 10
1546.9135883315
 20
1397.6459524976
 30
0.0
 11
1565.9135821326
 21
1397.6459524976
 31
0.0
  0
ARC
  5
14F
330
1F
100
AcDbEntity
  8
0
  6
Continuous
 62
     7
370
    40
100
AcDbCircle
 10
1525.913584636
 20
1495.5156039574
 30
0.0
 40
5.000000000000087
100
AcDbArc
 50
98.5749438344
 51
180.0
  0
LINE
  5
150
330
1F
100
AcDbEntity
  8
0
  6
Continuous
 62
     7
370
    40
100
AcDbLine
 10
1541.552984999
 20
1502.9303695457
 30
0.0
 11
1525.1680704816
 21
1500.4597123163
 31
0.0
  0
LINE
  5
151
330
1F
100
AcDbEntity
  8
0
  6
Continuous
 62
     7
370
    40
100
AcDbLine
 10
1570.1701584323
 20
1502.9862638013
 30
0.0
 11
1542.2985049947
 21
1502.9862638013
 31
0.0
  0
ARC
  5
152
330
1F
100
AcDbEntity
  8
0
  6
Continuous
 62
     7
370
    40
100
AcDbCircle
 10
1542.2985044608
 20
1497.9862613679
 30
0.0
 40
5.000000000000122
100
AcDbArc
 50
90.0
 51
98.5749438344
  0
LINE
  5
153
330
1F
100
AcDbEntity
  8
0
  6
Continuous
 62
     7
370
    40
100
AcDbLine
 10
1882.1217360957
 20
1401.1578916954
 30
0.0
 11
1905.7054313882
 21
1401.1578916954
 31
0.0
  0
SPLINE
  5
154
330
1F
100
AcDbEntity
  8
0
  6
Continuous
 62
     7
370
    40
100
AcDbSpline
210
0.0
220
0.0
230
1.0
 70
     8
 71
     3
 72
    15
 73
    11
 74
     0
 42
0.00000001
 43
0.00000001
 12
1.0
 22
0.0
 32
0.0
 13
1.0
 23
0.0
 33
0.0
 40
0.0
 40
0.0
 40
0.0
 40
0.0
 40
0.0606418480877898
 40
0.1955069849826612
 40
0.328917662427187
 40
0.4623448862303622
 40
0.597261838101117
 40
0.7350746869943497
 40
0.8765421429072285
 40
1.0
 40
1.0
 40
1.0
 40
1.0
 10
1907.851153896633
 20
1449.733961691121
 30
0.0
 10
1907.85134403524
 20
1450.067779074343
 30
0.0
 10
1907.851957034794
 20
1451.143993473914
 30
0.0
 10
1907.515476990064
 20
1452.909111748418
 30
0.0
 10
1906.860837719333
 20
1454.997396376619
 30
0.0
 10
1905.889482959975
 20
1456.983578430536
 30
0.0
 10
1904.630230845024
 20
1458.87463663074
 30
0.0
 10
1903.064643298753
 20
1460.670916126754
 30
0.0
 10
1901.312330423781
 20
1462.303156078167
 30
0.0
 10
1899.951008037684
 20
1463.275118755059
 30
0.0
 10
1899.316618130985
 20
1463.728063126067
 30
0.0
  0
LINE
  5
155
330
1F
100
AcDbEntity
  8
0
  6
Continuous
 62
     7
370
    40
100
AcDbLine
 10
1897.6281973584
 20
1464.2799499826
 30
0.0
 11
1882.3607060178
 21
1464.2799499826
 31
0.0
  0
ARC
  5
156
330
1F
100
AcDbEntity
  8
0
  6
Continuous
 62
     7
370
    40
100
AcDbCircle
 10
1897.628195537
 20
1461.2799495408
 30
0.0
 40
2.999999999999938
100
AcDbArc
 50
55.5053022357
 51
90.0
  0
LINE
  5
157
330
1F
100
AcDbEntity
  8
0
  6
Continuous
 62
     7
370
    40
100
AcDbLine
 10
1887.9135790332
 20
1476.3739298479
 30
0.0
 11
1884.9135878547
 21
1476.3739298479
 31
0.0
  0
LINE
  5
158
330
1F
100
AcDbEntity
  8
0
  6
Continuous
 62
     7
370
    40
100
AcDbLine
 10
1868.9135852321
 20
1402.3739298256
 30
0.0
 11
1872.9135784372
 21
1402.3739298256
 31
0.0
  0
LINE
  5
159
330
1F
100
AcDbEntity
  8
0
  6
Continuous
 62
     7
370
    40
100
AcDbLine
 10
1872.9135784372
 20
1432.373929155
 30
0.0
 11
1868.9135852321
 21
1432.373929155
 31
0.0
  0
LINE
  5
15A
330
1F
100
AcDbEntity
  8
0
  6
Continuous
 62
     7
370
    40
100
AcDbLine
 10
1588.91358404
 20
1432.373929155
 30
0.0
 11
1584.9135908349
 21
1432.373929155
 31
0.0
  0
LINE
  5
15B
330
1F
100
AcDbEntity
  8
0
  6
Continuous
 62
     7
370
    40
100
AcDbLine
 10
1584.9135908349
 20
1402.3739298256
 30
0.0
 11
1588.91358404
 21
1402.3739298256
 31
0.0
  0
LINE
  5
15C
330
1F
100
AcDbEntity
  8
0
  6
Continuous
 62
     7
370
    40
100
AcDbLine
 10
1874.9135824903
 20
1422.3739293785
 30
0.0
 11
1872.9135784372
 21
1422.3739293785
 31
0.0
  0
LINE
  5
15D
330
1F
100
AcDbEntity
  8
0
  6
Continuous
 62
     7
370
    40
100
AcDbLine
 10
1584.9135908349
 20
1422.3739293785
 30
0.0
 11
1582.9135867818
 21
1422.3739293785
 31
0.0
  0
LINE
  5
15E
330
1F
100
AcDbEntity
  8
0
  6
Continuous
 62
     7
370
    40
100
AcDbLine
 10
1582.9135867818
 20
1412.3739296021
 30
0.0
 11
1584.9135908349
 21
1412.3739296021
 31
0.0
  0
LINE
  5
15F
330
1F
100
AcDbEntity
  8
0
  6
Continuous
 62
     7
370
    40
100
AcDbLine
 10
1872.9135784372
 20
1412.3739296021
 30
0.0
 11
1874.9135824903
 21
1412.3739296021
 31
0.0
  0
LINE
  5
160
330
1F
100
AcDbEntity
  8
0
  6
Continuous
 62
     7
370
    40
100
AcDbLine
 10
1568.4135797485
 20
1407.7429094733
 30
0.0
 11
1571.4135858281
 21
1407.7429094733
 31
0.0
  0
LINE
  5
161
330
1F
100
AcDbEntity
  8
0
  6
Continuous
 62
     7
370
    40
100
AcDbLine
 10
1568.4135797485
 20
1428.5528793381
 30
0.0
 11
1571.4135858281
 21
1428.5528793381
 31
0.0
  0
LINE
  5
162
330
1F
100
AcDbEntity
  8
0
  6
Continuous
 62
     7
370
    40
100
AcDbLine
 10
1568.4135797485
 20
1428.5528793381
 30
0.0
 11
1568.4135797485
 21
1407.7429094733
 31
0.0
  0
LINE
  5
163
330
1F
100
AcDbEntity
  8
0
  6
Continuous
 62
     7
370
    40
100
AcDbLine
 10
1571.4135858281
 20
1428.5528793381
 30
0.0
 11
1571.4135858281
 21
1407.7429094733
 31
0.0
  0
LINE
  5
164
330
1F
100
AcDbEntity
  8
0
  6
Continuous
 62
     7
370
    40
100
AcDbLine
 10
1568.4135797485
 20
1436.5949317263
 30
0.0
 11
1571.4135858281
 21
1436.5949317263
 31
0.0
  0
LINE
  5
165
330
1F
100
AcDbEntity
  8
0
  6
Continuous
 62
     7
370
    40
100
AcDbLine
 10
1568.4135797485
 20
1428.5528793381
 30
0.0
 11
1568.4135797485
 21
1436.5949317263
 31
0.0
  0
LINE
  5
166
330
1F
100
AcDbEntity
  8
0
  6
Continuous
 62
     7
370
    40
100
AcDbLine
 10
1571.4135858281
 20
1436.5949317263
 30
0.0
 11
1571.4135858281
 21
1428.5528793381
 31
0.0
  0
LINE
  5
167
330
1F
100
AcDbEntity
  8
0
  6
Continuous
 62
     7
370
    40
100
AcDbLine
 10
1568.4135797485
 20
1444.868818243
 30
0.0
 11
1571.4135858281
 21
1444.868818243
 31
0.0
  0
LINE
  5
168
330
1F
100
AcDbEntity
  8
0
  6
Continuous
 62
     7
370
    40
100
AcDbLine
 10
1568.4135797485
 20
1436.5949317263
 30
0.0
 11
1568.4135797485
 21
1444.868818243
 31
0.0
  0
LINE
  5
169
330
1F
100
AcDbEntity
  8
0
  6
Continuous
 62
     7
370
    40
100
AcDbLine
 10
1571.4135858281
 20
1444.868818243
 30
0.0
 11
1571.4135858281
 21
1436.5949317263
 31
0.0
  0
LINE
  5
16A
330
1F
100
AcDbEntity
  8
0
  6
Continuous
 62
     7
370
    40
100
AcDbLine
 10
1565.9135821326
 20
1462.0765413539
 30
0.0
 11
1573.9135834439
 21
1462.0765413539
 31
0.0
  0
LINE
  5
16B
330
1F
100
AcDbEntity
  8
0
  6
Continuous
 62
     7
370
    40
100
AcDbLine
 10
1571.4135858281
 20
1444.868818243
 30
0.0
 11
1573.9135834439
 21
1444.868818243
 31
0.0
  0
LINE
  5
16C
330
1F
100
AcDbEntity
  8
0
  6
Continuous
 62
     7
370
    40
100
AcDbLine
 10
1565.9135821326
 20
1444.868818243
 30
0.0
 11
1568.4135797485
 21
1444.868818243
 31
0.0
  0
LINE
  5
16D
330
1F
100
AcDbEntity
  8
0
  6
Continuous
 62
     7
370
    40
100
AcDbLine
 10
1565.9135821326
 20
1444.868818243
 30
0.0
 11
1565.9135821326
 21
1462.0765413539
 31
0.0
  0
LINE
  5
16E
330
1F
100
AcDbEntity
  8
0
  6
Continuous
 62
     7
370
    40
100
AcDbLine
 10
1573.9135834439
 20
1444.868818243
 30
0.0
 11
1573.9135834439
 21
1462.0765413539
 31
0.0
  0
LINE
  5
16F
330
1F
100
AcDbEntity
  8
0
  6
Continuous
 62
     7
370
    40
100
AcDbLine
 10
1565.9135821326
 20
1467.8573797838
 30
0.0
 11
1573.9135834439
 21
1467.8573797838
 31
0.0
  0
LINE
  5
170
330
1F
100
AcDbEntity
  8
0
  6
Continuous
 62
     7
370
    40
100
AcDbLine
 10
1565.9135821326
 20
1462.0765413539
 30
0.0
 11
1565.9135821326
 21
1467.8573797838
 31
0.0
  0
LINE
  5
171
330
1F
100
AcDbEntity
  8
0
  6
Continuous
 62
     7
370
    40
100
AcDbLine
 10
1573.9135834439
 20
1462.0765413539
 30
0.0
 11
1573.9135834439
 21
1467.8573797838
 31
0.0
  0
LINE
  5
172
330
1F
100
AcDbEntity
  8
0
  6
Continuous
 62
     7
370
    40
100
AcDbLine
 10
1565.9135821326
 20
1410.0242176475
 30
0.0
 11
1568.4135797485
 21
1410.0242176475
 31
0.0
  0
LINE
  5
173
330
1F
100
AcDbEntity
  8
0
  6
Continuous
 62
     7
370
    40
100
AcDbLine
 10
1565.9135821326
 20
1444.868818243
 30
0.0
 11
1565.9135821326
 21
1410.0242176475
 31
0.0
  0
LINE
  5
174
330
1F
100
AcDbEntity
  8
0
  6
Continuous
 62
     7
370
    40
100
AcDbLine
 10
1571.4135858281
 20
1410.0242176475
 30
0.0
 11
1573.9135834439
 21
1410.0242176475
 31
0.0
  0
LINE
  5
175
330
1F
100
AcDbEntity
  8
0
  6
Continuous
 62
     7
370
    40
100
AcDbLine
 10
1573.9135834439
 20
1444.868818243
 30
0.0
 11
1573.9135834439
 21
1410.0242176475
 31
0.0
  0
LINE
  5
176
330
1F
100
AcDbEntity
  8
0
  6
Continuous
 62
     7
370
    40
100
AcDbLine
 10
1565.9135821326
 20
1394.3231518762
 30
0.0
 11
1573.9135834439
 21
1394.3231518762
 31
0.0
  0
LINE
  5
177
330
1F
100
AcDbEntity
  8
0
  6
Continuous
 62
     7
370
    40
100
AcDbLine
 10
1565.9135821326
 20
1394.3231518762
 30
0.0
 11
1565.9135821326
 21
1410.0242176475
 31
0.0
  0
LINE
  5
178
330
1F
100
AcDbEntity
  8
0
  6
Continuous
 62
     7
370
    40
100
AcDbLine
 10
1573.9135834439
 20
1394.3231518762
 30
0.0
 11
1573.9135834439
 21
1410.0242176475
 31
0.0
  0
LINE
  5
179
330
1F
100
AcDbEntity
  8
0
  6
Continuous
 62
     7
370
    40
100
AcDbLine
 10
1573.9135834439
 20
1484.9179278509
 30
0.0
 11
1573.9135834439
 21
1467.8573797838
 31
0.0
  0
LINE
  5
17A
330
1F
100
AcDbEntity
  8
0
  6
Continuous
 62
     7
370
    40
100
AcDbLine
 10
1520.9135803445
 20
1490.195524265
 30
0.0
 11
1520.9135803445
 21
1407.9235487999
 31
0.0
  0
ELLIPSE
  5
17B
330
1F
100
AcDbEntity
  8
0
  6
Continuous
 62
     7
370
    40
100
AcDbEllipse
 10
1568.913584636
 20
1497.9862613679
 30
0.0
 11
3.954924397651439
 21
3.954924397651439
 31
0.0
210
0.0
220
0.0
230
1.0
 40
0.7735112428
 41
5.624806019453301
 42
7.195602346248291
  0
LINE
  5
17C
330
1F
100
AcDbEntity
  8
0
  6
Continuous
 62
     7
370
    40
100
AcDbLine
 10
1573.9135834439
 20
1499.2428313391
 30
0.0
 11
1573.9135834439
 21
1484.9179278509
 31
0.0
  0
LINE
  5
17D
330
1F
100
AcDbEntity
  8
0
  6
Continuous
 62
     7
370
    40
100
AcDbLine
 10
1520.9135803445
 20
1490.195524265
 30
0.0
 11
1520.9135803445
 21
1495.5156038897
 31
0.0
  0
LINE
  5
17E
330
1F
100
AcDbEntity
  8
0
  6
Continuous
 62
     7
370
    40
100
AcDbLine
 10
1905.9135857089
 20
1446.2583384858
 30
0.0
 11
1881.913581775
 21
1446.2583384858
 31
0.0
  0
LINE
  5
17F
330
1F
100
AcDbEntity
  8
0
  6
Continuous
 62
     7
370
    40
100
AcDbLine
 10
1905.9135857089
 20
1401.8743404569
 30
0.0
 11
1905.9135857089
 21
1446.2583384858
 31
0.0
  0
LINE
  5
180
330
1F
100
AcDbEntity
  8
0
  6
Continuous
 62
     7
370
    40
100
AcDbLine
 10
1881.913581775
 20
1401.8743404569
 30
0.0
 11
1905.9135857089
 21
1401.8743404569
 31
0.0
  0
LINE
  5
181
330
1F
100
AcDbEntity
  8
0
  6
Continuous
 62
     7
370
    40
100
AcDbLine
 10
1881.913581775
 20
1413.4527746038
 30
0.0
 11
1881.913581775
 21
1401.8743404569
 31
0.0
  0
LINE
  5
182
330
1F
100
AcDbEntity
  8
0
  6
Continuous
 62
     7
370
    40
100
AcDbLine
 10
1886.4135834439
 20
1413.4527746038
 30
0.0
 11
1881.913581775
 21
1413.4527746038
 31
0.0
  0
LINE
  5
183
330
1F
100
AcDbEntity
  8
0
  6
Continuous
 62
     7
370
    40
100
AcDbLine
 10
1886.4135834439
 20
1434.6799034076
 30
0.0
 11
1886.4135834439
 21
1413.4527746038
 31
0.0
  0
LINE
  5
184
330
1F
100
AcDbEntity
  8
0
  6
Continuous
 62
     7
370
    40
100
AcDbLine
 10
1881.913581775
 20
1434.6799034076
 30
0.0
 11
1886.4135834439
 21
1434.6799034076
 31
0.0
  0
LINE
  5
185
330
1F
100
AcDbEntity
  8
0
  6
Continuous
 62
     7
370
    40
100
AcDbLine
 10
1881.913581775
 20
1446.2583384858
 30
0.0
 11
1881.913581775
 21
1434.6799034076
 31
0.0
  0
LINE
  5
186
330
1F
100
AcDbEntity
  8
0
  6
Continuous
 62
     7
370
    40
100
AcDbLine
 10
1905.9135857089
 20
1446.829360296
 30
0.0
 11
1881.913581775
 21
1446.829360296
 31
0.0
  0
LINE
  5
187
330
1F
100
AcDbEntity
  8
0
  6
Continuous
 62
     7
370
    40
100
AcDbLine
 10
1905.9135857089
 20
1446.2583384858
 30
0.0
 11
1905.9135857089
 21
1446.829360296
 31
0.0
  0
LINE
  5
188
330
1F
100
AcDbEntity
  8
0
  6
Continuous
 62
     7
370
    40
100
AcDbLine
 10
1881.913581775
 20
1446.2583384858
 30
0.0
 11
1881.913581775
 21
1446.829360296
 31
0.0
  0
LINE
  5
189
330
1F
100
AcDbEntity
  8
0
  6
Continuous
 62
     7
370
    40
100
AcDbLine
 10
1879.9135777219
 20
1445.8189274566
 30
0.0
 11
1879.9135777219
 21
1461.8307392494
 31
0.0
  0
LINE
  5
18A
330
1F
100
AcDbEntity
  8
0
  6
Continuous
 62
     7
370
    40
100
AcDbLine
 10
1879.9135777219
 20
1461.8307392494
 30
0.0
 11
1879.9236211045
 21
1462.068137099
 31
0.0
  0
SPLINE
  5
18B
330
1F
100
AcDbEntity
  8
0
  6
Continuous
 62
     7
370
    40
100
AcDbSpline
210
0.0
220
0.0
230
1.0
 70
     8
 71
     3
 72
    13
 73
     9
 74
     0
 42
0.00000001
 43
0.00000001
 12
1.0
 22
0.0
 32
0.0
 13
1.0
 23
0.0
 33
0.0
 40
0.0
 40
0.0
 40
0.0
 40
0.0
 40
0.0020067247871368
 40
0.1511640636165671
 40
0.4645587594973123
 40
0.6929635293882643
 40
0.8459986414702012
 40
1.0
 40
1.0
 40
1.0
 40
1.0
 10
1882.913583801571
 20
1464.228336085538
 30
0.0
 10
1882.91100092996
 20
1464.228811543217
 30
0.0
 10
1882.716436448102
 20
1464.264627174422
 30
0.0
 10
1882.11869114428
 20
1464.316936671897
 30
0.0
 10
1881.245839684711
 20
1464.126928772143
 30
0.0
 10
1880.501481438251
 20
1463.545440118283
 30
0.0
 10
1880.062048896712
 20
1462.855549561341
 30
0.0
 10
1879.969860407924
 20
1462.331158008047
 30
0.0
 10
1879.923621104541
 20
1462.068137099007
 30
0.0
  0
SPLINE
  5
18C
330
1F
100
AcDbEntity
  8
0
  6
Continuous
 62
     7
370
    40
100
AcDbSpline
210
0.0
220
0.0
230
1.0
 70
     8
 71
     3
 72
    13
 73
     9
 74
     0
 42
0.00000001
 43
0.00000001
 12
1.0
 22
0.0
 32
0.0
 13
1.0
 23
0.0
 33
0.0
 40
0.0
 40
0.0
 40
0.0
 40
0.0
 40
0.1399237102916958
 40
0.2791888561474916
 40
0.4756020749534944
 40
0.747962317317852
 40
0.9980795048453888
 40
1.0
 40
1.0
 40
1.0
 40
1.0
 10
1879.913577721897
 20
1445.818929319242
 30
0.0
 10
1879.934982279637
 20
1446.082924847307
 30
0.0
 10
1879.977690652501
 20
1446.609673383026
 30
0.0
 10
1880.32418551319
 20
1447.462510688581
 30
0.0
 10
1880.951366103413
 20
1448.366367802945
 30
0.0
 10
1881.864888945646
 20
1449.110369838271
 30
0.0
 10
1882.572038569587
 20
1449.410393009541
 30
0.0
 10
1882.911000951242
 20
1449.498740492035
 30
0.0
 10
1882.913583801571
 20
1449.499413688639
 30
0.0
  0
LINE
  5
18D
330
1F
100
AcDbEntity
  8
0
  6
Continuous
 62
     7
370
    40
100
AcDbLine
 10
1907.913589762
 20
1449.3875022428
 30
0.0
 11
1907.913589762
 21
1445.8189274566
 31
0.0
  0
SPLINE
  5
18E
330
1F
100
AcDbEntity
  8
0
  6
Continuous
 62
     7
370
    40
100
AcDbSpline
210
0.0
220
0.0
230
1.0
 70
     8
 71
     3
 72
    13
 73
     9
 74
     0
 42
0.00000001
 43
0.00000001
 12
1.0
 22
0.0
 32
0.0
 13
1.0
 23
0.0
 33
0.0
 40
0.0
 40
0.0
 40
0.0
 40
0.0
 40
0.1399236471848964
 40
0.2791887302309111
 40
0.475600482065667
 40
0.7479606015932077
 40
0.9980795057115487
 40
1.0
 40
1.0
 40
1.0
 40
1.0
 10
1907.913589762035
 20
1445.818929319242
 30
0.0
 10
1907.892185373772
 20
1446.082924941753
 30
0.0
 10
1907.849477339063
 20
1446.60967366592
 30
0.0
 10
1907.502980610463
 20
1447.462506899208
 30
0.0
 10
1906.875819777811
 20
1448.366372526912
 30
0.0
 10
1905.962293178931
 20
1449.11037207261
 30
0.0
 10
1905.255131362697
 20
1449.410392362393
 30
0.0
 10
1904.916166532599
 20
1449.498740491991
 30
0.0
 10
1904.913583682361
 20
1449.499413688639
 30
0.0
  0
LINE
  5
18F
330
1F
100
AcDbEntity
  8
0
  6
Continuous
 62
     7
370
    40
100
AcDbLine
 10
1907.913589762
 20
1445.8138945894
 30
0.0
 11
1907.913589762
 21
1445.8189274566
 31
0.0
  0
LINE
  5
190
330
1F
100
AcDbEntity
  8
0
  6
Continuous
 62
     7
370
    40
100
AcDbLine
 10
1879.9135777219
 20
1445.8138945894
 30
0.0
 11
1879.9135777219
 21
1445.8189274566
 31
0.0
  0
LINE
  5
191
330
1F
100
AcDbEntity
  8
0
  6
Continuous
 62
     7
370
    40
100
AcDbLine
 10
1886.4135834439
 20
1413.9782335525
 30
0.0
 11
1881.913581775
 21
1413.9782335525
 31
0.0
  0
LINE
  5
192
330
1F
100
AcDbEntity
  8
0
  6
Continuous
 62
     7
370
    40
100
AcDbLine
 10
1879.9135777219
 20
1403.3697027163
 30
0.0
 11
1879.9135777219
 21
1445.8138945894
 31
0.0
  0
LINE
  5
193
330
1F
100
AcDbEntity
  8
0
  6
Continuous
 62
     7
370
    40
100
AcDbLine
 10
1907.913589762
 20
1403.3697027163
 30
0.0
 11
1907.913589762
 21
1445.8138945894
 31
0.0
  0
LINE
  5
194
330
1F
100
AcDbEntity
  8
0
  6
Continuous
 62
     7
370
    40
100
AcDbLine
 10
1881.913581775
 20
1413.4527746038
 30
0.0
 11
1881.913581775
 21
1413.9782335525
 31
0.0
  0
SPLINE
  5
195
330
1F
100
AcDbEntity
  8
0
  6
Continuous
 62
     7
370
    40
100
AcDbSpline
210
0.0
220
0.0
230
1.0
 70
     8
 71
     3
 72
    12
 73
     8
 74
     0
 42
0.00000001
 43
0.00000001
 12
1.0
 22
0.0
 32
0.0
 13
1.0
 23
0.0
 33
0.0
 40
0.0
 40
0.0
 40
0.0
 40
0.0
 40
0.067710483149379
 40
0.407190283847161
 40
0.6520077214233615
 40
0.8255935360823073
 40
1.0
 40
1.0
 40
1.0
 40
1.0
 10
1882.12173609573
 20
1401.187435110072
 30
0.0
 10
1882.048981270528
 20
1401.178378376518
 30
0.0
 10
1881.611455845408
 20
1401.123913931208
 30
0.0
 10
1880.952708472033
 20
1401.38001641028
 30
0.0
 10
1880.323976663409
 20
1401.936188734596
 30
0.0
 10
1879.977735610304
 20
1402.608832208732
 30
0.0
 10
1879.934997280443
 20
1403.112328180913
 30
0.0
 10
1879.913577721897
 20
1403.364669849137
 30
0.0
  0
SPLINE
  5
196
330
1F
100
AcDbEntity
  8
0
  6
Continuous
 62
     7
370
    40
100
AcDbSpline
210
0.0
220
0.0
230
1.0
 70
     8
 71
     3
 72
    12
 73
     8
 74
     0
 42
0.00000001
 43
0.00000001
 12
1.0
 22
0.0
 32
0.0
 13
1.0
 23
0.0
 33
0.0
 40
0.0
 40
0.0
 40
0.0
 40
0.0
 40
0.1744063658777923
 40
0.3479920829581533
 40
0.5928076648397779
 40
0.9322872747042328
 40
1.0
 40
1.0
 40
1.0
 40
1.0
 10
1907.913589762035
 20
1403.364669849137
 30
0.0
 10
1907.892170345341
 20
1403.112328118513
 30
0.0
 10
1907.849432298518
 20
1402.608832021823
 30
0.0
 10
1907.503189844909
 20
1401.936191554645
 30
0.0
 10
1906.874474939671
 20
1401.380012771072
 30
0.0
 10
1906.215735710257
 20
1401.123914885482
 30
0.0
 10
1905.778191396999
 20
1401.17837829456
 30
0.0
 10
1905.705431388202
 20
1401.187435110072
 30
0.0
  0
LINE
  5
197
330
1F
100
AcDbEntity
  8
0
  6
Continuous
 62
     7
370
    40
100
AcDbLine
 10
1907.913589762
 20
1403.3646689178
 30
0.0
 11
1907.913589762
 21
1403.3697027163
 31
0.0
  0
LINE
  5
198
330
1F
100
AcDbEntity
  8
0
  6
Continuous
 62
     7
370
    40
100
AcDbLine
 10
1879.9135777219
 20
1403.3646689178
 30
0.0
 11
1879.9135777219
 21
1403.3697027163
 31
0.0
  0
LINE
  5
199
330
1F
100
AcDbEntity
  8
0
  6
Continuous
 62
     7
370
    40
100
AcDbLine
 10
1907.8662487729
 20
1449.7275132136
 30
0.0
 11
1907.913589762
 21
1449.3875022428
 31
0.0
  0
LINE
  5
19A
330
1F
100
AcDbEntity
  8
0
  6
Continuous
 62
     7
370
    40
100
AcDbLine
 10
1884.9135878547
 20
1464.2799499826
 30
0.0
 11
1884.9135878547
 21
1475.8469726341
 31
0.0
  0
LINE
  5
19B
330
1F
100
AcDbEntity
  8
0
  6
Continuous
 62
     7
370
    40
100
AcDbLine
 10
1887.9135790332
 20
1464.2799499826
 30
0.0
 11
1887.9135790332
 21
1475.8469726341
 31
0.0
  0
LINE
  5
19C
330
1F
100
AcDbEntity
  8
0
  6
Continuous
 62
     7
370
    40
100
AcDbLine
 10
1884.9135878547
 20
1475.8469726341
 30
0.0
 11
1884.9135878547
 21
1476.3739298479
 31
0.0
  0
LINE
  5
19D
330
1F
100
AcDbEntity
  8
0
  6
Continuous
 62
     7
370
    40
100
AcDbLine
 10
1887.9135790332
 20
1476.3739298479
 30
0.0
 11
1887.9135790332
 21
1475.8469726341
 31
0.0
  0
LINE
  5
19E
330
1F
100
AcDbEntity
  8
0
  6
Continuous
 62
     7
370
    40
100
AcDbLine
 10
1589.4135776027
 20
1466.8739292221
 30
0.0
 11
1868.4135916694
 21
1466.8739292221
 31
0.0
  0
LWPOLYLINE
  5
19F
330
1F
100
AcDbEntity
  8
0
  6
Continuous
 62
     7
370
    40
100
AcDbPolyline
 90
       11
 70
   128
 43
0.0
 10
1868.4135916694
 20
1466.8739292221
 10
1868.2658466561
 20
1466.7261879341
 10
1867.8262624009
 20
1466.2866074042
 10
1867.1056571468
 20
1465.5660096006
 10
1866.1217930778
 20
1464.5821343558
 10
1864.8988696798
 20
1463.3592109577
 10
1863.4670021995
 20
1461.927350928
 10
1861.8614765866
 20
1460.3218141393
 10
1860.1217958196
 20
1458.5821333723
 10
1858.2908007367
 20
1456.7511420147
 10
1856.4135822518
 20
1454.8739309804
  0
LWPOLYLINE
  5
1A0
330
1F
100
AcDbEntity
  8
0
  6
Continuous
 62
     7
370
    40
100
AcDbPolyline
 90
       11
 70
   128
 43
0.0
 10
1601.4135870202
 20
1454.8739309804
 10
1599.5363685353
 20
1456.7511420147
 10
1597.7053734525
 20
1458.5821333723
 10
1595.9656926854
 20
1460.3218141393
 10
1594.3601670726
 20
1461.927350928
 10
1592.9282995923
 20
1463.3592109577
 10
1591.7053761943
 20
1464.5821343558
 10
1590.7215121253
 20
1465.5660096006
 10
1590.0009068711
 20
1466.2866074042
 10
1589.5613226159
 20
1466.7261879341
 10
1589.4135776027
 20
1466.8739292221
  0
LINE
  5
1A1
330
1F
100
AcDbEntity
  8
0
  6
Continuous
 62
     7
370
    40
100
AcDbLine
 10
1868.4135916694
 20
1466.8739292221
 30
0.0
 11
1868.4135916694
 21
1119.8739151852
 31
0.0
  0
LWPOLYLINE
  5
1A2
330
1F
100
AcDbEntity
  8
0
  6
Continuous
 62
     7
370
    40
100
AcDbPolyline
 90
       11
 70
   128
 43
0.0
 10
1868.4135916694
 20
1119.8739151852
 10
1868.2658466561
 20
1120.0216750996
 10
1867.8262624009
 20
1120.4612593548
 10
1867.1056571468
 20
1121.1818497078
 10
1866.1217930778
 20
1122.1657137768
 10
1864.8988696798
 20
1123.388652076
 10
1863.4670021995
 20
1124.8205046551
 10
1861.8614765866
 20
1126.4260451691
 10
1860.1217958196
 20
1128.1657259362
 10
1858.2908007367
 20
1129.996721019
 10
1856.4135822518
 20
1131.8739395039
  0
LWPOLYLINE
  5
1A3
330
1F
100
AcDbEntity
  8
0
  6
Continuous
 62
     7
370
    40
100
AcDbPolyline
 90
       11
 70
   128
 43
0.0
 10
1601.4135870202
 20
1131.8739395039
 10
1599.5363685353
 20
1129.996721019
 10
1597.7053734525
 20
1128.1657259362
 10
1595.9656926854
 20
1126.4260451691
 10
1594.3601670726
 20
1124.8205046551
 10
1592.9282995923
 20
1123.388652076
 10
1591.7053761943
 20
1122.1657137768
 10
1590.7215121253
 20
1121.1818497078
 10
1590.0009068711
 20
1120.4612593548
 10
1589.5613226159
 20
1120.0216750996
 10
1589.4135776027
 20
1119.8739151852
  0
LINE
  5
1A4
330
1F
100
AcDbEntity
  8
0
  6
Continuous
 62
     7
370
    40
100
AcDbLine
 10
1589.4135776027
 20
1119.8739151852
 30
0.0
 11
1589.4135776027
 21
1466.8739292221
 31
0.0
  0
LINE
  5
1A5
330
1F
100
AcDbEntity
  8
0
  6
Continuous
 62
     7
370
    40
100
AcDbLine
 10
1868.4135916694
 20
1119.8739151852
 30
0.0
 11
1589.4135776027
 21
1119.8739151852
 31
0.0
  0
LINE
  5
1A6
330
1F
100
AcDbEntity
  8
0
  6
Continuous
 62
     7
370
    40
100
AcDbLine
 10
1868.9135852321
 20
1470.2986891763
 30
0.0
 11
1868.9135852321
 21
1119.3739216225
 31
0.0
  0
LINE
  5
1A7
330
1F
100
AcDbEntity
  8
0
  6
Continuous
 62
     7
370
    40
100
AcDbLine
 10
1868.9135852321
 20
1119.3739216225
 30
0.0
 11
1588.91358404
 21
1119.3739216225
 31
0.0
  0
LINE
  5
1A8
330
1F
100
AcDbEntity
  8
0
  6
Continuous
 62
     7
370
    40
100
AcDbLine
 10
1588.91358404
 20
1470.2986891763
 30
0.0
 11
1588.91358404
 21
1119.3739216225
 31
0.0
  0
LINE
  5
1A9
330
1F
100
AcDbEntity
  8
0
  6
Continuous
 62
     7
370
    40
100
AcDbLine
 10
1872.9135784372
 20
1432.373929155
 30
0.0
 11
1872.9135784372
 21
1402.3739298256
 31
0.0
  0
LINE
  5
1AA
330
1F
100
AcDbEntity
  8
0
  6
Continuous
 62
     7
370
    40
100
AcDbLine
 10
1584.9135908349
 20
1402.3739298256
 30
0.0
 11
1584.9135908349
 21
1432.373929155
 31
0.0
  0
LINE
  5
1AB
330
1F
100
AcDbEntity
  8
0
  6
Continuous
 62
     7
370
    40
100
AcDbLine
 10
1820.9755885466
 20
1503.3739324109
 30
0.0
 11
1819.6358400448
 21
1503.3739324109
 31
0.0
  0
LINE
  5
1AC
330
1F
100
AcDbEntity
  8
0
  6
Continuous
 62
     7
370
    40
100
AcDbLine
 10
1874.7135791047
 20
1479.373928477
 30
0.0
 11
1874.7135791047
 21
1481.3739325301
 31
0.0
  0
LINE
  5
1AD
330
1F
100
AcDbEntity
  8
0
  6
Continuous
 62
     7
370
    40
100
AcDbLine
 10
1819.6358400448
 20
1479.373928477
 30
0.0
 11
1819.6358400448
 21
1503.3739324109
 31
0.0
  0
LINE
  5
1AE
330
1F
100
AcDbEntity
  8
0
  6
Continuous
 62
     7
370
    40
100
AcDbLine
 10
1819.6358400448
 20
1503.3739324109
 30
0.0
 11
1638.1913292273
 21
1503.3739324109
 31
0.0
  0
LINE
  5
1AF
330
1F
100
AcDbEntity
  8
0
  6
Continuous
 62
     7
370
    40
100
AcDbLine
 10
1638.1913292273
 20
1479.373928477
 30
0.0
 11
1638.1913292273
 21
1503.3739324109
 31
0.0
  0
LINE
  5
1B0
330
1F
100
AcDbEntity
  8
0
  6
Continuous
 62
     7
370
    40
100
AcDbLine
 10
1638.1913292273
 20
1503.3739324109
 30
0.0
 11
1636.8515807255
 21
1503.3739324109
 31
0.0
  0
LINE
  5
1B1
330
1F
100
AcDbEntity
  8
0
  6
Continuous
 62
     7
370
    40
100
AcDbLine
 10
1583.1135901673
 20
1479.373928477
 30
0.0
 11
1583.1135901673
 21
1481.3739325301
 31
0.0
  0
ELLIPSE
  5
1B2
330
1F
100
AcDbEntity
  8
0
  6
Continuous
 62
     7
370
    40
100
AcDbEllipse
 10
1811.9625703501
 20
1479.3739294903
 30
0.0
 11
0.0
 21
10.0
 31
0.0
210
0.0
220
0.0
230
1.0
 40
0.767326988
 41
3.141592653589793
 42
4.7123889803847
  0
LINE
  5
1B3
330
1F
100
AcDbEntity
  8
0
  6
Continuous
 62
     7
370
    40
100
AcDbLine
 10
1811.9625690444
 20
1469.3739305632
 30
0.0
 11
1645.8646002277
 21
1469.3739305632
 31
0.0
  0
ELLIPSE
  5
1B4
330
1F
100
AcDbEntity
  8
0
  6
Continuous
 62
     7
370
    40
100
AcDbEllipse
 10
1645.8645989219
 20
1479.3739294903
 30
0.0
 11
0.0
 21
10.0
 31
0.0
210
0.0
220
0.0
230
1.0
 40
0.767326988
 41
1.570796326794897
 42
3.141592653589793
  0
LINE
  5
1B5
330
1F
100
AcDbEntity
  8
0
  6
Continuous
 62
     7
370
    40
100
AcDbLine
 10
1645.8646002277
 20
1469.3739305632
 30
0.0
 11
1593.1135806306
 21
1469.3739305632
 31
0.0
  0
ARC
  5
1B6
330
1F
100
AcDbEntity
  8
0
  6
Continuous
 62
     7
370
    40
100
AcDbCircle
 10
1593.113584636
 20
1479.3739294903
 30
0.0
 40
10.00000000000023
100
AcDbArc
 50
180.0
 51
270.0
  0
ARC
  5
1B7
330
1F
100
AcDbEntity
  8
0
  6
Continuous
 62
     7
370
    40
100
AcDbCircle
 10
1864.713584636
 20
1479.3739294903
 30
0.0
 40
10.00000000000023
100
AcDbArc
 50
270.0
 51
0.0
  0
LINE
  5
1B8
330
1F
100
AcDbEntity
  8
0
  6
Continuous
 62
     7
370
    40
100
AcDbLine
 10
1864.7135886415
 20
1469.3739305632
 30
0.0
 11
1811.9625690444
 21
1469.3739305632
 31
0.0
  0
LINE
  5
1B9
330
1F
100
AcDbEntity
  8
0
  6
Continuous
 62
     7
370
    40
100
AcDbLine
 10
1821.1826401814
 20
1503.3739324109
 30
0.0
 11
1820.9755885466
 21
1503.3739324109
 31
0.0
  0
LINE
  5
1BA
330
1F
100
AcDbEntity
  8
0
  6
Continuous
 62
     7
370
    40
100
AcDbLine
 10
1636.8515807255
 20
1503.3739324109
 30
0.0
 11
1636.6445290907
 21
1503.3739324109
 31
0.0
  0
LINE
  5
1BB
330
1F
100
AcDbEntity
  8
0
  6
Continuous
 62
     7
370
    40
100
AcDbLine
 10
1636.6445290907
 20
1503.3739324109
 30
0.0
 11
1636.6445290907
 21
1491.373930444
 31
0.0
  0
LINE
  5
1BC
330
1F
100
AcDbEntity
  8
0
  6
Continuous
 62
     7
370
    40
100
AcDbLine
 10
1632.5034218891
 20
1507.3739330666
 30
0.0
 11
1632.5034218891
 21
1491.373930444
 31
0.0
  0
LINE
  5
1BD
330
1F
100
AcDbEntity
  8
0
  6
Continuous
 62
     7
370
    40
100
AcDbLine
 10
1825.3237473829
 20
1507.3739330666
 30
0.0
 11
1632.5034218891
 21
1507.3739330666
 31
0.0
  0
LINE
  5
1BE
330
1F
100
AcDbEntity
  8
0
  6
Continuous
 62
     7
370
    40
100
AcDbLine
 10
1825.3237473829
 20
1507.3739330666
 30
0.0
 11
1825.3237473829
 21
1491.373930444
 31
0.0
  0
LINE
  5
1BF
330
1F
100
AcDbEntity
  8
0
  6
Continuous
 62
     7
370
    40
100
AcDbLine
 10
1821.1826401814
 20
1503.3739324109
 30
0.0
 11
1821.1826401814
 21
1491.373930444
 31
0.0
  0
LINE
  5
1C0
330
1F
100
AcDbEntity
  8
0
  6
Continuous
 62
     7
370
    40
100
AcDbLine
 10
1825.3237473829
 20
1507.3739330666
 30
0.0
 11
1878.9135905965
 21
1507.3739330666
 31
0.0
  0
LINE
  5
1C1
330
1F
100
AcDbEntity
  8
0
  6
Continuous
 62
     7
370
    40
100
AcDbLine
 10
1878.9135905965
 20
1481.3739325301
 30
0.0
 11
1878.9135905965
 21
1507.3739330666
 31
0.0
  0
LINE
  5
1C2
330
1F
100
AcDbEntity
  8
0
  6
Continuous
 62
     7
370
    40
100
AcDbLine
 10
1828.0032369359
 20
1481.3739325301
 30
0.0
 11
1878.9135905965
 21
1481.3739325301
 31
0.0
  0
ELLIPSE
  5
1C3
330
1F
100
AcDbEntity
  8
0
  6
Continuous
 62
     7
370
    40
100
AcDbEllipse
 10
1828.0032380741
 20
1491.3739294903
 30
0.0
 11
0.0
 21
10.0
 31
0.0
210
0.0
220
0.0
230
1.0
 40
0.2679491924
 41
1.570796326794897
 42
3.141592653589793
  0
LINE
  5
1C4
330
1F
100
AcDbEntity
  8
0
  6
Continuous
 62
     7
370
    40
100
AcDbLine
 10
1578.9135786756
 20
1481.3739325301
 30
0.0
 11
1578.9135786756
 21
1507.3739330666
 31
0.0
  0
LINE
  5
1C5
330
1F
100
AcDbEntity
  8
0
  6
Continuous
 62
     7
370
    40
100
AcDbLine
 10
1578.9135786756
 20
1507.3739330666
 30
0.0
 11
1632.5034218891
 21
1507.3739330666
 31
0.0
  0
ELLIPSE
  5
1C6
330
1F
100
AcDbEntity
  8
0
  6
Continuous
 62
     7
370
    40
100
AcDbEllipse
 10
1629.8239311979
 20
1491.3739294903
 30
0.0
 11
0.0
 21
10.0
 31
0.0
210
0.0
220
0.0
230
1.0
 40
0.2679491924
 41
3.141592653589793
 42
4.712388980384693
  0
LINE
  5
1C7
330
1F
100
AcDbEntity
  8
0
  6
Continuous
 62
     7
370
    40
100
AcDbLine
 10
1578.9135786756
 20
1481.3739325301
 30
0.0
 11
1629.8239323362
 21
1481.3739325301
 31
0.0
  0
LINE
  5
1C8
330
1F
100
AcDbEntity
  8
0
  6
Continuous
 62
     7
370
    40
100
AcDbLine
 10
1828.0032369359
 20
1481.3739325301
 30
0.0
 11
1823.8621297343
 21
1481.3739325301
 31
0.0
  0
ELLIPSE
  5
1C9
330
1F
100
AcDbEntity
  8
0
  6
Continuous
 62
     7
370
    40
100
AcDbEllipse
 10
1823.8621333525
 20
1491.3739294903
 30
0.0
 11
0.0
 21
10.0
 31
0.0
210
0.0
220
0.0
230
1.0
 40
0.2679491924
 41
1.570796326794897
 42
3.141592653589793
  0
LINE
  5
1CA
330
1F
100
AcDbEntity
  8
0
  6
Continuous
 62
     7
370
    40
100
AcDbLine
 10
1633.9650395377
 20
1481.3739325301
 30
0.0
 11
1629.8239323362
 21
1481.3739325301
 31
0.0
  0
ELLIPSE
  5
1CB
330
1F
100
AcDbEntity
  8
0
  6
Continuous
 62
     7
370
    40
100
AcDbEllipse
 10
1633.9650359196
 20
1491.3739294903
 30
0.0
 11
0.0
 21
10.0
 31
0.0
210
0.0
220
0.0
230
1.0
 40
0.2679491924
 41
3.141592653589793
 42
4.712388980384693
  0
LINE
  5
1CC
330
1F
100
AcDbEntity
  8
0
  6
Continuous
 62
     7
370
    40
100
AcDbLine
 10
1874.9135824903
 20
1463.3458781438
 30
0.0
 11
1874.9135824903
 21
1481.3739325301
 31
0.0
  0
LINE
  5
1CD
330
1F
100
AcDbEntity
  8
0
  6
Continuous
 62
     7
370
    40
100
AcDbLine
 10
1878.9135905965
 20
1481.3739325301
 30
0.0
 11
1878.9135905965
 21
1463.3458781438
 31
0.0
  0
LINE
  5
1CE
330
1F
100
AcDbEntity
  8
0
  6
Continuous
 62
     7
370
    40
100
AcDbLine
 10
1582.9135867818
 20
1481.3739325301
 30
0.0
 11
1582.9135867818
 21
1463.3458781438
 31
0.0
  0
LINE
  5
1CF
330
1F
100
AcDbEntity
  8
0
  6
Continuous
 62
     7
370
    40
100
AcDbLine
 10
1578.9135786756
 20
1463.3458781438
 30
0.0
 11
1578.9135786756
 21
1481.3739325301
 31
0.0
  0
LINE
  5
1D0
330
1F
100
AcDbEntity
  8
0
  6
Continuous
 62
     7
370
    40
100
AcDbLine
 10
1582.9135867818
 20
1463.3458781438
 30
0.0
 11
1582.9135867818
 21
1456.4622606532
 31
0.0
  0
LINE
  5
1D1
330
1F
100
AcDbEntity
  8
0
  6
Continuous
 62
     7
370
    40
100
AcDbLine
 10
1578.9135786756
 20
1456.4622606532
 30
0.0
 11
1578.9135786756
 21
1463.3458781438
 31
0.0
  0
LINE
  5
1D2
330
1F
100
AcDbEntity
  8
0
  6
Continuous
 62
     7
370
    40
100
AcDbLine
 10
1874.9135824903
 20
1456.4622606532
 30
0.0
 11
1874.9135824903
 21
1463.3458781438
 31
0.0
  0
LINE
  5
1D3
330
1F
100
AcDbEntity
  8
0
  6
Continuous
 62
     7
370
    40
100
AcDbLine
 10
1878.9135905965
 20
1463.3458781438
 30
0.0
 11
1878.9135905965
 21
1456.4622606532
 31
0.0
  0
LINE
  5
1D4
330
1F
100
AcDbEntity
  8
0
  6
Continuous
 62
     7
370
    40
100
AcDbLine
 10
1582.9135867818
 20
1406.1552363829
 30
0.0
 11
1582.9135867818
 21
1456.4622606532
 31
0.0
  0
LINE
  5
1D5
330
1F
100
AcDbEntity
  8
0
  6
Continuous
 62
     7
370
    40
100
AcDbLine
 10
1578.9135786756
 20
1456.4622606532
 30
0.0
 11
1578.9135786756
 21
1406.1552363829
 31
0.0
  0
LINE
  5
1D6
330
1F
100
AcDbEntity
  8
0
  6
Continuous
 62
     7
370
    40
100
AcDbLine
 10
1874.9135824903
 20
1456.4622606532
 30
0.0
 11
1874.9135824903
 21
1406.1552363829
 31
0.0
  0
LINE
  5
1D7
330
1F
100
AcDbEntity
  8
0
  6
Continuous
 62
     7
370
    40
100
AcDbLine
 10
1878.9135905965
 20
1456.4622606532
 30
0.0
 11
1878.9135905965
 21
1406.1552363829
 31
0.0
  0
LINE
  5
1D8
330
1F
100
AcDbEntity
  8
0
  6
Continuous
 62
     7
370
    40
100
AcDbLine
 10
1582.9135867818
 20
1397.3739299373
 30
0.0
 11
1578.9135786756
 21
1397.3739299373
 31
0.0
  0
LINE
  5
1D9
330
1F
100
AcDbEntity
  8
0
  6
Continuous
 62
     7
370
    40
100
AcDbLine
 10
1582.9135867818
 20
1406.1552363829
 30
0.0
 11
1582.9135867818
 21
1397.3739299373
 31
0.0
  0
LINE
  5
1DA
330
1F
100
AcDbEntity
  8
0
  6
Continuous
 62
     7
370
    40
100
AcDbLine
 10
1578.9135786756
 20
1397.3739299373
 30
0.0
 11
1578.9135786756
 21
1406.1552363829
 31
0.0
  0
LINE
  5
1DB
330
1F
100
AcDbEntity
  8
0
  6
Continuous
 62
     7
370
    40
100
AcDbLine
 10
1878.9135905965
 20
1397.3739299373
 30
0.0
 11
1874.9135824903
 21
1397.3739299373
 31
0.0
  0
LINE
  5
1DC
330
1F
100
AcDbEntity
  8
0
  6
Continuous
 62
     7
370
    40
100
AcDbLine
 10
1874.9135824903
 20
1397.3739299373
 30
0.0
 11
1874.9135824903
 21
1406.1552363829
 31
0.0
  0
LINE
  5
1DD
330
1F
100
AcDbEntity
  8
0
  6
Continuous
 62
     7
370
    40
100
AcDbLine
 10
1878.9135905965
 20
1406.1552363829
 30
0.0
 11
1878.9135905965
 21
1397.3739299373
 31
0.0
  0
LINE
  5
1DE
330
1F
100
AcDbEntity
  8
0
  6
Continuous
 62
     7
370
    40
100
AcDbLine
 10
1546.9135883315
 20
777.3402382119
 30
0.0
 11
1565.9135821326
 21
777.3402382119
 31
0.0
  0
SPLINE
  5
1DF
330
1F
100
AcDbEntity
  8
0
  6
Continuous
 62
     7
370
    40
100
AcDbSpline
210
0.0
220
0.0
230
1.0
 70
     8
 71
     3
 72
    23
 73
    19
 74
     0
 42
0.00000001
 43
0.00000001
 12
1.0
 22
0.0
 32
0.0
 13
1.0
 23
0.0
 33
0.0
 40
0.0
 40
0.0
 40
0.0
 40
0.0
 40
0.0458414383110571
 40
0.0924268813602619
 40
0.1388547392529085
 40
0.1871791426704129
 40
0.2399593117137558
 40
0.3007135574689067
 40
0.3734378010910714
 40
0.4568809013606397
 40
0.5387011786889181
 40
0.6165920228946624
 40
0.6919861187121319
 40
0.7658918043321409
 40
0.8388941608075436
 40
0.9113532258624965
 40
0.9796404378067965
 40
1.0
 40
1.0
 40
1.0
 40
1.0
 10
1520.913580344501
 20
787.6178345141973
 30
0.0
 10
1520.941728646367
 20
787.1677210766928
 30
0.0
 10
1520.998482095928
 20
786.2601888783224
 30
0.0
 10
1521.436750053956
 20
784.9874021818987
 30
0.0
 10
1522.077855638104
 20
783.8513564780286
 30
0.0
 10
1522.903623155846
 20
782.8577752583127
 30
0.0
 10
1523.911721026032
 20
781.968885743735
 30
0.0
 10
1525.163876772417
 20
781.1402005619376
 30
0.0
 10
1526.747091815987
 20
780.3503887492615
 30
0.0
 10
1528.67670644805
 20
779.6278194550785
 30
0.0
 10
1530.880619209836
 20
779.0029695637146
 30
0.0
 10
1533.227729077826
 20
778.4923813963533
 30
0.0
 10
1535.680213915502
 20
778.0838301550617
 30
0.0
 10
1538.231035551312
 20
777.7665087249217
 30
0.0
 10
1540.865080063456
 20
777.5355481860544
 30
0.0
 10
1543.511531251919
 20
777.3928728634387
 30
0.0
 10
1545.539338607664
 20
777.343963602587
 30
0.0
 10
1546.656914053094
 20
777.3409340184282
 30
0.0
 10
1546.913588331523
 20
777.3402382118668
 30
0.0
  0
ARC
  5
1E0
330
1F
100
AcDbEntity
  8
0
  6
Continuous
 62
     7
370
    40
100
AcDbCircle
 10
1525.913584636
 20
875.2098896717
 30
0.0
 40
5.000000000000087
100
AcDbArc
 50
98.5749438344
 51
180.0
  0
LINE
  5
1E1
330
1F
100
AcDbEntity
  8
0
  6
Continuous
 62
     7
370
    40
100
AcDbLine
 10
1541.552984999
 20
882.62465526
 30
0.0
 11
1525.1680704816
 21
880.1539980305
 31
0.0
  0
LINE
  5
1E2
330
1F
100
AcDbEntity
  8
0
  6
Continuous
 62
     7
370
    40
100
AcDbLine
 10
1570.1701584323
 20
882.6805495156
 30
0.0
 11
1542.2985049947
 21
882.6805495156
 31
0.0
  0
ARC
  5
1E3
330
1F
100
AcDbEntity
  8
0
  6
Continuous
 62
     7
370
    40
100
AcDbCircle
 10
1542.2985044608
 20
877.6805470822
 30
0.0
 40
5.000000000000009
100
AcDbArc
 50
90.0
 51
98.5749438344
  0
LINE
  5
1E4
330
1F
100
AcDbEntity
  8
0
  6
Continuous
 62
     7
370
    40
100
AcDbLine
 10
1882.1217360957
 20
780.8521774096
 30
0.0
 11
1905.7054313882
 21
780.8521774096
 31
0.0
  0
SPLINE
  5
1E5
330
1F
100
AcDbEntity
  8
0
  6
Continuous
 62
     7
370
    40
100
AcDbSpline
210
0.0
220
0.0
230
1.0
 70
     8
 71
     3
 72
    15
 73
    11
 74
     0
 42
0.00000001
 43
0.00000001
 12
1.0
 22
0.0
 32
0.0
 13
1.0
 23
0.0
 33
0.0
 40
0.0
 40
0.0
 40
0.0
 40
0.0
 40
0.0606418480877898
 40
0.1955069849826612
 40
0.328917662427187
 40
0.4623448862303622
 40
0.597261838101117
 40
0.7350746869943497
 40
0.8765421429072285
 40
1.0
 40
1.0
 40
1.0
 40
1.0
 10
1907.851153896633
 20
829.4282474054064
 30
0.0
 10
1907.85134403524
 20
829.762064788629
 30
0.0
 10
1907.851957034794
 20
830.8382791881999
 30
0.0
 10
1907.515476990064
 20
832.6033974627034
 30
0.0
 10
1906.860837719333
 20
834.6916820909048
 30
0.0
 10
1905.889482959975
 20
836.6778641448213
 30
0.0
 10
1904.630230845024
 20
838.5689223450257
 30
0.0
 10
1903.064643298753
 20
840.3652018410402
 30
0.0
 10
1901.312330423781
 20
841.9974417924525
 30
0.0
 10
1899.951008037684
 20
842.969404469345
 30
0.0
 10
1899.316618130985
 20
843.4223488403525
 30
0.0
  0
LINE
  5
1E6
330
1F
100
AcDbEntity
  8
0
  6
Continuous
 62
     7
370
    40
100
AcDbLine
 10
1897.6281973584
 20
843.9742356969
 30
0.0
 11
1882.3607060178
 21
843.9742356969
 31
0.0
  0
ARC
  5
1E7
330
1F
100
AcDbEntity
  8
0
  6
Continuous
 62
     7
370
    40
100
AcDbCircle
 10
1897.628195537
 20
840.9742352551
 30
0.0
 40
3.000000000000114
100
AcDbArc
 50
55.5053022357
 51
90.0
  0
LINE
  5
1E8
330
1F
100
AcDbEntity
  8
0
  6
Continuous
 62
     7
370
    40
100
AcDbLine
 10
1887.9135790332
 20
856.0682155622
 30
0.0
 11
1884.9135878547
 21
856.0682155622
 31
0.0
  0
LINE
  5
1E9
330
1F
100
AcDbEntity
  8
0
  6
Continuous
 62
     7
370
    40
100
AcDbLine
 10
1868.9135852321
 20
782.0682155399
 30
0.0
 11
1872.9135784372
 21
782.0682155399
 31
0.0
  0
LINE
  5
1EA
330
1F
100
AcDbEntity
  8
0
  6
Continuous
 62
     7
370
    40
100
AcDbLine
 10
1872.9135784372
 20
812.0682148693
 30
0.0
 11
1868.9135852321
 21
812.0682148693
 31
0.0
  0
LINE
  5
1EB
330
1F
100
AcDbEntity
  8
0
  6
Continuous
 62
     7
370
    40
100
AcDbLine
 10
1588.91358404
 20
812.0682148693
 30
0.0
 11
1584.9135908349
 21
812.0682148693
 31
0.0
  0
LINE
  5
1EC
330
1F
100
AcDbEntity
  8
0
  6
Continuous
 62
     7
370
    40
100
AcDbLine
 10
1584.9135908349
 20
782.0682155399
 30
0.0
 11
1588.91358404
 21
782.0682155399
 31
0.0
  0
LINE
  5
1ED
330
1F
100
AcDbEntity
  8
0
  6
Continuous
 62
     7
370
    40
100
AcDbLine
 10
1874.9135824903
 20
802.0682150928
 30
0.0
 11
1872.9135784372
 21
802.0682150928
 31
0.0
  0
LINE
  5
1EE
330
1F
100
AcDbEntity
  8
0
  6
Continuous
 62
     7
370
    40
100
AcDbLine
 10
1584.9135908349
 20
802.0682150928
 30
0.0
 11
1582.9135867818
 21
802.0682150928
 31
0.0
  0
LINE
  5
1EF
330
1F
100
AcDbEntity
  8
0
  6
Continuous
 62
     7
370
    40
100
AcDbLine
 10
1582.9135867818
 20
792.0682153164
 30
0.0
 11
1584.9135908349
 21
792.0682153164
 31
0.0
  0
LINE
  5
1F0
330
1F
100
AcDbEntity
  8
0
  6
Continuous
 62
     7
370
    40
100
AcDbLine
 10
1872.9135784372
 20
792.0682153164
 30
0.0
 11
1874.9135824903
 21
792.0682153164
 31
0.0
  0
LINE
  5
1F1
330
1F
100
AcDbEntity
  8
0
  6
Continuous
 62
     7
370
    40
100
AcDbLine
 10
1568.4135797485
 20
787.4371951876
 30
0.0
 11
1571.4135858281
 21
787.4371951876
 31
0.0
  0
LINE
  5
1F2
330
1F
100
AcDbEntity
  8
0
  6
Continuous
 62
     7
370
    40
100
AcDbLine
 10
1568.4135797485
 20
808.2471650524
 30
0.0
 11
1571.4135858281
 21
808.2471650524
 31
0.0
  0
LINE
  5
1F3
330
1F
100
AcDbEntity
  8
0
  6
Continuous
 62
     7
370
    40
100
AcDbLine
 10
1568.4135797485
 20
808.2471650524
 30
0.0
 11
1568.4135797485
 21
787.4371951876
 31
0.0
  0
LINE
  5
1F4
330
1F
100
AcDbEntity
  8
0
  6
Continuous
 62
     7
370
    40
100
AcDbLine
 10
1571.4135858281
 20
808.2471650524
 30
0.0
 11
1571.4135858281
 21
787.4371951876
 31
0.0
  0
LINE
  5
1F5
330
1F
100
AcDbEntity
  8
0
  6
Continuous
 62
     7
370
    40
100
AcDbLine
 10
1568.4135797485
 20
816.2892174406
 30
0.0
 11
1571.4135858281
 21
816.2892174406
 31
0.0
  0
LINE
  5
1F6
330
1F
100
AcDbEntity
  8
0
  6
Continuous
 62
     7
370
    40
100
AcDbLine
 10
1568.4135797485
 20
808.2471650524
 30
0.0
 11
1568.4135797485
 21
816.2892174406
 31
0.0
  0
LINE
  5
1F7
330
1F
100
AcDbEntity
  8
0
  6
Continuous
 62
     7
370
    40
100
AcDbLine
 10
1571.4135858281
 20
816.2892174406
 30
0.0
 11
1571.4135858281
 21
808.2471650524
 31
0.0
  0
LINE
  5
1F8
330
1F
100
AcDbEntity
  8
0
  6
Continuous
 62
     7
370
    40
100
AcDbLine
 10
1568.4135797485
 20
824.5631039573
 30
0.0
 11
1571.4135858281
 21
824.5631039573
 31
0.0
  0
LINE
  5
1F9
330
1F
100
AcDbEntity
  8
0
  6
Continuous
 62
     7
370
    40
100
AcDbLine
 10
1568.4135797485
 20
816.2892174406
 30
0.0
 11
1568.4135797485
 21
824.5631039573
 31
0.0
  0
LINE
  5
1FA
330
1F
100
AcDbEntity
  8
0
  6
Continuous
 62
     7
370
    40
100
AcDbLine
 10
1571.4135858281
 20
824.5631039573
 30
0.0
 11
1571.4135858281
 21
816.2892174406
 31
0.0
  0
LINE
  5
1FB
330
1F
100
AcDbEntity
  8
0
  6
Continuous
 62
     7
370
    40
100
AcDbLine
 10
1565.9135821326
 20
841.7708270682
 30
0.0
 11
1573.9135834439
 21
841.7708270682
 31
0.0
  0
LINE
  5
1FC
330
1F
100
AcDbEntity
  8
0
  6
Continuous
 62
     7
370
    40
100
AcDbLine
 10
1571.4135858281
 20
824.5631039573
 30
0.0
 11
1573.9135834439
 21
824.5631039573
 31
0.0
  0
LINE
  5
1FD
330
1F
100
AcDbEntity
  8
0
  6
Continuous
 62
     7
370
    40
100
AcDbLine
 10
1565.9135821326
 20
824.5631039573
 30
0.0
 11
1568.4135797485
 21
824.5631039573
 31
0.0
  0
LINE
  5
1FE
330
1F
100
AcDbEntity
  8
0
  6
Continuous
 62
     7
370
    40
100
AcDbLine
 10
1565.9135821326
 20
824.5631039573
 30
0.0
 11
1565.9135821326
 21
841.7708270682
 31
0.0
  0
LINE
  5
1FF
330
1F
100
AcDbEntity
  8
0
  6
Continuous
 62
     7
370
    40
100
AcDbLine
 10
1573.9135834439
 20
824.5631039573
 30
0.0
 11
1573.9135834439
 21
841.7708270682
 31
0.0
  0
LINE
  5
200
330
1F
100
AcDbEntity
  8
0
  6
Continuous
 62
     7
370
    40
100
AcDbLine
 10
1565.9135821326
 20
847.5516654981
 30
0.0
 11
1573.9135834439
 21
847.5516654981
 31
0.0
  0
LINE
  5
201
330
1F
100
AcDbEntity
  8
0
  6
Continuous
 62
     7
370
    40
100
AcDbLine
 10
1565.9135821326
 20
841.7708270682
 30
0.0
 11
1565.9135821326
 21
847.5516654981
 31
0.0
  0
LINE
  5
202
330
1F
100
AcDbEntity
  8
0
  6
Continuous
 62
     7
370
    40
100
AcDbLine
 10
1573.9135834439
 20
841.7708270682
 30
0.0
 11
1573.9135834439
 21
847.5516654981
 31
0.0
  0
LINE
  5
203
330
1F
100
AcDbEntity
  8
0
  6
Continuous
 62
     7
370
    40
100
AcDbLine
 10
1565.9135821326
 20
789.7185033618
 30
0.0
 11
1568.4135797485
 21
789.7185033618
 31
0.0
  0
LINE
  5
204
330
1F
100
AcDbEntity
  8
0
  6
Continuous
 62
     7
370
    40
100
AcDbLine
 10
1565.9135821326
 20
824.5631039573
 30
0.0
 11
1565.9135821326
 21
789.7185033618
 31
0.0
  0
LINE
  5
205
330
1F
100
AcDbEntity
  8
0
  6
Continuous
 62
     7
370
    40
100
AcDbLine
 10
1571.4135858281
 20
789.7185033618
 30
0.0
 11
1573.9135834439
 21
789.7185033618
 31
0.0
  0
LINE
  5
206
330
1F
100
AcDbEntity
  8
0
  6
Continuous
 62
     7
370
    40
100
AcDbLine
 10
1573.9135834439
 20
824.5631039573
 30
0.0
 11
1573.9135834439
 21
789.7185033618
 31
0.0
  0
LINE
  5
207
330
1F
100
AcDbEntity
  8
0
  6
Continuous
 62
     7
370
    40
100
AcDbLine
 10
1565.9135821326
 20
774.0174375905
 30
0.0
 11
1573.9135834439
 21
774.0174375905
 31
0.0
  0
LINE
  5
208
330
1F
100
AcDbEntity
  8
0
  6
Continuous
 62
     7
370
    40
100
AcDbLine
 10
1565.9135821326
 20
774.0174375905
 30
0.0
 11
1565.9135821326
 21
789.7185033618
 31
0.0
  0
LINE
  5
209
330
1F
100
AcDbEntity
  8
0
  6
Continuous
 62
     7
370
    40
100
AcDbLine
 10
1573.9135834439
 20
774.0174375905
 30
0.0
 11
1573.9135834439
 21
789.7185033618
 31
0.0
  0
LINE
  5
20A
330
1F
100
AcDbEntity
  8
0
  6
Continuous
 62
     7
370
    40
100
AcDbLine
 10
1520.9135803445
 20
869.8898099793
 30
0.0
 11
1520.9135803445
 21
787.6178345142
 31
0.0
  0
LINE
  5
20B
330
1F
100
AcDbEntity
  8
0
  6
Continuous
 62
     7
370
    40
100
AcDbLine
 10
1573.9135834439
 20
864.6122135652
 30
0.0
 11
1573.9135834439
 21
847.5516654981
 31
0.0
  0
ELLIPSE
  5
20C
330
1F
100
AcDbEntity
  8
0
  6
Continuous
 62
     7
370
    40
100
AcDbEllipse
 10
1568.913584636
 20
877.6805470822
 30
0.0
 11
3.954924397651439
 21
3.954924397651211
 31
0.0
210
0.0
220
0.0
230
1.0
 40
0.7735112428
 41
5.624806019453396
 42
7.195602346248278
  0
LINE
  5
20D
330
1F
100
AcDbEntity
  8
0
  6
Continuous
 62
     7
370
    40
100
AcDbLine
 10
1573.9135834439
 20
878.9371170534
 30
0.0
 11
1573.9135834439
 21
864.6122135652
 31
0.0
  0
LINE
  5
20E
330
1F
100
AcDbEntity
  8
0
  6
Continuous
 62
     7
370
    40
100
AcDbLine
 10
1520.9135803445
 20
869.8898099793
 30
0.0
 11
1520.9135803445
 21
875.209889604
 31
0.0
  0
LINE
  5
20F
330
1F
100
AcDbEntity
  8
0
  6
Continuous
 62
     7
370
    40
100
AcDbLine
 10
1905.9135857089
 20
825.9526242001
 30
0.0
 11
1881.913581775
 21
825.9526242001
 31
0.0
  0
LINE
  5
210
330
1F
100
AcDbEntity
  8
0
  6
Continuous
 62
     7
370
    40
100
AcDbLine
 10
1905.9135857089
 20
781.5686261712
 30
0.0
 11
1905.9135857089
 21
825.9526242001
 31
0.0
  0
LINE
  5
211
330
1F
100
AcDbEntity
  8
0
  6
Continuous
 62
     7
370
    40
100
AcDbLine
 10
1881.913581775
 20
781.5686261712
 30
0.0
 11
1905.9135857089
 21
781.5686261712
 31
0.0
  0
LINE
  5
212
330
1F
100
AcDbEntity
  8
0
  6
Continuous
 62
     7
370
    40
100
AcDbLine
 10
1881.913581775
 20
793.1470603181
 30
0.0
 11
1881.913581775
 21
781.5686261712
 31
0.0
  0
LINE
  5
213
330
1F
100
AcDbEntity
  8
0
  6
Continuous
 62
     7
370
    40
100
AcDbLine
 10
1886.4135834439
 20
793.1470603181
 30
0.0
 11
1881.913581775
 21
793.1470603181
 31
0.0
  0
LINE
  5
214
330
1F
100
AcDbEntity
  8
0
  6
Continuous
 62
     7
370
    40
100
AcDbLine
 10
1886.4135834439
 20
814.3741891218
 30
0.0
 11
1886.4135834439
 21
793.1470603181
 31
0.0
  0
LINE
  5
215
330
1F
100
AcDbEntity
  8
0
  6
Continuous
 62
     7
370
    40
100
AcDbLine
 10
1881.913581775
 20
814.3741891218
 30
0.0
 11
1886.4135834439
 21
814.3741891218
 31
0.0
  0
LINE
  5
216
330
1F
100
AcDbEntity
  8
0
  6
Continuous
 62
     7
370
    40
100
AcDbLine
 10
1881.913581775
 20
825.9526242001
 30
0.0
 11
1881.913581775
 21
814.3741891218
 31
0.0
  0
LINE
  5
217
330
1F
100
AcDbEntity
  8
0
  6
Continuous
 62
     7
370
    40
100
AcDbLine
 10
1881.913581775
 20
825.9526242001
 30
0.0
 11
1881.913581775
 21
826.5236460103
 31
0.0
  0
LINE
  5
218
330
1F
100
AcDbEntity
  8
0
  6
Continuous
 62
     7
370
    40
100
AcDbLine
 10
1905.9135857089
 20
826.5236460103
 30
0.0
 11
1881.913581775
 21
826.5236460103
 31
0.0
  0
LINE
  5
219
330
1F
100
AcDbEntity
  8
0
  6
Continuous
 62
     7
370
    40
100
AcDbLine
 10
1905.9135857089
 20
825.9526242001
 30
0.0
 11
1905.9135857089
 21
826.5236460103
 31
0.0
  0
LINE
  5
21A
330
1F
100
AcDbEntity
  8
0
  6
Continuous
 62
     7
370
    40
100
AcDbLine
 10
1879.9135777219
 20
825.5132131709
 30
0.0
 11
1879.9135777219
 21
841.5250249637
 31
0.0
  0
LINE
  5
21B
330
1F
100
AcDbEntity
  8
0
  6
Continuous
 62
     7
370
    40
100
AcDbLine
 10
1879.9135777219
 20
841.5250249637
 30
0.0
 11
1879.9236211045
 21
841.7624228133
 31
0.0
  0
SPLINE
  5
21C
330
1F
100
AcDbEntity
  8
0
  6
Continuous
 62
     7
370
    40
100
AcDbSpline
210
0.0
220
0.0
230
1.0
 70
     8
 71
     3
 72
    13
 73
     9
 74
     0
 42
0.00000001
 43
0.00000001
 12
1.0
 22
0.0
 32
0.0
 13
1.0
 23
0.0
 33
0.0
 40
0.0
 40
0.0
 40
0.0
 40
0.0
 40
0.0020067247871368
 40
0.1511640636165671
 40
0.4645587594973123
 40
0.6929635293882643
 40
0.8459986414702012
 40
1.0
 40
1.0
 40
1.0
 40
1.0
 10
1882.913583801571
 20
843.9226217998233
 30
0.0
 10
1882.91100092996
 20
843.9230972575026
 30
0.0
 10
1882.716436448102
 20
843.9589128887075
 30
0.0
 10
1882.11869114428
 20
844.0112223861829
 30
0.0
 10
1881.245839684711
 20
843.8212144864291
 30
0.0
 10
1880.501481438251
 20
843.2397258325689
 30
0.0
 10
1880.062048896712
 20
842.5498352756266
 30
0.0
 10
1879.969860407924
 20
842.0254437223331
 30
0.0
 10
1879.923621104541
 20
841.7624228132929
 30
0.0
  0
SPLINE
  5
21D
330
1F
100
AcDbEntity
  8
0
  6
Continuous
 62
     7
370
    40
100
AcDbSpline
210
0.0
220
0.0
230
1.0
 70
     8
 71
     3
 72
    13
 73
     9
 74
     0
 42
0.00000001
 43
0.00000001
 12
1.0
 22
0.0
 32
0.0
 13
1.0
 23
0.0
 33
0.0
 40
0.0
 40
0.0
 40
0.0
 40
0.0
 40
0.1399237102916958
 40
0.2791888561474916
 40
0.4756020749534944
 40
0.747962317317852
 40
0.9980795048453888
 40
1.0
 40
1.0
 40
1.0
 40
1.0
 10
1879.913577721897
 20
825.5132150335279
 30
0.0
 10
1879.934982279637
 20
825.7772105615928
 30
0.0
 10
1879.977690652501
 20
826.3039590973119
 30
0.0
 10
1880.32418551319
 20
827.1567964028667
 30
0.0
 10
1880.951366103413
 20
828.0606535172302
 30
0.0
 10
1881.864888945646
 20
828.8046555525567
 30
0.0
 10
1882.572038569587
 20
829.1046787238271
 30
0.0
 10
1882.911000951242
 20
829.1930262063211
 30
0.0
 10
1882.913583801571
 20
829.1936994029251
 30
0.0
  0
LINE
  5
21E
330
1F
100
AcDbEntity
  8
0
  6
Continuous
 62
     7
370
    40
100
AcDbLine
 10
1907.913589762
 20
825.5081803037
 30
0.0
 11
1907.913589762
 21
825.5132131709
 31
0.0
  0
LINE
  5
21F
330
1F
100
AcDbEntity
  8
0
  6
Continuous
 62
     7
370
    40
100
AcDbLine
 10
1879.9135777219
 20
825.5081803037
 30
0.0
 11
1879.9135777219
 21
825.5132131709
 31
0.0
  0
SPLINE
  5
220
330
1F
100
AcDbEntity
  8
0
  6
Continuous
 62
     7
370
    40
100
AcDbSpline
210
0.0
220
0.0
230
1.0
 70
     8
 71
     3
 72
    13
 73
     9
 74
     0
 42
0.00000001
 43
0.00000001
 12
1.0
 22
0.0
 32
0.0
 13
1.0
 23
0.0
 33
0.0
 40
0.0
 40
0.0
 40
0.0
 40
0.0
 40
0.1399236471848964
 40
0.2791887302309111
 40
0.475600482065667
 40
0.7479606015932077
 40
0.9980795057115487
 40
1.0
 40
1.0
 40
1.0
 40
1.0
 10
1907.913589762035
 20
825.5132150335279
 30
0.0
 10
1907.892185373772
 20
825.7772106560388
 30
0.0
 10
1907.849477339063
 20
826.3039593802055
 30
0.0
 10
1907.502980610463
 20
827.1567926134933
 30
0.0
 10
1906.875819777811
 20
828.0606582411975
 30
0.0
 10
1905.962293178931
 20
828.8046577868953
 30
0.0
 10
1905.255131362697
 20
829.104678076679
 30
0.0
 10
1904.916166532599
 20
829.1930262062765
 30
0.0
 10
1904.913583682361
 20
829.1936994029251
 30
0.0
  0
LINE
  5
221
330
1F
100
AcDbEntity
  8
0
  6
Continuous
 62
     7
370
    40
100
AcDbLine
 10
1907.913589762
 20
829.0817879571
 30
0.0
 11
1907.913589762
 21
825.5132131709
 31
0.0
  0
LINE
  5
222
330
1F
100
AcDbEntity
  8
0
  6
Continuous
 62
     7
370
    40
100
AcDbLine
 10
1886.4135834439
 20
793.6725192668
 30
0.0
 11
1881.913581775
 21
793.6725192668
 31
0.0
  0
LINE
  5
223
330
1F
100
AcDbEntity
  8
0
  6
Continuous
 62
     7
370
    40
100
AcDbLine
 10
1879.9135777219
 20
783.0639884306
 30
0.0
 11
1879.9135777219
 21
825.5081803037
 31
0.0
  0
LINE
  5
224
330
1F
100
AcDbEntity
  8
0
  6
Continuous
 62
     7
370
    40
100
AcDbLine
 10
1907.913589762
 20
783.0639884306
 30
0.0
 11
1907.913589762
 21
825.5081803037
 31
0.0
  0
LINE
  5
225
330
1F
100
AcDbEntity
  8
0
  6
Continuous
 62
     7
370
    40
100
AcDbLine
 10
1881.913581775
 20
793.1470603181
 30
0.0
 11
1881.913581775
 21
793.6725192668
 31
0.0
  0
SPLINE
  5
226
330
1F
100
AcDbEntity
  8
0
  6
Continuous
 62
     7
370
    40
100
AcDbSpline
210
0.0
220
0.0
230
1.0
 70
     8
 71
     3
 72
    12
 73
     8
 74
     0
 42
0.00000001
 43
0.00000001
 12
1.0
 22
0.0
 32
0.0
 13
1.0
 23
0.0
 33
0.0
 40
0.0
 40
0.0
 40
0.0
 40
0.0
 40
0.067710483149379
 40
0.407190283847161
 40
0.6520077214233615
 40
0.8255935360823073
 40
1.0
 40
1.0
 40
1.0
 40
1.0
 10
1882.12173609573
 20
780.8817208243574
 30
0.0
 10
1882.048981270528
 20
780.8726640908039
 30
0.0
 10
1881.611455845408
 20
780.8181996454939
 30
0.0
 10
1880.952708472033
 20
781.0743021245659
 30
0.0
 10
1880.323976663409
 20
781.6304744488822
 30
0.0
 10
1879.977735610304
 20
782.3031179230177
 30
0.0
 10
1879.934997280443
 20
782.806613895199
 30
0.0
 10
1879.913577721897
 20
783.0589555634226
 30
0.0
  0
SPLINE
  5
227
330
1F
100
AcDbEntity
  8
0
  6
Continuous
 62
     7
370
    40
100
AcDbSpline
210
0.0
220
0.0
230
1.0
 70
     8
 71
     3
 72
    12
 73
     8
 74
     0
 42
0.00000001
 43
0.00000001
 12
1.0
 22
0.0
 32
0.0
 13
1.0
 23
0.0
 33
0.0
 40
0.0
 40
0.0
 40
0.0
 40
0.0
 40
0.1744063658777923
 40
0.3479920829581533
 40
0.5928076648397779
 40
0.9322872747042328
 40
1.0
 40
1.0
 40
1.0
 40
1.0
 10
1907.913589762035
 20
783.0589555634226
 30
0.0
 10
1907.892170345341
 20
782.8066138327982
 30
0.0
 10
1907.849432298518
 20
782.3031177361089
 30
0.0
 10
1907.503189844909
 20
781.6304772689301
 30
0.0
 10
1906.874474939671
 20
781.0742984853575
 30
0.0
 10
1906.215735710257
 20
780.8182005997678
 30
0.0
 10
1905.778191396999
 20
780.8726640088453
 30
0.0
 10
1905.705431388202
 20
780.8817208243574
 30
0.0
  0
LINE
  5
228
330
1F
100
AcDbEntity
  8
0
  6
Continuous
 62
     7
370
    40
100
AcDbLine
 10
1879.9135777219
 20
783.0589546321
 30
0.0
 11
1879.9135777219
 21
783.0639884306
 31
0.0
  0
LINE
  5
229
330
1F
100
AcDbEntity
  8
0
  6
Continuous
 62
     7
370
    40
100
AcDbLine
 10
1907.913589762
 20
783.0589546321
 30
0.0
 11
1907.913589762
 21
783.0639884306
 31
0.0
  0
LINE
  5
22A
330
1F
100
AcDbEntity
  8
0
  6
Continuous
 62
     7
370
    40
100
AcDbLine
 10
1907.8662487729
 20
829.4217989279
 30
0.0
 11
1907.913589762
 21
829.0817879571
 31
0.0
  0
LINE
  5
22B
330
1F
100
AcDbEntity
  8
0
  6
Continuous
 62
     7
370
    40
100
AcDbLine
 10
1884.9135878547
 20
843.9742356969
 30
0.0
 11
1884.9135878547
 21
855.5412583483
 31
0.0
  0
LINE
  5
22C
330
1F
100
AcDbEntity
  8
0
  6
Continuous
 62
     7
370
    40
100
AcDbLine
 10
1887.9135790332
 20
843.9742356969
 30
0.0
 11
1887.9135790332
 21
855.5412583483
 31
0.0
  0
LINE
  5
22D
330
1F
100
AcDbEntity
  8
0
  6
Continuous
 62
     7
370
    40
100
AcDbLine
 10
1884.9135878547
 20
855.5412583483
 30
0.0
 11
1884.9135878547
 21
856.0682155622
 31
0.0
  0
LINE
  5
22E
330
1F
100
AcDbEntity
  8
0
  6
Continuous
 62
     7
370
    40
100
AcDbLine
 10
1887.9135790332
 20
856.0682155622
 30
0.0
 11
1887.9135790332
 21
855.5412583483
 31
0.0
  0
LINE
  5
22F
330
1F
100
AcDbEntity
  8
0
  6
Continuous
 62
     7
370
    40
100
AcDbLine
 10
1588.91358404
 20
815.0682144297
 30
0.0
 11
1588.91358404
 21
778.0682158155
 31
0.0
  0
LINE
  5
230
330
1F
100
AcDbEntity
  8
0
  6
Continuous
 62
     7
370
    40
100
AcDbLine
 10
1868.9135852321
 20
815.0682144297
 30
0.0
 11
1588.91358404
 21
815.0682144297
 31
0.0
  0
LINE
  5
231
330
1F
100
AcDbEntity
  8
0
  6
Continuous
 62
     7
370
    40
100
AcDbLine
 10
1868.9135852321
 20
815.0682144297
 30
0.0
 11
1868.9135852321
 21
778.0682158155
 31
0.0
  0
LINE
  5
232
330
1F
100
AcDbEntity
  8
0
  6
Continuous
 62
     7
370
    40
100
AcDbLine
 10
1865.9135791524
 20
775.0682153238
 30
0.0
 11
1591.9135901197
 21
775.0682153238
 31
0.0
  0
ARC
  5
233
330
1F
100
AcDbEntity
  8
0
  6
Continuous
 62
     7
370
    40
100
AcDbCircle
 10
1591.913584636
 20
778.0682152046
 30
0.0
 40
3.0
100
AcDbArc
 50
180.0
 51
270.0
  0
ARC
  5
234
330
1F
100
AcDbEntity
  8
0
  6
Continuous
 62
     7
370
    40
100
AcDbCircle
 10
1865.913584636
 20
778.0682152046
 30
0.0
 40
3.0
100
AcDbArc
 50
270.0
 51
0.0
  0
LINE
  5
235
330
1F
100
AcDbEntity
  8
0
  6
Continuous
 62
     7
370
    40
100
AcDbLine
 10
1601.4135870202
 20
848.0682142509
 30
0.0
 11
1856.4135822518
 21
848.0682142509
 31
0.0
  0
ARC
  5
236
330
1F
100
AcDbEntity
  8
0
  6
Continuous
 62
     7
370
    40
100
AcDbCircle
 10
1856.413584636
 20
836.0682152046
 30
0.0
 40
12.00000000000011
100
AcDbArc
 50
0.0
 51
90.0
  0
ARC
  5
237
330
1F
100
AcDbEntity
  8
0
  6
Continuous
 62
     7
370
    40
100
AcDbCircle
 10
1601.413584636
 20
836.0682152046
 30
0.0
 40
12.00000000000011
100
AcDbArc
 50
90.0
 51
180.0
  0
LINE
  5
238
330
1F
100
AcDbEntity
  8
0
  6
Continuous
 62
     7
370
    40
100
AcDbLine
 10
1868.4135916694
 20
836.0682160093
 30
0.0
 11
1868.4135916694
 21
815.0682144297
 31
0.0
  0
LINE
  5
239
330
1F
100
AcDbEntity
  8
0
  6
Continuous
 62
     7
370
    40
100
AcDbLine
 10
1589.4135776027
 20
815.0682144297
 30
0.0
 11
1589.4135776027
 21
836.0682160093
 31
0.0
  0
LINE
  5
23A
330
1F
100
AcDbEntity
  8
0
  6
Continuous
 62
     7
370
    40
100
AcDbLine
 10
1872.9135784372
 20
812.0682148693
 30
0.0
 11
1872.9135784372
 21
782.0682155399
 31
0.0
  0
LINE
  5
23B
330
1F
100
AcDbEntity
  8
0
  6
Continuous
 62
     7
370
    40
100
AcDbLine
 10
1584.9135908349
 20
797.0682152046
 30
0.0
 11
1584.9135908349
 21
812.0682148693
 31
0.0
  0
LINE
  5
23C
330
1F
100
AcDbEntity
  8
0
  6
Continuous
 62
     7
370
    40
100
AcDbLine
 10
1584.9135908349
 20
782.0682155399
 30
0.0
 11
1584.9135908349
 21
797.0682152046
 31
0.0
  0
LINE
  5
23D
330
1F
100
AcDbEntity
  8
0
  6
Continuous
 62
     7
370
    40
100
AcDbLine
 10
1820.9755885466
 20
883.0682181252
 30
0.0
 11
1819.6358400448
 21
883.0682181252
 31
0.0
  0
LINE
  5
23E
330
1F
100
AcDbEntity
  8
0
  6
Continuous
 62
     7
370
    40
100
AcDbLine
 10
1874.7135791047
 20
859.0682141913
 30
0.0
 11
1874.7135791047
 21
861.0682182444
 31
0.0
  0
LINE
  5
23F
330
1F
100
AcDbEntity
  8
0
  6
Continuous
 62
     7
370
    40
100
AcDbLine
 10
1819.6358400448
 20
859.0682141913
 30
0.0
 11
1819.6358400448
 21
883.0682181252
 31
0.0
  0
LINE
  5
240
330
1F
100
AcDbEntity
  8
0
  6
Continuous
 62
     7
370
    40
100
AcDbLine
 10
1819.6358400448
 20
883.0682181252
 30
0.0
 11
1638.1913292273
 21
883.0682181252
 31
0.0
  0
LINE
  5
241
330
1F
100
AcDbEntity
  8
0
  6
Continuous
 62
     7
370
    40
100
AcDbLine
 10
1638.1913292273
 20
859.0682141913
 30
0.0
 11
1638.1913292273
 21
883.0682181252
 31
0.0
  0
LINE
  5
242
330
1F
100
AcDbEntity
  8
0
  6
Continuous
 62
     7
370
    40
100
AcDbLine
 10
1638.1913292273
 20
883.0682181252
 30
0.0
 11
1636.8515807255
 21
883.0682181252
 31
0.0
  0
LINE
  5
243
330
1F
100
AcDbEntity
  8
0
  6
Continuous
 62
     7
370
    40
100
AcDbLine
 10
1583.1135901673
 20
859.0682141913
 30
0.0
 11
1583.1135901673
 21
861.0682182444
 31
0.0
  0
ELLIPSE
  5
244
330
1F
100
AcDbEntity
  8
0
  6
Continuous
 62
     7
370
    40
100
AcDbEllipse
 10
1811.9625703501
 20
859.0682152046
 30
0.0
 11
0.0
 21
10.0
 31
0.0
210
0.0
220
0.0
230
1.0
 40
0.767326988
 41
3.141592653589793
 42
4.7123889803847
  0
LINE
  5
245
330
1F
100
AcDbEntity
  8
0
  6
Continuous
 62
     7
370
    40
100
AcDbLine
 10
1811.9625690444
 20
849.0682162775
 30
0.0
 11
1645.8646002277
 21
849.0682162775
 31
0.0
  0
ELLIPSE
  5
246
330
1F
100
AcDbEntity
  8
0
  6
Continuous
 62
     7
370
    40
100
AcDbEllipse
 10
1645.8645989219
 20
859.0682152046
 30
0.0
 11
0.0
 21
10.0
 31
0.0
210
0.0
220
0.0
230
1.0
 40
0.767326988
 41
1.570796326794897
 42
3.141592653589793
  0
LINE
  5
247
330
1F
100
AcDbEntity
  8
0
  6
Continuous
 62
     7
370
    40
100
AcDbLine
 10
1645.8646002277
 20
849.0682162775
 30
0.0
 11
1593.1135806306
 21
849.0682162775
 31
0.0
  0
ARC
  5
248
330
1F
100
AcDbEntity
  8
0
  6
Continuous
 62
     7
370
    40
100
AcDbCircle
 10
1593.113584636
 20
859.0682152046
 30
0.0
 40
10.0
100
AcDbArc
 50
180.0
 51
270.0
  0
ARC
  5
249
330
1F
100
AcDbEntity
  8
0
  6
Continuous
 62
     7
370
    40
100
AcDbCircle
 10
1864.713584636
 20
859.0682152046
 30
0.0
 40
10.0
100
AcDbArc
 50
270.0
 51
0.0
  0
LINE
  5
24A
330
1F
100
AcDbEntity
  8
0
  6
Continuous
 62
     7
370
    40
100
AcDbLine
 10
1864.7135886415
 20
849.0682162775
 30
0.0
 11
1811.9625690444
 21
849.0682162775
 31
0.0
  0
LINE
  5
24B
330
1F
100
AcDbEntity
  8
0
  6
Continuous
 62
     7
370
    40
100
AcDbLine
 10
1821.1826401814
 20
883.0682181252
 30
0.0
 11
1820.9755885466
 21
883.0682181252
 31
0.0
  0
LINE
  5
24C
330
1F
100
AcDbEntity
  8
0
  6
Continuous
 62
     7
370
    40
100
AcDbLine
 10
1636.8515807255
 20
883.0682181252
 30
0.0
 11
1636.6445290907
 21
883.0682181252
 31
0.0
  0
LINE
  5
24D
330
1F
100
AcDbEntity
  8
0
  6
Continuous
 62
     7
370
    40
100
AcDbLine
 10
1636.6445290907
 20
883.0682181252
 30
0.0
 11
1636.6445290907
 21
871.0682161583
 31
0.0
  0
LINE
  5
24E
330
1F
100
AcDbEntity
  8
0
  6
Continuous
 62
     7
370
    40
100
AcDbLine
 10
1632.5034218891
 20
887.0682187809
 30
0.0
 11
1632.5034218891
 21
871.0682161583
 31
0.0
  0
LINE
  5
24F
330
1F
100
AcDbEntity
  8
0
  6
Continuous
 62
     7
370
    40
100
AcDbLine
 10
1825.3237473829
 20
887.0682187809
 30
0.0
 11
1632.5034218891
 21
887.0682187809
 31
0.0
  0
LINE
  5
250
330
1F
100
AcDbEntity
  8
0
  6
Continuous
 62
     7
370
    40
100
AcDbLine
 10
1825.3237473829
 20
887.0682187809
 30
0.0
 11
1825.3237473829
 21
871.0682161583
 31
0.0
  0
LINE
  5
251
330
1F
100
AcDbEntity
  8
0
  6
Continuous
 62
     7
370
    40
100
AcDbLine
 10
1821.1826401814
 20
883.0682181252
 30
0.0
 11
1821.1826401814
 21
871.0682161583
 31
0.0
  0
LINE
  5
252
330
1F
100
AcDbEntity
  8
0
  6
Continuous
 62
     7
370
    40
100
AcDbLine
 10
1825.3237473829
 20
887.0682187809
 30
0.0
 11
1878.9135905965
 21
887.0682187809
 31
0.0
  0
LINE
  5
253
330
1F
100
AcDbEntity
  8
0
  6
Continuous
 62
     7
370
    40
100
AcDbLine
 10
1878.9135905965
 20
861.0682182444
 30
0.0
 11
1878.9135905965
 21
887.0682187809
 31
0.0
  0
LINE
  5
254
330
1F
100
AcDbEntity
  8
0
  6
Continuous
 62
     7
370
    40
100
AcDbLine
 10
1828.0032369359
 20
861.0682182444
 30
0.0
 11
1878.9135905965
 21
861.0682182444
 31
0.0
  0
ELLIPSE
  5
255
330
1F
100
AcDbEntity
  8
0
  6
Continuous
 62
     7
370
    40
100
AcDbEllipse
 10
1828.0032380741
 20
871.0682152046
 30
0.0
 11
0.0
 21
10.0
 31
0.0
210
0.0
220
0.0
230
1.0
 40
0.2679491924
 41
1.570796326794897
 42
3.141592653589793
  0
LINE
  5
256
330
1F
100
AcDbEntity
  8
0
  6
Continuous
 62
     7
370
    40
100
AcDbLine
 10
1578.9135786756
 20
861.0682182444
 30
0.0
 11
1578.9135786756
 21
887.0682187809
 31
0.0
  0
LINE
  5
257
330
1F
100
AcDbEntity
  8
0
  6
Continuous
 62
     7
370
    40
100
AcDbLine
 10
1578.9135786756
 20
887.0682187809
 30
0.0
 11
1632.5034218891
 21
887.0682187809
 31
0.0
  0
ELLIPSE
  5
258
330
1F
100
AcDbEntity
  8
0
  6
Continuous
 62
     7
370
    40
100
AcDbEllipse
 10
1629.8239311979
 20
871.0682152046
 30
0.0
 11
0.0
 21
10.0
 31
0.0
210
0.0
220
0.0
230
1.0
 40
0.2679491924
 41
3.141592653589793
 42
4.712388980384693
  0
LINE
  5
259
330
1F
100
AcDbEntity
  8
0
  6
Continuous
 62
     7
370
    40
100
AcDbLine
 10
1578.9135786756
 20
861.0682182444
 30
0.0
 11
1629.8239323362
 21
861.0682182444
 31
0.0
  0
LINE
  5
25A
330
1F
100
AcDbEntity
  8
0
  6
Continuous
 62
     7
370
    40
100
AcDbLine
 10
1828.0032369359
 20
861.0682182444
 30
0.0
 11
1823.8621297343
 21
861.0682182444
 31
0.0
  0
ELLIPSE
  5
25B
330
1F
100
AcDbEntity
  8
0
  6
Continuous
 62
     7
370
    40
100
AcDbEllipse
 10
1823.8621333525
 20
871.0682152046
 30
0.0
 11
0.0
 21
10.0
 31
0.0
210
0.0
220
0.0
230
1.0
 40
0.2679491924
 41
1.570796326794897
 42
3.141592653589793
  0
LINE
  5
25C
330
1F
100
AcDbEntity
  8
0
  6
Continuous
 62
     7
370
    40
100
AcDbLine
 10
1633.9650395377
 20
861.0682182444
 30
0.0
 11
1629.8239323362
 21
861.0682182444
 31
0.0
  0
ELLIPSE
  5
25D
330
1F
100
AcDbEntity
  8
0
  6
Continuous
 62
     7
370
    40
100
AcDbEllipse
 10
1633.9650359196
 20
871.0682152046
 30
0.0
 11
0.0
 21
10.0
 31
0.0
210
0.0
220
0.0
230
1.0
 40
0.2679491924
 41
3.141592653589793
 42
4.712388980384693
  0
LINE
  5
25E
330
1F
100
AcDbEntity
  8
0
  6
Continuous
 62
     7
370
    40
100
AcDbLine
 10
1874.9135824903
 20
843.0401638581
 30
0.0
 11
1874.9135824903
 21
861.0682182444
 31
0.0
  0
LINE
  5
25F
330
1F
100
AcDbEntity
  8
0
  6
Continuous
 62
     7
370
    40
100
AcDbLine
 10
1878.9135905965
 20
861.0682182444
 30
0.0
 11
1878.9135905965
 21
843.0401638581
 31
0.0
  0
LINE
  5
260
330
1F
100
AcDbEntity
  8
0
  6
Continuous
 62
     7
370
    40
100
AcDbLine
 10
1582.9135867818
 20
861.0682182444
 30
0.0
 11
1582.9135867818
 21
843.0401638581
 31
0.0
  0
LINE
  5
261
330
1F
100
AcDbEntity
  8
0
  6
Continuous
 62
     7
370
    40
100
AcDbLine
 10
1578.9135786756
 20
843.0401638581
 30
0.0
 11
1578.9135786756
 21
861.0682182444
 31
0.0
  0
LINE
  5
262
330
1F
100
AcDbEntity
  8
0
  6
Continuous
 62
     7
370
    40
100
AcDbLine
 10
1582.9135867818
 20
843.0401638581
 30
0.0
 11
1582.9135867818
 21
836.1565463675
 31
0.0
  0
LINE
  5
263
330
1F
100
AcDbEntity
  8
0
  6
Continuous
 62
     7
370
    40
100
AcDbLine
 10
1578.9135786756
 20
836.1565463675
 30
0.0
 11
1578.9135786756
 21
843.0401638581
 31
0.0
  0
LINE
  5
264
330
1F
100
AcDbEntity
  8
0
  6
Continuous
 62
     7
370
    40
100
AcDbLine
 10
1874.9135824903
 20
836.1565463675
 30
0.0
 11
1874.9135824903
 21
843.0401638581
 31
0.0
  0
LINE
  5
265
330
1F
100
AcDbEntity
  8
0
  6
Continuous
 62
     7
370
    40
100
AcDbLine
 10
1878.9135905965
 20
843.0401638581
 30
0.0
 11
1878.9135905965
 21
836.1565463675
 31
0.0
  0
LINE
  5
266
330
1F
100
AcDbEntity
  8
0
  6
Continuous
 62
     7
370
    40
100
AcDbLine
 10
1582.9135867818
 20
785.8495220972
 30
0.0
 11
1582.9135867818
 21
836.1565463675
 31
0.0
  0
LINE
  5
267
330
1F
100
AcDbEntity
  8
0
  6
Continuous
 62
     7
370
    40
100
AcDbLine
 10
1578.9135786756
 20
836.1565463675
 30
0.0
 11
1578.9135786756
 21
785.8495220972
 31
0.0
  0
LINE
  5
268
330
1F
100
AcDbEntity
  8
0
  6
Continuous
 62
     7
370
    40
100
AcDbLine
 10
1874.9135824903
 20
836.1565463675
 30
0.0
 11
1874.9135824903
 21
785.8495220972
 31
0.0
  0
LINE
  5
269
330
1F
100
AcDbEntity
  8
0
  6
Continuous
 62
     7
370
    40
100
AcDbLine
 10
1878.9135905965
 20
836.1565463675
 30
0.0
 11
1878.9135905965
 21
785.8495220972
 31
0.0
  0
LINE
  5
26A
330
1F
100
AcDbEntity
  8
0
  6
Continuous
 62
     7
370
    40
100
AcDbLine
 10
1582.9135867818
 20
777.0682156516
 30
0.0
 11
1578.9135786756
 21
777.0682156516
 31
0.0
  0
LINE
  5
26B
330
1F
100
AcDbEntity
  8
0
  6
Continuous
 62
     7
370
    40
100
AcDbLine
 10
1582.9135867818
 20
785.8495220972
 30
0.0
 11
1582.9135867818
 21
777.0682156516
 31
0.0
  0
LINE
  5
26C
330
1F
100
AcDbEntity
  8
0
  6
Continuous
 62
     7
370
    40
100
AcDbLine
 10
1578.9135786756
 20
777.0682156516
 30
0.0
 11
1578.9135786756
 21
785.8495220972
 31
0.0
  0
LINE
  5
26D
330
1F
100
AcDbEntity
  8
0
  6
Continuous
 62
     7
370
    40
100
AcDbLine
 10
1878.9135905965
 20
777.0682156516
 30
0.0
 11
1874.9135824903
 21
777.0682156516
 31
0.0
  0
LINE
  5
26E
330
1F
100
AcDbEntity
  8
0
  6
Continuous
 62
     7
370
    40
100
AcDbLine
 10
1874.9135824903
 20
777.0682156516
 30
0.0
 11
1874.9135824903
 21
785.8495220972
 31
0.0
  0
LINE
  5
26F
330
1F
100
AcDbEntity
  8
0
  6
Continuous
 62
     7
370
    40
100
AcDbLine
 10
1878.9135905965
 20
785.8495220972
 30
0.0
 11
1878.9135905965
 21
777.0682156516
 31
0.0
  0
LINE
  5
270
330
1F
100
AcDbEntity
  8
0
  6
Continuous
 62
     7
370
    40
100
AcDbLine
 10
3028.4721005476
 20
1854.7924941724
 30
0.0
 11
3033.7921801723
 21
1875.2821328437
 31
0.0
  0
LWPOLYLINE
  5
271
330
1F
100
AcDbEntity
  8
0
  6
Continuous
 62
     7
370
    40
100
AcDbPolyline
 90
       13
 70
   128
 43
0.0
 10
3033.7921801723
 20
1875.2821328437
 10
3034.4810459531
 20
1877.9352100884
 10
3035.1581249154
 20
1880.5428928083
 10
3035.8118314064
 20
1883.0605632012
 10
3036.430974654
 20
1885.4451420104
 10
3037.0049748338
 20
1887.6558279937
 10
3037.5240046299
 20
1889.6547973474
 10
3037.9791754997
 20
1891.4078463187
 10
3038.3627090371
 20
1892.8849798014
 10
3038.6680412806
 20
1894.0609235635
 10
3038.8899493731
 20
1894.915557312
 10
3039.0246260679
 20
1895.4342578856
 10
3039.0697765864
 20
1895.6081497801
  0
ARC
  5
272
330
1F
100
AcDbEntity
  8
0
  6
Continuous
 62
     7
370
    40
100
AcDbCircle
 10
3043.9093039793
 20
1894.3515789061
 30
0.0
 40
5.000000000000203
100
AcDbArc
 50
75.4447090111
 51
165.4447090111
  0
LINE
  5
273
330
1F
100
AcDbEntity
  8
0
  6
Continuous
 62
     7
370
    40
100
AcDbLine
 10
3045.1658714331
 20
1899.191106748
 30
0.0
 11
3127.4378478295
 21
1877.8294025307
 31
0.0
  0
LINE
  5
274
330
1F
100
AcDbEntity
  8
0
  6
Continuous
 62
     7
370
    40
100
AcDbLine
 10
3125.7432076848
 20
1851.4072893506
 30
0.0
 11
3120.4231261975
 21
1830.9176488166
 31
0.0
  0
LWPOLYLINE
  5
275
330
1F
100
AcDbEntity
  8
0
  6
Continuous
 62
     7
370
    40
100
AcDbPolyline
 90
       13
 70
   128
 43
0.0
 10
3131.0208059616
 20
1871.7333039587
 10
3130.9756554431
 20
1871.5594129955
 10
3130.840975023
 20
1871.0407128876
 10
3130.6190725184
 20
1870.186079139
 10
3130.3137421376
 20
1869.010135377
 10
3129.9302067376
 20
1867.5330018943
 10
3129.4750321425
 20
1865.7799510603
 10
3128.9560060716
 20
1863.7809826379
 10
3128.3820058919
 20
1861.570294792
 10
3127.7628570563
 20
1859.1857178455
 10
3127.1091505653
 20
1856.6680474525
 10
3126.4320725343
 20
1854.0603665953
 10
3125.7432076848
 20
1851.4072893506
  0
ARC
  5
276
330
1F
100
AcDbEntity
  8
0
  6
Continuous
 62
     7
370
    40
100
AcDbCircle
 10
3126.1812774689
 20
1872.9898753663
 30
0.0
 40
5.000000000000586
100
AcDbArc
 50
345.4447090111
 51
75.4447090111
  0
LINE
  5
277
330
1F
100
AcDbEntity
  8
0
  6
Continuous
 62
     7
370
    40
100
AcDbLine
 10
3026.0014433182
 20
1845.2770596688
 30
0.0
 11
3028.4721005476
 21
1854.7924941724
 31
0.0
  0
LINE
  5
278
330
1F
100
AcDbEntity
  8
0
  6
Continuous
 62
     7
370
    40
100
AcDbLine
 10
3120.4231261975
 20
1830.9176488166
 30
0.0
 11
3117.9524689681
 21
1821.4022143131
 31
0.0
  0
ARC
  5
279
330
1F
100
AcDbEntity
  8
0
  6
Continuous
 62
     7
370
    40
100
AcDbCircle
 10
3030.8409676961
 20
1844.0204892418
 30
0.0
 40
5.000000000000538
100
AcDbArc
 50
165.4447090111
 51
255.4447090111
  0
LINE
  5
27A
330
1F
100
AcDbEntity
  8
0
  6
Continuous
 62
     7
370
    40
100
AcDbLine
 10
3111.8563703961
 20
1817.8192599063
 30
0.0
 11
3029.5843977249
 21
1839.1809610968
 31
0.0
  0
ARC
  5
27B
330
1F
100
AcDbEntity
  8
0
  6
Continuous
 62
     7
370
    40
100
AcDbCircle
 10
3113.1129411858
 20
1822.6587857021
 30
0.0
 40
5.000000000000146
100
AcDbArc
 50
255.4447090111
 51
345.4447090111
  0
LINE
  5
27C
330
1F
100
AcDbEntity
  8
0
  6
Continuous
 62
     7
370
    40
100
AcDbLine
 10
3066.7506877101
 20
1952.4792319482
 30
0.0
 11
3060.9698492802
 21
1930.2150400674
 31
0.0
  0
LINE
  5
27D
330
1F
100
AcDbEntity
  8
0
  6
Continuous
 62
     7
370
    40
100
AcDbLine
 10
3083.958410821
 20
1951.108243162
 30
0.0
 11
3066.7506877101
 21
1952.4792319482
 31
0.0
  0
LINE
  5
27E
330
1F
100
AcDbEntity
  8
0
  6
Continuous
 62
     7
370
    40
100
AcDbLine
 10
3083.958410821
 20
1951.108243162
 30
0.0
 11
3118.8030114166
 21
1942.0609360879
 31
0.0
  0
LINE
  5
27F
330
1F
100
AcDbEntity
  8
0
  6
Continuous
 62
     7
370
    40
100
AcDbLine
 10
3134.5040771878
 20
1934.8872414177
 30
0.0
 11
3118.8030114166
 21
1942.0609360879
 31
0.0
  0
LINE
  5
280
330
1F
100
AcDbEntity
  8
0
  6
Continuous
 62
     7
370
    40
100
AcDbLine
 10
3128.7232387579
 20
1912.6230486056
 30
0.0
 11
3134.5040771878
 21
1934.8872414177
 31
0.0
  0
LINE
  5
281
330
1F
100
AcDbEntity
  8
0
  6
Continuous
 62
     7
370
    40
100
AcDbLine
 10
3118.0762766629
 20
1915.3875045797
 30
0.0
 11
3128.7232387579
 21
1912.6230486056
 31
0.0
  0
LINE
  5
282
330
1F
100
AcDbEntity
  8
0
  6
Continuous
 62
     7
370
    40
100
AcDbLine
 10
3109.5315951855
 20
1882.4787156975
 30
0.0
 11
3118.0762766629
 21
1915.3875045797
 31
0.0
  0
LINE
  5
283
330
1F
100
AcDbEntity
  8
0
  6
Continuous
 62
     7
370
    40
100
AcDbLine
 10
3071.6168109096
 20
1927.4505840933
 30
0.0
 11
3063.0721274532
 21
1894.5417947454
 31
0.0
  0
LINE
  5
284
330
1F
100
AcDbEntity
  8
0
  6
Continuous
 62
     7
370
    40
100
AcDbLine
 10
3060.9698492802
 20
1930.2150400674
 30
0.0
 11
3071.6168109096
 21
1927.4505840933
 31
0.0
  0
LINE
  5
285
330
1F
100
AcDbEntity
  8
0
  6
Continuous
 62
     7
370
    40
100
AcDbLine
 10
3072.6783994354
 20
1937.5077931529
 30
0.0
 11
3073.4323423124
 21
1940.4115079289
 31
0.0
  0
LINE
  5
286
330
1F
100
AcDbEntity
  8
0
  6
Continuous
 62
     7
370
    40
100
AcDbLine
 10
3122.0415832243
 20
1924.6907698309
 30
0.0
 11
3072.6783994354
 21
1937.5077931529
 31
0.0
  0
LINE
  5
287
330
1F
100
AcDbEntity
  8
0
  6
Continuous
 62
     7
370
    40
100
AcDbLine
 10
3122.7955261014
 20
1927.5944864696
 30
0.0
 11
3122.0415832243
 21
1924.6907698309
 31
0.0
  0
LINE
  5
288
330
1F
100
AcDbEntity
  8
0
  6
Continuous
 62
     7
370
    40
100
AcDbLine
 10
3073.4323423124
 20
1940.4115079289
 30
0.0
 11
3122.7955261014
 21
1927.5944864696
 31
0.0
  0
LINE
  5
289
330
1F
100
AcDbEntity
  8
0
  6
Continuous
 62
     7
370
    40
100
AcDbLine
 10
3100.2743497259
 20
1985.0987194424
 30
0.0
 11
3121.0843195907
 21
1979.6954689866
 31
0.0
  0
LINE
  5
28A
330
1F
100
AcDbEntity
  8
0
  6
Continuous
 62
     7
370
    40
100
AcDbLine
 10
3113.0422667368
 20
1948.7224890237
 30
0.0
 11
3121.0843195907
 21
1979.6954689866
 31
0.0
  0
LINE
  5
28B
330
1F
100
AcDbEntity
  8
0
  6
Continuous
 62
     7
370
    40
100
AcDbLine
 10
3118.8030114166
 20
1942.0609360879
 30
0.0
 11
3113.0422667368
 21
1948.7224890237
 31
0.0
  0
LINE
  5
28C
330
1F
100
AcDbEntity
  8
0
  6
Continuous
 62
     7
370
    40
100
AcDbLine
 10
3092.2322973377
 20
1954.1257432049
 30
0.0
 11
3083.958410821
 21
1951.108243162
 31
0.0
  0
LINE
  5
28D
330
1F
100
AcDbEntity
  8
0
  6
Continuous
 62
     7
370
    40
100
AcDbLine
 10
3100.2743497259
 20
1985.0987194424
 30
0.0
 11
3092.2322973377
 21
1954.1257432049
 31
0.0
  0
LINE
  5
28E
330
1F
100
AcDbEntity
  8
0
  6
Continuous
 62
     7
370
    40
100
AcDbLine
 10
3098.0770813069
 20
1956.7407964116
 30
0.0
 11
3103.6059932551
 21
1978.0347196703
 31
0.0
  0
LINE
  5
28F
330
1F
100
AcDbEntity
  8
0
  6
Continuous
 62
     7
370
    40
100
AcDbLine
 10
3109.2079956318
 20
1953.8506826704
 30
0.0
 11
3098.0770813069
 21
1956.7407964116
 31
0.0
  0
LINE
  5
290
330
1F
100
AcDbEntity
  8
0
  6
Continuous
 62
     7
370
    40
100
AcDbLine
 10
3114.7369071144
 20
1975.1446022039
 30
0.0
 11
3109.2079956318
 21
1953.8506826704
 31
0.0
  0
LINE
  5
291
330
1F
100
AcDbEntity
  8
0
  6
Continuous
 62
     7
370
    40
100
AcDbLine
 10
3103.6059932551
 20
1978.0347196703
 30
0.0
 11
3114.7369071144
 21
1975.1446022039
 31
0.0
  0
LINE
  5
292
330
1F
100
AcDbEntity
  8
0
  6
Continuous
 62
     7
370
    40
100
AcDbLine
 10
3048.942511133
 20
1834.1546802168
 30
0.0
 11
3050.5072671688
 21
1814.5638255721
 31
0.0
  0
LINE
  5
293
330
1F
100
AcDbEntity
  8
0
  6
Continuous
 62
     7
370
    40
100
AcDbLine
 10
3081.6002703971
 20
1806.4906074052
 30
0.0
 11
3092.4982588506
 21
1822.8455407863
 31
0.0
  0
ARC
  5
294
330
1F
100
AcDbEntity
  8
0
  6
Continuous
 62
     7
370
    40
100
AcDbCircle
 10
3067.4532995737
 20
1815.9173372036
 30
0.0
 40
17.00000000000011
100
AcDbArc
 50
184.5666296475
 51
326.3227883746
  0
CIRCLE
  5
295
330
1F
100
AcDbEntity
  8
0
  6
Continuous
 62
     7
370
    40
100
AcDbCircle
 10
3067.4532995737
 20
1815.9173372036
 30
0.0
 40
7.099999999999634
  0
LINE
  5
296
330
1F
100
AcDbEntity
  8
0
  6
Continuous
 62
     7
370
    40
100
AcDbLine
 10
3093.4533003486
 20
2199.4173450714
 30
0.0
 11
3130.4532989628
 21
2199.4173450714
 31
0.0
  0
LINE
  5
297
330
1F
100
AcDbEntity
  8
0
  6
Continuous
 62
     7
370
    40
100
AcDbLine
 10
3093.4533003486
 20
1958.8282851821
 30
0.0
 11
3093.4533003486
 21
2199.4173450714
 31
0.0
  0
LINE
  5
298
330
1F
100
AcDbEntity
  8
0
  6
Continuous
 62
     7
370
    40
100
AcDbLine
 10
3130.4532989628
 20
1822.4173335677
 30
0.0
 11
3124.5757985628
 21
1822.4173335677
 31
0.0
  0
LINE
  5
299
330
1F
100
AcDbEntity
  8
0
  6
Continuous
 62
     7
370
    40
100
AcDbLine
 10
3133.4532994545
 20
2196.4173240905
 30
0.0
 11
3133.4532994545
 21
1935.3673307543
 31
0.0
  0
LINE
  5
29A
330
1F
100
AcDbEntity
  8
0
  6
Continuous
 62
     7
370
    40
100
AcDbLine
 10
3133.4532994545
 20
1930.8403002416
 30
0.0
 11
3133.4532994545
 21
1825.4173396473
 31
0.0
  0
ARC
  5
29B
330
1F
100
AcDbEntity
  8
0
  6
Continuous
 62
     7
370
    40
100
AcDbCircle
 10
3130.4532995737
 20
2196.4173372036
 30
0.0
 40
3.000000000000455
100
AcDbArc
 50
0.0
 51
90.0
  0
ARC
  5
29C
330
1F
100
AcDbEntity
  8
0
  6
Continuous
 62
     7
370
    40
100
AcDbCircle
 10
3130.4532995737
 20
1825.4173372036
 30
0.0
 40
2.999999999999773
100
AcDbArc
 50
270.0
 51
0.0
  0
LINE
  5
29D
330
1F
100
AcDbEntity
  8
0
  6
Continuous
 62
     7
370
    40
100
AcDbLine
 10
3060.4533005274
 20
1953.9485982006
 30
0.0
 11
3060.4533005274
 21
2186.91732719
 31
0.0
  0
ARC
  5
29E
330
1F
100
AcDbEntity
  8
0
  6
Continuous
 62
     7
370
    40
100
AcDbCircle
 10
3072.4532995737
 20
2186.9173372036
 30
0.0
 40
12.0
100
AcDbArc
 50
90.0
 51
180.0
  0
LINE
  5
29F
330
1F
100
AcDbEntity
  8
0
  6
Continuous
 62
     7
370
    40
100
AcDbLine
 10
3093.4533003486
 20
2198.9173515087
 30
0.0
 11
3072.4532987691
 21
2198.9173515087
 31
0.0
  0
ARC
  5
2A0
330
1F
100
AcDbEntity
  8
0
  6
Continuous
 62
     7
370
    40
100
AcDbCircle
 10
3046.4532995737
 20
1816.9173372036
 30
0.0
 40
5.000000000000152
100
AcDbArc
 50
44.1459652469
 51
90.0
  0
LINE
  5
2A1
330
1F
100
AcDbEntity
  8
0
  6
Continuous
 62
     7
370
    40
100
AcDbLine
 10
3021.4532959974
 20
1821.917340005
 30
0.0
 11
3021.4532959974
 21
2347.9173405414
 31
0.0
  0
LINE
  5
2A2
330
1F
100
AcDbEntity
  8
0
  6
Continuous
 62
     7
370
    40
100
AcDbLine
 10
3047.4532965339
 20
2347.9173405414
 30
0.0
 11
3021.4532959974
 21
2347.9173405414
 31
0.0
  0
LINE
  5
2A3
330
1F
100
AcDbEntity
  8
0
  6
Continuous
 62
     7
370
    40
100
AcDbLine
 10
3047.4532965339
 20
2347.9173405414
 30
0.0
 11
3047.4532965339
 21
2001.9173397069
 31
0.0
  0
ARC
  5
2A4
330
1F
100
AcDbEntity
  8
0
  6
Continuous
 62
     7
370
    40
100
AcDbCircle
 10
3142.4532995737
 20
2001.9173372036
 30
0.0
 40
95.0
100
AcDbArc
 50
180.0
 51
215.6148227514
  0
LINE
  5
2A5
330
1F
100
AcDbEntity
  8
0
  6
Continuous
 62
     7
370
    40
100
AcDbLine
 10
3131.4532991267
 20
1923.1375454312
 30
0.0
 11
3131.4532991267
 21
1831.9173379188
 31
0.0
  0
ARC
  5
2A6
330
1F
100
AcDbEntity
  8
0
  6
Continuous
 62
     7
370
    40
100
AcDbCircle
 10
3121.4532995737
 20
1831.9173372036
 30
0.0
 40
10.0
100
AcDbArc
 50
270.0
 51
0.0
  0
LINE
  5
2A7
330
1F
100
AcDbEntity
  8
0
  6
Continuous
 62
     7
370
    40
100
AcDbLine
 10
3121.4532993502
 20
1821.917340005
 30
0.0
 11
3118.086218997
 21
1821.917340005
 31
0.0
  0
LINE
  5
2A8
330
1F
100
AcDbEntity
  8
0
  6
Continuous
 62
     7
370
    40
100
AcDbLine
 10
3096.0731219269
 20
1821.917340005
 30
0.0
 11
3091.879756353
 21
1821.917340005
 31
0.0
  0
CIRCLE
  5
2A9
330
1F
100
AcDbEntity
  8
0
  6
Continuous
 62
     7
370
    40
100
AcDbCircle
 10
3067.4532995737
 20
1815.9173372036
 30
0.0
 40
5.25
  0
LINE
  5
2AA
330
1F
100
AcDbEntity
  8
0
  6
Continuous
 62
     7
370
    40
100
AcDbLine
 10
3046.4533019579
 20
1821.917340005
 30
0.0
 11
3021.4532959974
 21
1821.917340005
 31
0.0
  0
LINE
  5
2AB
330
1F
100
AcDbEntity
  8
0
  6
Continuous
 62
     7
370
    40
100
AcDbLine
 10
3021.4532959974
 20
2547.9173286205
 30
0.0
 11
3037.4532986201
 21
2547.9173286205
 31
0.0
  0
ARC
  5
2AC
330
1F
100
AcDbEntity
  8
0
  6
Continuous
 62
     7
370
    40
100
AcDbCircle
 10
3037.4532995737
 20
2537.9173372036
 30
0.0
 40
10.0
100
AcDbArc
 50
0.0
 51
90.0
  0
LINE
  5
2AD
330
1F
100
AcDbEntity
  8
0
  6
Continuous
 62
     7
370
    40
100
AcDbLine
 10
3047.4532965339
 20
2347.9173405414
 30
0.0
 11
3047.4532965339
 21
2537.9173381572
 31
0.0
  0
LINE
  5
2AE
330
1F
100
AcDbEntity
  8
0
  6
Continuous
 62
     7
370
    40
100
AcDbLine
 10
3021.4532959974
 20
2347.9173405414
 30
0.0
 11
3021.4532959974
 21
2547.9173286205
 31
0.0
  0
LINE
  5
2AF
330
1F
100
AcDbEntity
  8
0
  6
Continuous
 62
     7
370
    40
100
AcDbLine
 10
3049.453300587
 20
2347.3643882518
 30
0.0
 11
3047.4532965339
 21
2347.3643882518
 31
0.0
  0
LINE
  5
2B0
330
1F
100
AcDbEntity
  8
0
  6
Continuous
 62
     7
370
    40
100
AcDbLine
 10
3025.4532966531
 20
2552.9173238521
 30
0.0
 11
3025.4532966531
 21
2547.9173286205
 31
0.0
  0
LINE
  5
2B1
330
1F
100
AcDbEntity
  8
0
  6
Continuous
 62
     7
370
    40
100
AcDbLine
 10
3049.453300587
 20
2552.9173238521
 30
0.0
 11
3025.4532966531
 21
2552.9173238521
 31
0.0
  0
LINE
  5
2B2
330
1F
100
AcDbEntity
  8
0
  6
Continuous
 62
     7
370
    40
100
AcDbLine
 10
3059.4532985008
 20
2346.0478706604
 30
0.0
 11
3059.4532985008
 21
1960.9173385745
 31
0.0
  0
ARC
  5
2B3
330
1F
100
AcDbEntity
  8
0
  6
Continuous
 62
     7
370
    40
100
AcDbCircle
 10
3049.4532995737
 20
1960.9173372036
 30
0.0
 40
10.0
100
AcDbArc
 50
337.5149942047
 51
0.0
  0
ELLIPSE
  5
2B4
330
1F
100
AcDbEntity
  8
0
  6
Continuous
 62
     7
370
    40
100
AcDbEllipse
 10
3049.4532995737
 20
2346.0478717378
 30
0.0
 11
10.0
 21
0.0
 31
0.0
210
0.0
220
0.0
230
1.0
 40
0.1316524976
 41
0.0
 42
1.570796326794897
  0
LINE
  5
2B5
330
1F
100
AcDbEntity
  8
0
  6
Continuous
 62
     7
370
    40
100
AcDbLine
 10
3059.4532985008
 20
2542.9173333889
 30
0.0
 11
3059.4532985008
 21
2346.0478706604
 31
0.0
  0
ARC
  5
2B6
330
1F
100
AcDbEntity
  8
0
  6
Continuous
 62
     7
370
    40
100
AcDbCircle
 10
3049.4532995737
 20
2542.9173372036
 30
0.0
 40
10.0
100
AcDbArc
 50
0.0
 51
90.0
  0
LINE
  5
2B7
330
1F
100
AcDbEntity
  8
0
  6
Continuous
 62
     7
370
    40
100
AcDbLine
 10
982.4383100902
 20
1827.8504608517
 30
0.0
 11
998.8232246076
 21
1818.3350263482
 31
0.0
  0
ARC
  5
2B8
330
1F
100
AcDbEntity
  8
0
  6
Continuous
 62
     7
370
    40
100
AcDbCircle
 10
984.9492989218
 20
1832.1742188041
 30
0.0
 40
5.0
100
AcDbArc
 50
180.0
 51
239.8544076487
  0
LINE
  5
2B9
330
1F
100
AcDbEntity
  8
0
  6
Continuous
 62
     7
370
    40
100
AcDbLine
 10
1001.3342192804
 20
1817.6587893014
 30
0.0
 11
1032.7888271248
 21
1817.6587893014
 31
0.0
  0
ARC
  5
2BA
330
1F
100
AcDbEntity
  8
0
  6
Continuous
 62
     7
370
    40
100
AcDbCircle
 10
1001.3342187465
 20
1822.6587857021
 30
0.0
 40
5.000000000000181
100
AcDbArc
 50
239.8544076487
 51
270.0
  0
LINE
  5
2BB
330
1F
100
AcDbEntity
  8
0
  6
Continuous
 62
     7
370
    40
100
AcDbLine
 10
1029.94929165
 20
1798.9173380976
 30
0.0
 11
1032.9492977297
 21
1798.9173380976
 31
0.0
  0
SPLINE
  5
2BC
330
1F
100
AcDbEntity
  8
0
  6
Continuous
 62
     7
370
    40
100
AcDbSpline
210
0.0
220
0.0
230
1.0
 70
     8
 71
     3
 72
    22
 73
    18
 74
     0
 42
0.00000001
 43
0.00000001
 12
1.0
 22
0.0
 32
0.0
 13
1.0
 23
0.0
 33
0.0
 40
0.0
 40
0.0
 40
0.0
 40
0.0
 40
0.040870853777754
 40
0.1113982518046433
 40
0.1819535229218237
 40
0.2525015218810218
 40
0.3230307501468782
 40
0.3935304249771963
 40
0.4639901637877473
 40
0.534400626431237
 40
0.6047543923749601
 40
0.6750468683546853
 40
0.7452765431286202
 40
0.8154451364102301
 40
0.8855582005356004
 40
0.9556248692541156
 40
1.0
 40
1.0
 40
1.0
 40
1.0
 10
1005.949302617238
 20
1899.351578982703
 30
0.0
 10
1005.394516727992
 20
1899.341207143256
 30
0.0
 10
1003.882383447782
 20
1899.312937492013
 30
0.0
 10
1001.424847312186
 20
1899.01490385722
 30
0.0
 10
998.6217383793488
 20
1898.379716493901
 30
0.0
 10
995.9071868472969
 20
1897.442407076229
 30
0.0
 10
993.315078349784
 20
1896.220032162736
 30
0.0
 10
990.8772566587606
 20
1894.726038317938
 30
0.0
 10
988.6237257393016
 20
1892.979188390458
 30
0.0
 10
986.5821684008146
 20
1891.000917101107
 30
0.0
 10
984.77762830396
 20
1888.815681862445
 30
0.0
 10
983.2319823738868
 20
1886.450479051936
 30
0.0
 10
981.9643474355588
 20
1883.934513996849
 30
0.0
 10
980.9883288175381
 20
1881.298693383896
 30
0.0
 10
980.3215132589268
 20
1878.575507815174
 30
0.0
 10
979.994446329463
 20
1876.13667681305
 30
0.0
 10
979.9619104927368
 20
1874.615430265926
 30
0.0
 10
979.9492946302161
 20
1874.025562623671
 30
0.0
  0
LINE
  5
2BD
330
1F
100
AcDbEntity
  8
0
  6
Continuous
 62
     7
370
    40
100
AcDbLine
 10
1024.9492964184
 20
1899.3515789827
 30
0.0
 11
1005.9493026172
 21
1899.3515789827
 31
0.0
  0
LINE
  5
2BE
330
1F
100
AcDbEntity
  8
0
  6
Continuous
 62
     7
370
    40
100
AcDbLine
 10
1339.1322782671
 20
1876.3693215644
 30
0.0
 11
1356.6639116441
 21
1876.3693215644
 31
0.0
  0
ARC
  5
2BF
330
1F
100
AcDbEntity
  8
0
  6
Continuous
 62
     7
370
    40
100
AcDbCircle
 10
1356.6639098228
 20
1879.3693218612
 30
0.0
 40
3.000000000000286
100
AcDbArc
 50
270.0
 51
344.0544823446
  0
LINE
  5
2C0
330
1F
100
AcDbEntity
  8
0
  6
Continuous
 62
     7
370
    40
100
AcDbLine
 10
1340.9492960607
 20
1956.8831397539
 30
0.0
 11
1339.0535703336
 21
1956.8831397539
 31
0.0
  0
LINE
  5
2C1
330
1F
100
AcDbEntity
  8
0
  6
Continuous
 62
     7
370
    40
100
AcDbLine
 10
1366.8450257217
 20
1956.8831397539
 30
0.0
 11
1364.9492999946
 21
1956.8831397539
 31
0.0
  0
LINE
  5
2C2
330
1F
100
AcDbEntity
  8
0
  6
Continuous
 62
     7
370
    40
100
AcDbLine
 10
1343.9493021404
 20
1800.9173347002
 30
0.0
 11
1346.9492933189
 21
1800.9173347002
 31
0.0
  0
LINE
  5
2C3
330
1F
100
AcDbEntity
  8
0
  6
Continuous
 62
     7
370
    40
100
AcDbLine
 10
1047.9492983257
 20
1916.4173368683
 30
0.0
 11
1043.9493051206
 21
1916.4173368683
 31
0.0
  0
LINE
  5
2C4
330
1F
100
AcDbEntity
  8
0
  6
Continuous
 62
     7
370
    40
100
AcDbLine
 10
1043.9493051206
 20
1886.4173375388
 30
0.0
 11
1047.9492983257
 21
1886.4173375388
 31
0.0
  0
LINE
  5
2C5
330
1F
100
AcDbEntity
  8
0
  6
Continuous
 62
     7
370
    40
100
AcDbLine
 10
1327.9492995178
 20
1886.4173375388
 30
0.0
 11
1331.9492927229
 21
1886.4173375388
 31
0.0
  0
LINE
  5
2C6
330
1F
100
AcDbEntity
  8
0
  6
Continuous
 62
     7
370
    40
100
AcDbLine
 10
1331.9492927229
 20
1916.4173368683
 30
0.0
 11
1327.9492995178
 21
1916.4173368683
 31
0.0
  0
LINE
  5
2C7
330
1F
100
AcDbEntity
  8
0
  6
Continuous
 62
     7
370
    40
100
AcDbLine
 10
1333.949296776
 20
1906.4173370918
 30
0.0
 11
1331.9492927229
 21
1906.4173370918
 31
0.0
  0
LINE
  5
2C8
330
1F
100
AcDbEntity
  8
0
  6
Continuous
 62
     7
370
    40
100
AcDbLine
 10
1043.9493051206
 20
1906.4173370918
 30
0.0
 11
1041.9493010675
 21
1906.4173370918
 31
0.0
  0
LINE
  5
2C9
330
1F
100
AcDbEntity
  8
0
  6
Continuous
 62
     7
370
    40
100
AcDbLine
 10
1041.9493010675
 20
1896.4173373153
 30
0.0
 11
1043.9493051206
 21
1896.4173373153
 31
0.0
  0
LINE
  5
2CA
330
1F
100
AcDbEntity
  8
0
  6
Continuous
 62
     7
370
    40
100
AcDbLine
 10
1331.9492927229
 20
1896.4173373153
 30
0.0
 11
1333.949296776
 21
1896.4173373153
 31
0.0
  0
LINE
  5
2CB
330
1F
100
AcDbEntity
  8
0
  6
Continuous
 62
     7
370
    40
100
AcDbLine
 10
1333.949296776
 20
1799.9173401242
 30
0.0
 11
1337.9493048822
 21
1799.9173401242
 31
0.0
  0
LINE
  5
2CC
330
1F
100
AcDbEntity
  8
0
  6
Continuous
 62
     7
370
    40
100
AcDbLine
 10
1037.9492929613
 20
1799.9173401242
 30
0.0
 11
1041.9493010675
 21
1799.9173401242
 31
0.0
  0
LINE
  5
2CD
330
1F
100
AcDbEntity
  8
0
  6
Continuous
 62
     7
370
    40
100
AcDbLine
 10
1024.9492964184
 20
1942.0609360879
 30
0.0
 11
1027.4492940342
 21
1942.0609360879
 31
0.0
  0
LINE
  5
2CE
330
1F
100
AcDbEntity
  8
0
  6
Continuous
 62
     7
370
    40
100
AcDbLine
 10
1027.4492940342
 20
1942.0609360879
 30
0.0
 11
1030.4493001138
 21
1942.0609360879
 31
0.0
  0
LINE
  5
2CF
330
1F
100
AcDbEntity
  8
0
  6
Continuous
 62
     7
370
    40
100
AcDbLine
 10
1030.4493001138
 20
1942.0609360879
 30
0.0
 11
1032.9492977297
 21
1942.0609360879
 31
0.0
  0
LINE
  5
2D0
330
1F
100
AcDbEntity
  8
0
  6
Continuous
 62
     7
370
    40
100
AcDbLine
 10
1024.9492964184
 20
1934.8872414177
 30
0.0
 11
1032.9492977297
 21
1934.8872414177
 31
0.0
  0
LINE
  5
2D1
330
1F
100
AcDbEntity
  8
0
  6
Continuous
 62
     7
370
    40
100
AcDbLine
 10
1024.9492964184
 20
1934.8872414177
 30
0.0
 11
1024.9492964184
 21
1942.0609360879
 31
0.0
  0
LINE
  5
2D2
330
1F
100
AcDbEntity
  8
0
  6
Continuous
 62
     7
370
    40
100
AcDbLine
 10
1032.9492977297
 20
1934.8872414177
 30
0.0
 11
1032.9492977297
 21
1942.0609360879
 31
0.0
  0
LINE
  5
2D3
330
1F
100
AcDbEntity
  8
0
  6
Continuous
 62
     7
370
    40
100
AcDbLine
 10
1024.9492964184
 20
1912.6230486056
 30
0.0
 11
1032.9492977297
 21
1912.6230486056
 31
0.0
  0
LINE
  5
2D4
330
1F
100
AcDbEntity
  8
0
  6
Continuous
 62
     7
370
    40
100
AcDbLine
 10
1024.9492964184
 20
1912.6230486056
 30
0.0
 11
1024.9492964184
 21
1934.8872414177
 31
0.0
  0
LINE
  5
2D5
330
1F
100
AcDbEntity
  8
0
  6
Continuous
 62
     7
370
    40
100
AcDbLine
 10
1032.9492977297
 20
1912.6230486056
 30
0.0
 11
1032.9492977297
 21
1934.8872414177
 31
0.0
  0
ELLIPSE
  5
2D6
330
1F
100
AcDbEntity
  8
0
  6
Continuous
 62
     7
370
    40
100
AcDbEllipse
 10
1027.9492989218
 20
1822.6587857021
 30
0.0
 11
-4.95971971293045
 21
4.959719712930109
 31
0.0
210
0.0
220
0.0
230
1.0
 40
0.1277064119
 41
1.69781520246609
 42
3.268611529261078
  0
LINE
  5
2D7
330
1F
100
AcDbEntity
  8
0
  6
Continuous
 62
     7
370
    40
100
AcDbLine
 10
1032.9492977297
 20
1872.9898760413
 30
0.0
 11
1032.9492977297
 21
1817.8192599063
 31
0.0
  0
LINE
  5
2D8
330
1F
100
AcDbEntity
  8
0
  6
Continuous
 62
     7
370
    40
100
AcDbLine
 10
979.9492946302
 20
1874.0255626237
 30
0.0
 11
979.9492946302
 21
1852.6638595706
 31
0.0
  0
LINE
  5
2D9
330
1F
100
AcDbEntity
  8
0
  6
Continuous
 62
     7
370
    40
100
AcDbLine
 10
1024.9492964184
 20
1882.4787156975
 30
0.0
 11
1027.949302498
 21
1882.4787156975
 31
0.0
  0
ARC
  5
2DA
330
1F
100
AcDbEntity
  8
0
  6
Continuous
 62
     7
370
    40
100
AcDbCircle
 10
1028.0282392626
 20
1877.5576142358
 30
0.0
 40
4.921734512214398
100
AcDbArc
 50
0.9496670127
 51
90.9189722375
  0
LINE
  5
2DB
330
1F
100
AcDbEntity
  8
0
  6
Continuous
 62
     7
370
    40
100
AcDbLine
 10
1032.9492977297
 20
1877.6391873454
 30
0.0
 11
1032.9492977297
 21
1872.9898760413
 31
0.0
  0
LINE
  5
2DC
330
1F
100
AcDbEntity
  8
0
  6
Continuous
 62
     7
370
    40
100
AcDbLine
 10
979.9492946302
 20
1832.1742190366
 30
0.0
 11
979.9492946302
 21
1852.6638595706
 31
0.0
  0
LINE
  5
2DD
330
1F
100
AcDbEntity
  8
0
  6
Continuous
 62
     7
370
    40
100
AcDbLine
 10
1027.4492940342
 20
1979.6954689866
 30
0.0
 11
1030.4493001138
 21
1979.6954689866
 31
0.0
  0
LINE
  5
2DE
330
1F
100
AcDbEntity
  8
0
  6
Continuous
 62
     7
370
    40
100
AcDbLine
 10
1027.4492940342
 20
1948.7224890237
 30
0.0
 11
1030.4493001138
 21
1948.7224890237
 31
0.0
  0
LINE
  5
2DF
330
1F
100
AcDbEntity
  8
0
  6
Continuous
 62
     7
370
    40
100
AcDbLine
 10
1030.4493001138
 20
1979.6954689866
 30
0.0
 11
1030.4493001138
 21
1948.7224890237
 31
0.0
  0
LINE
  5
2E0
330
1F
100
AcDbEntity
  8
0
  6
Continuous
 62
     7
370
    40
100
AcDbLine
 10
1027.4492940342
 20
1948.7224890237
 30
0.0
 11
1027.4492940342
 21
1979.6954689866
 31
0.0
  0
LINE
  5
2E1
330
1F
100
AcDbEntity
  8
0
  6
Continuous
 62
     7
370
    40
100
AcDbLine
 10
1027.4492940342
 20
1985.0987194424
 30
0.0
 11
1030.4493001138
 21
1985.0987194424
 31
0.0
  0
LINE
  5
2E2
330
1F
100
AcDbEntity
  8
0
  6
Continuous
 62
     7
370
    40
100
AcDbLine
 10
1030.4493001138
 20
1985.0987194424
 30
0.0
 11
1030.4493001138
 21
1979.6954689866
 31
0.0
  0
LINE
  5
2E3
330
1F
100
AcDbEntity
  8
0
  6
Continuous
 62
     7
370
    40
100
AcDbLine
 10
1027.4492940342
 20
1985.0987194424
 30
0.0
 11
1027.4492940342
 21
1979.6954689866
 31
0.0
  0
LINE
  5
2E4
330
1F
100
AcDbEntity
  8
0
  6
Continuous
 62
     7
370
    40
100
AcDbLine
 10
1030.4493001138
 20
1948.7224890237
 30
0.0
 11
1030.4493001138
 21
1942.0609360879
 31
0.0
  0
LINE
  5
2E5
330
1F
100
AcDbEntity
  8
0
  6
Continuous
 62
     7
370
    40
100
AcDbLine
 10
1027.4492940342
 20
1942.0609360879
 30
0.0
 11
1027.4492940342
 21
1948.7224890237
 31
0.0
  0
LINE
  5
2E6
330
1F
100
AcDbEntity
  8
0
  6
Continuous
 62
     7
370
    40
100
AcDbLine
 10
1030.4493001138
 20
1951.108243162
 30
0.0
 11
1032.9492977297
 21
1951.108243162
 31
0.0
  0
LINE
  5
2E7
330
1F
100
AcDbEntity
  8
0
  6
Continuous
 62
     7
370
    40
100
AcDbLine
 10
1032.9492977297
 20
1951.108243162
 30
0.0
 11
1032.9492977297
 21
1942.0609360879
 31
0.0
  0
LINE
  5
2E8
330
1F
100
AcDbEntity
  8
0
  6
Continuous
 62
     7
370
    40
100
AcDbLine
 10
1024.9492964184
 20
1951.108243162
 30
0.0
 11
1027.4492940342
 21
1951.108243162
 31
0.0
  0
LINE
  5
2E9
330
1F
100
AcDbEntity
  8
0
  6
Continuous
 62
     7
370
    40
100
AcDbLine
 10
1024.9492964184
 20
1951.108243162
 30
0.0
 11
1024.9492964184
 21
1942.0609360879
 31
0.0
  0
LINE
  5
2EA
330
1F
100
AcDbEntity
  8
0
  6
Continuous
 62
     7
370
    40
100
AcDbLine
 10
1024.9492964184
 20
1882.4787156975
 30
0.0
 11
1024.9492964184
 21
1912.6230486056
 31
0.0
  0
LINE
  5
2EB
330
1F
100
AcDbEntity
  8
0
  6
Continuous
 62
     7
370
    40
100
AcDbLine
 10
1032.9492977297
 20
1877.6391873454
 30
0.0
 11
1032.9492977297
 21
1912.6230486056
 31
0.0
  0
LINE
  5
2EC
330
1F
100
AcDbEntity
  8
0
  6
Continuous
 62
     7
370
    40
100
AcDbLine
 10
1029.94929165
 20
1806.4906074052
 30
0.0
 11
1029.94929165
 21
1817.6587893014
 31
0.0
  0
LINE
  5
2ED
330
1F
100
AcDbEntity
  8
0
  6
Continuous
 62
     7
370
    40
100
AcDbLine
 10
1032.9492977297
 20
1806.4906074052
 30
0.0
 11
1032.9492977297
 21
1817.8192599063
 31
0.0
  0
LINE
  5
2EE
330
1F
100
AcDbEntity
  8
0
  6
Continuous
 62
     7
370
    40
100
AcDbLine
 10
1024.9492964184
 20
1952.4792319482
 30
0.0
 11
1027.4492940342
 21
1952.4792319482
 31
0.0
  0
LINE
  5
2EF
330
1F
100
AcDbEntity
  8
0
  6
Continuous
 62
     7
370
    40
100
AcDbLine
 10
1030.4493001138
 20
1952.4792319482
 30
0.0
 11
1032.9492977297
 21
1952.4792319482
 31
0.0
  0
LINE
  5
2F0
330
1F
100
AcDbEntity
  8
0
  6
Continuous
 62
     7
370
    40
100
AcDbLine
 10
1024.9492964184
 20
1951.108243162
 30
0.0
 11
1024.9492964184
 21
1952.4792319482
 31
0.0
  0
LINE
  5
2F1
330
1F
100
AcDbEntity
  8
0
  6
Continuous
 62
     7
370
    40
100
AcDbLine
 10
1032.9492977297
 20
1951.108243162
 30
0.0
 11
1032.9492977297
 21
1952.4792319482
 31
0.0
  0
LINE
  5
2F2
330
1F
100
AcDbEntity
  8
0
  6
Continuous
 62
     7
370
    40
100
AcDbLine
 10
1029.94929165
 20
1798.9173380976
 30
0.0
 11
1029.94929165
 21
1806.4906074052
 31
0.0
  0
LINE
  5
2F3
330
1F
100
AcDbEntity
  8
0
  6
Continuous
 62
     7
370
    40
100
AcDbLine
 10
1032.9492977297
 20
1798.9173380976
 30
0.0
 11
1032.9492977297
 21
1806.4906074052
 31
0.0
  0
SPLINE
  5
2F4
330
1F
100
AcDbEntity
  8
0
  6
Continuous
 62
     7
370
    40
100
AcDbSpline
210
0.0
220
0.0
230
1.0
 70
     8
 71
     3
 72
    11
 73
     7
 74
     0
 42
0.00000001
 43
0.00000001
 12
1.0
 22
0.0
 32
0.0
 13
1.0
 23
0.0
 33
0.0
 40
0.0
 40
0.0
 40
0.0
 40
0.0
 40
0.2471512191414406
 40
0.4954187257616868
 40
0.7471269972221114
 40
1.0
 40
1.0
 40
1.0
 40
1.0
 10
1366.94930404775
 20
1931.740702906779
 30
0.0
 10
1366.86254146099
 20
1927.275138224307
 30
0.0
 10
1366.688624414068
 20
1918.323839612542
 30
0.0
 10
1365.248508481001
 20
1904.968527121825
 30
0.0
 10
1363.004158945021
 20
1891.668797965678
 30
0.0
 10
1360.710114146179
 20
1882.97342042425
 30
0.0
 10
1359.560444060491
 20
1878.615695828728
 30
0.0
  0
LINE
  5
2F5
330
1F
100
AcDbEntity
  8
0
  6
Continuous
 62
     7
370
    40
100
AcDbLine
 10
1359.5604440605
 20
1878.6156958287
 30
0.0
 11
1359.5484784281
 21
1878.545151869
 31
0.0
  0
LINE
  5
2F6
330
1F
100
AcDbEntity
  8
0
  6
Continuous
 62
     7
370
    40
100
AcDbLine
 10
1340.9492960607
 20
1944.7889624482
 30
0.0
 11
1364.9492999946
 21
1944.7889624482
 31
0.0
  0
LINE
  5
2F7
330
1F
100
AcDbEntity
  8
0
  6
Continuous
 62
     7
370
    40
100
AcDbLine
 10
1366.9493040477
 20
1945.2190211361
 30
0.0
 11
1366.9493040477
 21
1945.2203920429
 31
0.0
  0
SPLINE
  5
2F8
330
1F
100
AcDbEntity
  8
0
  6
Continuous
 62
     7
370
    40
100
AcDbSpline
210
0.0
220
0.0
230
1.0
 70
     8
 71
     3
 72
    13
 73
     9
 74
     0
 42
0.00000001
 43
0.00000001
 12
1.0
 22
0.0
 32
0.0
 13
1.0
 23
0.0
 33
0.0
 40
0.0
 40
0.0
 40
0.0
 40
0.0
 40
0.1399236011429714
 40
0.279188808113045
 40
0.475600663038065
 40
0.7479600421683541
 40
0.9980787996662044
 40
1.0
 40
1.0
 40
1.0
 40
1.0
 10
1366.94930404775
 20
1945.219017410806
 30
0.0
 10
1366.927899493001
 20
1945.127597263777
 30
0.0
 10
1366.885191100137
 20
1944.94518713655
 30
0.0
 10
1366.538696780675
 20
1944.401916857266
 30
0.0
 10
1365.911523470323
 20
1943.593478430554
 30
0.0
 10
1364.998068848018
 20
1942.572206520476
 30
0.0
 10
1364.290721279265
 20
1941.857589730785
 30
0.0
 10
1363.951880814147
 20
1941.530027274806
 30
0.0
 10
1363.949297968076
 20
1941.527530396513
 30
0.0
  0
SPLINE
  5
2F9
330
1F
100
AcDbEntity
  8
0
  6
Continuous
 62
     7
370
    40
100
AcDbSpline
210
0.0
220
0.0
230
1.0
 70
     8
 71
     3
 72
    13
 73
     9
 74
     0
 42
0.00000001
 43
0.00000001
 12
1.0
 22
0.0
 32
0.0
 13
1.0
 23
0.0
 33
0.0
 40
0.0
 40
0.0
 40
0.0
 40
0.0
 40
0.0019212012002764
 40
0.2520382421083531
 40
0.5243977440754913
 40
0.720811065969964
 40
0.8600763357500618
 40
1.0
 40
1.0
 40
1.0
 40
1.0
 10
1341.949298087286
 20
1941.527530396513
 30
0.0
 10
1341.946715241124
 20
1941.530027274707
 30
0.0
 10
1341.607877223544
 20
1941.8575873401
 30
0.0
 10
1340.90054184797
 20
1942.572212032545
 30
0.0
 10
1339.987090982449
 20
1943.593482537043
 30
0.0
 10
1339.359897914388
 20
1944.401914042417
 30
0.0
 10
1339.013405462858
 20
1944.945187402838
 30
0.0
 10
1338.970696731838
 20
1945.127597352679
 30
0.0
 10
1338.949292007612
 20
1945.219017410806
 30
0.0
  0
LINE
  5
2FA
330
1F
100
AcDbEntity
  8
0
  6
Continuous
 62
     7
370
    40
100
AcDbLine
 10
1338.9492920076
 20
1945.2190211361
 30
0.0
 11
1338.9492920076
 21
1945.2203920429
 31
0.0
  0
LINE
  5
2FB
330
1F
100
AcDbEntity
  8
0
  6
Continuous
 62
     7
370
    40
100
AcDbLine
 10
1366.9493040477
 20
1945.2190211361
 30
0.0
 11
1366.9493040477
 21
1931.7407029068
 31
0.0
  0
SPLINE
  5
2FC
330
1F
100
AcDbEntity
  8
0
  6
Continuous
 62
     7
370
    40
100
AcDbSpline
210
0.0
220
0.0
230
1.0
 70
     8
 71
     3
 72
    13
 73
     9
 74
     0
 42
0.00000001
 43
0.00000001
 12
1.0
 22
0.0
 32
0.0
 13
1.0
 23
0.0
 33
0.0
 40
0.0
 40
0.0
 40
0.0
 40
0.0
 40
0.0020065444091889
 40
0.1511640231903583
 40
0.4645587663875468
 40
0.6929636324490399
 40
0.8459984487814477
 40
1.0
 40
1.0
 40
1.0
 40
1.0
 10
1341.949298087286
 20
1878.352090561918
 30
0.0
 10
1341.946715213964
 20
1878.349656312824
 30
0.0
 10
1341.752133164864
 20
1878.166270944017
 30
0.0
 10
1341.154423296351
 20
1877.623240856414
 30
0.0
 10
1340.281549235412
 20
1876.92209277014
 30
0.0
 10
1339.537197178667
 20
1876.469853444898
 30
0.0
 10
1339.097762493052
 20
1876.323238415555
 30
0.0
 10
1339.005574512232
 20
1876.424116098809
 30
0.0
 10
1338.959335390256
 20
1876.474713752202
 30
0.0
  0
LINE
  5
2FD
330
1F
100
AcDbEntity
  8
0
  6
Continuous
 62
     7
370
    40
100
AcDbLine
 10
1338.9593353903
 20
1876.4747137522
 30
0.0
 11
1338.9492920076
 21
1876.5393549895
 31
0.0
  0
LINE
  5
2FE
330
1F
100
AcDbEntity
  8
0
  6
Continuous
 62
     7
370
    40
100
AcDbLine
 10
1338.9492920076
 20
1876.5393549895
 30
0.0
 11
1338.9492920076
 21
1945.2190211361
 31
0.0
  0
LINE
  5
2FF
330
1F
100
AcDbEntity
  8
0
  6
Continuous
 62
     7
370
    40
100
AcDbLine
 10
1340.9492960607
 20
1946.8860326653
 30
0.0
 11
1364.9492999946
 21
1946.8860326653
 31
0.0
  0
LINE
  5
300
330
1F
100
AcDbEntity
  8
0
  6
Continuous
 62
     7
370
    40
100
AcDbLine
 10
1364.9492999946
 20
1946.8860326653
 30
0.0
 11
1364.9492999946
 21
1944.7889624482
 31
0.0
  0
LINE
  5
301
330
1F
100
AcDbEntity
  8
0
  6
Continuous
 62
     7
370
    40
100
AcDbLine
 10
1340.9492960607
 20
1946.8860326653
 30
0.0
 11
1340.9492960607
 21
1944.7889624482
 31
0.0
  0
LINE
  5
302
330
1F
100
AcDbEntity
  8
0
  6
Continuous
 62
     7
370
    40
100
AcDbLine
 10
1364.9492999946
 20
1958.9715896493
 30
0.0
 11
1340.9492960607
 21
1958.9715896493
 31
0.0
  0
LINE
  5
303
330
1F
100
AcDbEntity
  8
0
  6
Continuous
 62
     7
370
    40
100
AcDbLine
 10
1364.9492999946
 20
1946.8860326653
 30
0.0
 11
1364.9492999946
 21
1958.9715896493
 31
0.0
  0
LINE
  5
304
330
1F
100
AcDbEntity
  8
0
  6
Continuous
 62
     7
370
    40
100
AcDbLine
 10
1345.4492977297
 20
1950.0387868231
 30
0.0
 11
1340.9492960607
 21
1950.0387868231
 31
0.0
  0
LINE
  5
305
330
1F
100
AcDbEntity
  8
0
  6
Continuous
 62
     7
370
    40
100
AcDbLine
 10
1345.4492977297
 20
1955.8188354915
 30
0.0
 11
1345.4492977297
 21
1950.0387868231
 31
0.0
  0
LINE
  5
306
330
1F
100
AcDbEntity
  8
0
  6
Continuous
 62
     7
370
    40
100
AcDbLine
 10
1340.9492960607
 20
1955.8188354915
 30
0.0
 11
1345.4492977297
 21
1955.8188354915
 31
0.0
  0
LINE
  5
307
330
1F
100
AcDbEntity
  8
0
  6
Continuous
 62
     7
370
    40
100
AcDbLine
 10
1340.9492960607
 20
1958.9715896493
 30
0.0
 11
1340.9492960607
 21
1955.8188354915
 31
0.0
  0
LINE
  5
308
330
1F
100
AcDbEntity
  8
0
  6
Continuous
 62
     7
370
    40
100
AcDbLine
 10
1340.9492960607
 20
1950.0387868231
 30
0.0
 11
1340.9492960607
 21
1946.8860326653
 31
0.0
  0
LINE
  5
309
330
1F
100
AcDbEntity
  8
0
  6
Continuous
 62
     7
370
    40
100
AcDbLine
 10
1366.9493040477
 20
1945.2203920429
 30
0.0
 11
1366.9493040477
 21
1956.7777512913
 31
0.0
  0
LINE
  5
30A
330
1F
100
AcDbEntity
  8
0
  6
Continuous
 62
     7
370
    40
100
AcDbLine
 10
1340.9492960607
 20
1953.8890941387
 30
0.0
 11
1345.4492977297
 21
1953.8890941387
 31
0.0
  0
LINE
  5
30B
330
1F
100
AcDbEntity
  8
0
  6
Continuous
 62
     7
370
    40
100
AcDbLine
 10
1338.9492920076
 20
1945.2203920429
 30
0.0
 11
1338.9492920076
 21
1956.7777512913
 31
0.0
  0
LINE
  5
30C
330
1F
100
AcDbEntity
  8
0
  6
Continuous
 62
     7
370
    40
100
AcDbLine
 10
1346.9492933189
 20
1876.3693215644
 30
0.0
 11
1346.9492933189
 21
1811.9763953929
 31
0.0
  0
LINE
  5
30D
330
1F
100
AcDbEntity
  8
0
  6
Continuous
 62
     7
370
    40
100
AcDbLine
 10
1343.9493021404
 20
1876.3693215644
 30
0.0
 11
1343.9493021404
 21
1811.9763953929
 31
0.0
  0
LINE
  5
30E
330
1F
100
AcDbEntity
  8
0
  6
Continuous
 62
     7
370
    40
100
AcDbLine
 10
1340.9492960607
 20
1955.8188354915
 30
0.0
 11
1340.9492960607
 21
1953.8890941387
 31
0.0
  0
LINE
  5
30F
330
1F
100
AcDbEntity
  8
0
  6
Continuous
 62
     7
370
    40
100
AcDbLine
 10
1338.9492920076
 20
1956.7791147476
 30
0.0
 11
1339.0535703336
 21
1956.8828454559
 31
0.0
  0
LINE
  5
310
330
1F
100
AcDbEntity
  8
0
  6
Continuous
 62
     7
370
    40
100
AcDbLine
 10
1366.9493040477
 20
1956.7791147476
 30
0.0
 11
1366.8450257217
 21
1956.8828454559
 31
0.0
  0
LINE
  5
311
330
1F
100
AcDbEntity
  8
0
  6
Continuous
 62
     7
370
    40
100
AcDbLine
 10
1338.9492920076
 20
1956.7777512913
 30
0.0
 11
1338.9492920076
 21
1956.7791184729
 31
0.0
  0
LINE
  5
312
330
1F
100
AcDbEntity
  8
0
  6
Continuous
 62
     7
370
    40
100
AcDbLine
 10
1366.9493040477
 20
1956.7777512913
 30
0.0
 11
1366.9493040477
 21
1956.7791184729
 31
0.0
  0
LINE
  5
313
330
1F
100
AcDbEntity
  8
0
  6
Continuous
 62
     7
370
    40
100
AcDbLine
 10
1346.9492933189
 20
1811.9763953929
 30
0.0
 11
1346.9492933189
 21
1800.9173347002
 31
0.0
  0
LINE
  5
314
330
1F
100
AcDbEntity
  8
0
  6
Continuous
 62
     7
370
    40
100
AcDbLine
 10
1343.9493021404
 20
1800.9173347002
 30
0.0
 11
1343.9493021404
 21
1811.9763953929
 31
0.0
  0
LWPOLYLINE
  5
315
330
1F
100
AcDbEntity
  8
0
  6
Continuous
 62
     7
370
    40
100
AcDbPolyline
 90
        9
 70
   128
 43
0.0
 10
1324.9492934381
 20
2196.4173240905
 10
1325.5345663463
 20
2197.0026118999
 10
1326.0973534023
 20
2197.5653989559
 10
1326.6160032188
 20
2198.0840487724
 10
1327.0706227457
 20
2198.5386533981
 10
1327.4437031185
 20
2198.9117486721
 10
1327.7209392225
 20
2199.1889698749
 10
1327.8916618263
 20
2199.3597073799
 10
1327.9492995178
 20
2199.4173450714
  0
LINE
  5
316
330
1F
100
AcDbEntity
  8
0
  6
Continuous
 62
     7
370
    40
100
AcDbLine
 10
1327.9492995178
 20
2199.4173450714
 30
0.0
 11
1327.9492995178
 21
1822.4173335677
 31
0.0
  0
LWPOLYLINE
  5
317
330
1F
100
AcDbEntity
  8
0
  6
Continuous
 62
     7
370
    40
100
AcDbPolyline
 90
       10
 70
   128
 43
0.0
 10
1324.9492934381
 20
1825.4173396473
 10
1325.4702380335
 20
1824.896395052
 10
1325.9753575956
 20
1824.3912754899
 10
1326.4493039285
 20
1823.9173366075
 10
1326.8776676094
 20
1823.4889729267
 10
1327.2474250232
 20
1823.1192006116
 10
1327.5473704969
 20
1822.8192625886
 10
1327.7683696186
 20
1822.5982560163
 10
1327.9037168657
 20
1822.4629162198
 10
1327.9492995178
 20
1822.4173335677
  0
LINE
  5
318
330
1F
100
AcDbEntity
  8
0
  6
Continuous
 62
     7
370
    40
100
AcDbLine
 10
1047.9492983257
 20
1822.4173335677
 30
0.0
 11
1047.9492983257
 21
2199.4173450714
 31
0.0
  0
LWPOLYLINE
  5
319
330
1F
100
AcDbEntity
  8
0
  6
Continuous
 62
     7
370
    40
100
AcDbPolyline
 90
       10
 70
   128
 43
0.0
 10
1047.9492983257
 20
2199.4173450714
 10
1047.9948809778
 20
2199.3717475181
 10
1048.1302282249
 20
2199.2364151722
 10
1048.3512273466
 20
2199.0154011493
 10
1048.6511728203
 20
2198.7154705768
 10
1049.0209302341
 20
2198.345713163
 10
1049.449293915
 20
2197.9173345809
 10
1049.9232402479
 20
2197.443388248
 10
1050.42835981
 20
2196.9382686859
 10
1050.9493044054
 20
2196.4173240905
  0
LWPOLYLINE
  5
31A
330
1F
100
AcDbEntity
  8
0
  6
Continuous
 62
     7
370
    40
100
AcDbPolyline
 90
        9
 70
   128
 43
0.0
 10
1047.9492983257
 20
1822.4173335677
 10
1048.0069360172
 20
1822.4749787097
 10
1048.177658621
 20
1822.6457013135
 10
1048.454894725
 20
1822.922929967
 10
1048.8279750978
 20
1823.2960177904
 10
1049.2825946247
 20
1823.7506298667
 10
1049.8012444412
 20
1824.2692871337
 10
1050.3640314972
 20
1824.8320667391
 10
1050.9493044054
 20
1825.4173396473
  0
LINE
  5
31B
330
1F
100
AcDbEntity
  8
0
  6
Continuous
 62
     7
370
    40
100
AcDbLine
 10
1327.9492995178
 20
1822.4173335677
 30
0.0
 11
1047.9492983257
 21
1822.4173335677
 31
0.0
  0
LINE
  5
31C
330
1F
100
AcDbEntity
  8
0
  6
Continuous
 62
     7
370
    40
100
AcDbLine
 10
1047.9492983257
 20
2199.4173450714
 30
0.0
 11
1327.9492995178
 21
2199.4173450714
 31
0.0
  0
LINE
  5
31D
330
1F
100
AcDbEntity
  8
0
  6
Continuous
 62
     7
370
    40
100
AcDbLine
 10
1043.9493051206
 20
1886.4173375388
 30
0.0
 11
1043.9493051206
 21
1916.4173368683
 31
0.0
  0
LINE
  5
31E
330
1F
100
AcDbEntity
  8
0
  6
Continuous
 62
     7
370
    40
100
AcDbLine
 10
1331.9492927229
 20
1916.4173368683
 30
0.0
 11
1331.9492927229
 21
1886.4173375388
 31
0.0
  0
LINE
  5
31F
330
1F
100
AcDbEntity
  8
0
  6
Continuous
 62
     7
370
    40
100
AcDbLine
 10
1337.9493048822
 20
1926.0700846409
 30
0.0
 11
1337.9493048822
 21
1831.9173379188
 31
0.0
  0
LINE
  5
320
330
1F
100
AcDbEntity
  8
0
  6
Continuous
 62
     7
370
    40
100
AcDbLine
 10
1333.949296776
 20
1831.9173379188
 30
0.0
 11
1333.949296776
 21
1926.0700846409
 31
0.0
  0
LINE
  5
321
330
1F
100
AcDbEntity
  8
0
  6
Continuous
 62
     7
370
    40
100
AcDbLine
 10
1037.9492929613
 20
1926.0700846409
 30
0.0
 11
1037.9492929613
 21
1831.9173379188
 31
0.0
  0
LINE
  5
322
330
1F
100
AcDbEntity
  8
0
  6
Continuous
 62
     7
370
    40
100
AcDbLine
 10
1041.9493010675
 20
1831.9173379188
 30
0.0
 11
1041.9493010675
 21
1926.0700846409
 31
0.0
  0
LINE
  5
323
330
1F
100
AcDbEntity
  8
0
  6
Continuous
 62
     7
370
    40
100
AcDbLine
 10
1041.9493010675
 20
1821.917340005
 30
0.0
 11
1037.9492929613
 21
1821.917340005
 31
0.0
  0
LINE
  5
324
330
1F
100
AcDbEntity
  8
0
  6
Continuous
 62
     7
370
    40
100
AcDbLine
 10
1037.9492929613
 20
1821.917340005
 30
0.0
 11
1037.9492929613
 21
1831.9173379188
 31
0.0
  0
LINE
  5
325
330
1F
100
AcDbEntity
  8
0
  6
Continuous
 62
     7
370
    40
100
AcDbLine
 10
1041.9493010675
 20
1831.9173379188
 30
0.0
 11
1041.9493010675
 21
1821.917340005
 31
0.0
  0
LINE
  5
326
330
1F
100
AcDbEntity
  8
0
  6
Continuous
 62
     7
370
    40
100
AcDbLine
 10
1337.9493048822
 20
1821.917340005
 30
0.0
 11
1333.949296776
 21
1821.917340005
 31
0.0
  0
LINE
  5
327
330
1F
100
AcDbEntity
  8
0
  6
Continuous
 62
     7
370
    40
100
AcDbLine
 10
1337.9493048822
 20
1831.9173379188
 30
0.0
 11
1337.9493048822
 21
1821.917340005
 31
0.0
  0
LINE
  5
328
330
1F
100
AcDbEntity
  8
0
  6
Continuous
 62
     7
370
    40
100
AcDbLine
 10
1333.949296776
 20
1821.917340005
 30
0.0
 11
1333.949296776
 21
1831.9173379188
 31
0.0
  0
LINE
  5
329
330
1F
100
AcDbEntity
  8
0
  6
Continuous
 62
     7
370
    40
100
AcDbLine
 10
1337.9493048822
 20
1935.9955450838
 30
0.0
 11
1337.9493048822
 21
1926.0700846409
 31
0.0
  0
LINE
  5
32A
330
1F
100
AcDbEntity
  8
0
  6
Continuous
 62
     7
370
    40
100
AcDbLine
 10
1333.949296776
 20
1926.0700846409
 30
0.0
 11
1333.949296776
 21
1935.9955450838
 31
0.0
  0
LINE
  5
32B
330
1F
100
AcDbEntity
  8
0
  6
Continuous
 62
     7
370
    40
100
AcDbLine
 10
1037.9492929613
 20
1926.0700846409
 30
0.0
 11
1037.9492929613
 21
1935.9955450838
 31
0.0
  0
LINE
  5
32C
330
1F
100
AcDbEntity
  8
0
  6
Continuous
 62
     7
370
    40
100
AcDbLine
 10
1041.9493010675
 20
1935.9955450838
 30
0.0
 11
1041.9493010675
 21
1926.0700846409
 31
0.0
  0
LINE
  5
32D
330
1F
100
AcDbEntity
  8
0
  6
Continuous
 62
     7
370
    40
100
AcDbLine
 10
1037.9492929613
 20
1942.1724712794
 30
0.0
 11
1037.9492929613
 21
1935.9955450838
 31
0.0
  0
LINE
  5
32E
330
1F
100
AcDbEntity
  8
0
  6
Continuous
 62
     7
370
    40
100
AcDbLine
 10
1041.9493010675
 20
1935.9955450838
 30
0.0
 11
1041.9493010675
 21
1942.1724712794
 31
0.0
  0
LINE
  5
32F
330
1F
100
AcDbEntity
  8
0
  6
Continuous
 62
     7
370
    40
100
AcDbLine
 10
1337.9493048822
 20
1942.1724712794
 30
0.0
 11
1337.9493048822
 21
1935.9955450838
 31
0.0
  0
LINE
  5
330
330
1F
100
AcDbEntity
  8
0
  6
Continuous
 62
     7
370
    40
100
AcDbLine
 10
1333.949296776
 20
1942.1724712794
 30
0.0
 11
1333.949296776
 21
1935.9955450838
 31
0.0
  0
LINE
  5
331
330
1F
100
AcDbEntity
  8
0
  6
Continuous
 62
     7
370
    40
100
AcDbLine
 10
1337.9493048822
 20
1821.917340005
 30
0.0
 11
1337.9493048822
 21
1816.9173373228
 31
0.0
  0
LINE
  5
332
330
1F
100
AcDbEntity
  8
0
  6
Continuous
 62
     7
370
    40
100
AcDbLine
 10
1333.949296776
 20
1821.917340005
 30
0.0
 11
1333.949296776
 21
1816.9173373228
 31
0.0
  0
LINE
  5
333
330
1F
100
AcDbEntity
  8
0
  6
Continuous
 62
     7
370
    40
100
AcDbLine
 10
1037.9492929613
 20
1816.9173373228
 30
0.0
 11
1037.9492929613
 21
1821.917340005
 31
0.0
  0
LINE
  5
334
330
1F
100
AcDbEntity
  8
0
  6
Continuous
 62
     7
370
    40
100
AcDbLine
 10
1041.9493010675
 20
1816.9173373228
 30
0.0
 11
1041.9493010675
 21
1821.917340005
 31
0.0
  0
LINE
  5
335
330
1F
100
AcDbEntity
  8
0
  6
Continuous
 62
     7
370
    40
100
AcDbLine
 10
1337.9493048822
 20
1815.9173352962
 30
0.0
 11
1337.9493048822
 21
1799.9173401242
 31
0.0
  0
LINE
  5
336
330
1F
100
AcDbEntity
  8
0
  6
Continuous
 62
     7
370
    40
100
AcDbLine
 10
1333.949296776
 20
1799.9173401242
 30
0.0
 11
1333.949296776
 21
1815.9173352962
 31
0.0
  0
LINE
  5
337
330
1F
100
AcDbEntity
  8
0
  6
Continuous
 62
     7
370
    40
100
AcDbLine
 10
1037.9492929613
 20
1799.9173401242
 30
0.0
 11
1037.9492929613
 21
1815.9173352962
 31
0.0
  0
LINE
  5
338
330
1F
100
AcDbEntity
  8
0
  6
Continuous
 62
     7
370
    40
100
AcDbLine
 10
1041.9493010675
 20
1815.9173352962
 30
0.0
 11
1041.9493010675
 21
1799.9173401242
 31
0.0
  0
LINE
  5
339
330
1F
100
AcDbEntity
  8
0
  6
Continuous
 62
     7
370
    40
100
AcDbLine
 10
1037.9492929613
 20
1815.9173352962
 30
0.0
 11
1037.9492929613
 21
1816.9173373228
 31
0.0
  0
LINE
  5
33A
330
1F
100
AcDbEntity
  8
0
  6
Continuous
 62
     7
370
    40
100
AcDbLine
 10
1041.9493010675
 20
1816.9173373228
 30
0.0
 11
1041.9493010675
 21
1815.9173352962
 31
0.0
  0
LINE
  5
33B
330
1F
100
AcDbEntity
  8
0
  6
Continuous
 62
     7
370
    40
100
AcDbLine
 10
1337.9493048822
 20
1816.9173373228
 30
0.0
 11
1337.9493048822
 21
1815.9173352962
 31
0.0
  0
LINE
  5
33C
330
1F
100
AcDbEntity
  8
0
  6
Continuous
 62
     7
370
    40
100
AcDbLine
 10
1333.949296776
 20
1815.9173352962
 30
0.0
 11
1333.949296776
 21
1816.9173373228
 31
0.0
  0
LINE
  5
33D
330
1F
100
AcDbEntity
  8
0
  6
Continuous
 62
     7
370
    40
100
AcDbLine
 10
1037.9492929613
 20
1942.1724712794
 30
0.0
 11
1037.9492929613
 21
1946.236826325
 31
0.0
  0
LINE
  5
33E
330
1F
100
AcDbEntity
  8
0
  6
Continuous
 62
     7
370
    40
100
AcDbLine
 10
1041.9493010675
 20
1946.236826325
 30
0.0
 11
1041.9493010675
 21
1942.1724712794
 31
0.0
  0
LINE
  5
33F
330
1F
100
AcDbEntity
  8
0
  6
Continuous
 62
     7
370
    40
100
AcDbLine
 10
1337.9493048822
 20
1946.236826325
 30
0.0
 11
1337.9493048822
 21
1942.1724712794
 31
0.0
  0
LINE
  5
340
330
1F
100
AcDbEntity
  8
0
  6
Continuous
 62
     7
370
    40
100
AcDbLine
 10
1333.949296776
 20
1942.1724712794
 30
0.0
 11
1333.949296776
 21
1946.236826325
 31
0.0
  0
LINE
  5
341
330
1F
100
AcDbEntity
  8
0
  6
Continuous
 62
     7
370
    40
100
AcDbLine
 10
1337.9493048822
 20
2001.9173397069
 30
0.0
 11
1337.9493048822
 21
1946.236826325
 31
0.0
  0
LINE
  5
342
330
1F
100
AcDbEntity
  8
0
  6
Continuous
 62
     7
370
    40
100
AcDbLine
 10
1333.949296776
 20
1946.236826325
 30
0.0
 11
1333.949296776
 21
2001.9173397069
 31
0.0
  0
LINE
  5
343
330
1F
100
AcDbEntity
  8
0
  6
Continuous
 62
     7
370
    40
100
AcDbLine
 10
1037.9492929613
 20
1946.236826325
 30
0.0
 11
1037.9492929613
 21
2001.9173397069
 31
0.0
  0
LINE
  5
344
330
1F
100
AcDbEntity
  8
0
  6
Continuous
 62
     7
370
    40
100
AcDbLine
 10
1041.9493010675
 20
2001.9173397069
 30
0.0
 11
1041.9493010675
 21
1946.236826325
 31
0.0
  0
LWPOLYLINE
  5
345
330
1F
100
AcDbEntity
  8
0
  6
Continuous
 62
     7
370
    40
100
AcDbPolyline
 90
        8
 70
   128
 43
0.0
 10
1327.9492995178
 20
1956.7173382586
 10
1328.7492981588
 20
1955.9173358923
 10
1330.1771721279
 20
1954.4894619232
 10
1331.4097365772
 20
1953.2568937486
 10
1332.4095597898
 20
1952.2570817118
 10
1333.1462284958
 20
1951.5204092806
 10
1333.5973760521
 20
1951.069257999
 10
1333.7492933904
 20
1950.9173369353
  0
LINE
  5
346
330
1F
100
AcDbEntity
  8
0
  6
Continuous
 62
     7
370
    40
100
AcDbLine
 10
1333.7492933904
 20
1950.9173369353
 30
0.0
 11
1327.9492995178
 21
1950.9173369353
 31
0.0
  0
LINE
  5
347
330
1F
100
AcDbEntity
  8
0
  6
Continuous
 62
     7
370
    40
100
AcDbLine
 10
1047.9492983257
 20
1950.9173369353
 30
0.0
 11
1042.1493044531
 21
1950.9173369353
 31
0.0
  0
LWPOLYLINE
  5
348
330
1F
100
AcDbEntity
  8
0
  6
Continuous
 62
     7
370
    40
100
AcDbPolyline
 90
        8
 70
   128
 43
0.0
 10
1047.9492983257
 20
1956.7173382586
 10
1047.1492996847
 20
1955.9173358923
 10
1045.7214257156
 20
1954.4894619232
 10
1044.4888612663
 20
1953.2568937486
 10
1043.4890380537
 20
1952.2570817118
 10
1042.7523693477
 20
1951.5204092806
 10
1042.3012217914
 20
1951.069257999
 10
1042.1493044531
 20
1950.9173369353
  0
LINE
  5
349
330
1F
100
AcDbEntity
  8
0
  6
Continuous
 62
     7
370
    40
100
AcDbLine
 10
1278.6715543305
 20
2552.9173238521
 30
0.0
 11
1333.7492933904
 21
2347.3643882518
 31
0.0
  0
LWPOLYLINE
  5
34A
330
1F
100
AcDbEntity
  8
0
  6
Continuous
 62
     7
370
    40
100
AcDbPolyline
 90
        9
 70
   128
 43
0.0
 10
1333.7492933904
 20
2347.3643882518
 10
1333.557157818
 20
2347.3390860801
 10
1332.9880973732
 20
2347.264192844
 10
1332.0640018617
 20
2347.1425099617
 10
1330.8203658497
 20
2346.9788058048
 10
1329.3050071632
 20
2346.7792792564
 10
1327.576129738
 20
2346.5516789203
 10
1325.7002076542
 20
2346.3047070747
 10
1323.7493029272
 20
2346.0478706604
  0
LWPOLYLINE
  5
34B
330
1F
100
AcDbEntity
  8
0
  6
Continuous
 62
     7
370
    40
100
AcDbPolyline
 90
       10
 70
   128
 43
0.0
 10
1278.6715543305
 20
2552.9173238521
 10
1278.5549825465
 20
2552.7653916126
 10
1278.2087987696
 20
2552.3142440563
 10
1277.6435306703
 20
2551.5775902515
 10
1276.8763518368
 20
2550.57778194
 10
1275.9305676853
 20
2549.3452174907
 10
1274.8349225556
 20
2547.9173286205
 10
1273.6226981913
 20
2546.3375671154
 10
1272.3307302629
 20
2544.6537955051
 10
1270.9982833301
 20
2542.9173333889
  0
LINE
  5
34C
330
1F
100
AcDbEntity
  8
0
  6
Continuous
 62
     7
370
    40
100
AcDbLine
 10
1097.227043513
 20
2552.9173238521
 30
0.0
 11
1278.6715543305
 21
2552.9173238521
 31
0.0
  0
LWPOLYLINE
  5
34D
330
1F
100
AcDbEntity
  8
0
  6
Continuous
 62
     7
370
    40
100
AcDbPolyline
 90
       10
 70
   128
 43
0.0
 10
1097.227043513
 20
2552.9173238521
 10
1097.343615297
 20
2552.7653916126
 10
1097.6897990739
 20
2552.3142440563
 10
1098.2550671732
 20
2551.5775902515
 10
1099.0222460067
 20
2550.57778194
 10
1099.9680301582
 20
2549.3452174907
 10
1101.0636752879
 20
2547.9173286205
 10
1102.2758996522
 20
2546.3375671154
 10
1103.5678675806
 20
2544.6537955051
 10
1104.9003145134
 20
2542.9173333889
  0
LINE
  5
34E
330
1F
100
AcDbEntity
  8
0
  6
Continuous
 62
     7
370
    40
100
AcDbLine
 10
1042.1493044531
 20
1950.9173369353
 30
0.0
 11
1042.1493044531
 21
2347.3643882518
 31
0.0
  0
LWPOLYLINE
  5
34F
330
1F
100
AcDbEntity
  8
0
  6
Continuous
 62
     7
370
    40
100
AcDbPolyline
 90
        9
 70
   128
 43
0.0
 10
1052.1492949163
 20
2346.0478706604
 10
1050.1983901893
 20
2346.3047070747
 10
1048.3224681055
 20
2346.5516789203
 10
1046.5935906803
 20
2346.7792792564
 10
1045.0782319938
 20
2346.9788058048
 10
1043.8345959818
 20
2347.1425099617
 10
1042.9105004703
 20
2347.264192844
 10
1042.3414400255
 20
2347.3390860801
 10
1042.1493044531
 20
2347.3643882518
  0
LINE
  5
350
330
1F
100
AcDbEntity
  8
0
  6
Continuous
 62
     7
370
    40
100
AcDbLine
 10
1333.7492933904
 20
2347.3643882518
 30
0.0
 11
1333.7492933904
 21
1950.9173369353
 31
0.0
  0
LINE
  5
351
330
1F
100
AcDbEntity
  8
0
  6
Continuous
 62
     7
370
    40
100
AcDbLine
 10
1042.1493044531
 20
2347.3643882518
 30
0.0
 11
1097.227043513
 21
2552.9173238521
 31
0.0
  0
LWPOLYLINE
  5
352
330
1F
100
AcDbEntity
  8
0
  6
Continuous
 62
     7
370
    40
100
AcDbPolyline
 90
        9
 70
   128
 43
0.0
 10
1088.8596466219
 20
2537.9173381572
 10
1089.3823868071
 20
2539.8682577854
 10
1089.8850402271
 20
2541.7441947704
 10
1090.3482949769
 20
2543.4730274921
 10
1090.7543292677
 20
2544.9884159809
 10
1091.0875639354
 20
2546.2320072895
 10
1091.335176531
 20
2547.1561177021
 10
1091.4876526629
 20
2547.7251632457
 10
1091.5391361748
 20
2547.9173286205
  0
LINE
  5
353
330
1F
100
AcDbEntity
  8
0
  6
Continuous
 62
     7
370
    40
100
AcDbLine
 10
1091.5391361748
 20
2547.9173286205
 30
0.0
 11
1095.6802433764
 21
2547.9173286205
 31
0.0
  0
LWPOLYLINE
  5
354
330
1F
100
AcDbEntity
  8
0
  6
Continuous
 62
     7
370
    40
100
AcDbPolyline
 90
       10
 70
   128
 43
0.0
 10
1095.6802433764
 20
2547.9173286205
 10
1095.639533404
 20
2547.765396381
 10
1095.5186477339
 20
2547.3142488246
 10
1095.3212595021
 20
2546.5775950199
 10
1095.0533589756
 20
2545.5777867084
 10
1094.7230970895
 20
2544.3452222591
 10
1094.3404948746
 20
2542.9173333889
 10
1093.917190138
 20
2541.3375122791
 10
1093.4660425817
 20
2539.6538002735
 10
1093.0007538234
 20
2537.9173381572
  0
LINE
  5
355
330
1F
100
AcDbEntity
  8
0
  6
Continuous
 62
     7
370
    40
100
AcDbLine
 10
1280.2183544671
 20
2547.9173286205
 30
0.0
 11
1284.3594616687
 21
2547.9173286205
 31
0.0
  0
LWPOLYLINE
  5
356
330
1F
100
AcDbEntity
  8
0
  6
Continuous
 62
     7
370
    40
100
AcDbPolyline
 90
        9
 70
   128
 43
0.0
 10
1282.8978440201
 20
2537.9173381572
 10
1282.3751038348
 20
2539.8682577854
 10
1281.8724504148
 20
2541.7441947704
 10
1281.4092031156
 20
2543.4730274921
 10
1281.0031613743
 20
2544.9884159809
 10
1280.6699341571
 20
2546.2320072895
 10
1280.4223215615
 20
2547.1561177021
 10
1280.269837979
 20
2547.7251632457
 10
1280.2183544671
 20
2547.9173286205
  0
LWPOLYLINE
  5
357
330
1F
100
AcDbEntity
  8
0
  6
Continuous
 62
     7
370
    40
100
AcDbPolyline
 90
        9
 70
   128
 43
0.0
 10
1284.3594616687
 20
2547.9173286205
 10
1284.4109451806
 20
2547.7251632457
 10
1284.5634213125
 20
2547.1561177021
 10
1284.8110339081
 20
2546.2320072895
 10
1285.1442685758
 20
2544.9884159809
 10
1285.5503028666
 20
2543.4730274921
 10
1286.0135576164
 20
2541.7441947704
 10
1286.5162110364
 20
2539.8682577854
 10
1287.0389512216
 20
2537.9173381572
  0
LINE
  5
358
330
1F
100
AcDbEntity
  8
0
  6
Continuous
 62
     7
370
    40
100
AcDbLine
 10
1282.8978440201
 20
2537.9173381572
 30
0.0
 11
1333.949296776
 21
2347.3907335048
 31
0.0
  0
LINE
  5
359
330
1F
100
AcDbEntity
  8
0
  6
Continuous
 62
     7
370
    40
100
AcDbLine
 10
1287.0389512216
 20
2537.9173381572
 30
0.0
 11
1337.9493048822
 21
2347.9173405414
 31
0.0
  0
LINE
  5
35A
330
1F
100
AcDbEntity
  8
0
  6
Continuous
 62
     7
370
    40
100
AcDbLine
 10
1337.9493048822
 20
2347.9173405414
 30
0.0
 11
1337.9493048822
 21
2001.9173397069
 31
0.0
  0
LINE
  5
35B
330
1F
100
AcDbEntity
  8
0
  6
Continuous
 62
     7
370
    40
100
AcDbLine
 10
1333.949296776
 20
2347.3907335048
 30
0.0
 11
1333.949296776
 21
2001.9173397069
 31
0.0
  0
LINE
  5
35C
330
1F
100
AcDbEntity
  8
0
  6
Continuous
 62
     7
370
    40
100
AcDbLine
 10
1041.9493010675
 20
2347.3907335048
 30
0.0
 11
1093.0007538234
 21
2537.9173381572
 31
0.0
  0
LINE
  5
35D
330
1F
100
AcDbEntity
  8
0
  6
Continuous
 62
     7
370
    40
100
AcDbLine
 10
1037.9492929613
 20
2347.9173405414
 30
0.0
 11
1088.8596466219
 21
2537.9173381572
 31
0.0
  0
LINE
  5
35E
330
1F
100
AcDbEntity
  8
0
  6
Continuous
 62
     7
370
    40
100
AcDbLine
 10
1037.9492929613
 20
2347.9173405414
 30
0.0
 11
1037.9492929613
 21
2001.9173397069
 31
0.0
  0
LINE
  5
35F
330
1F
100
AcDbEntity
  8
0
  6
Continuous
 62
     7
370
    40
100
AcDbLine
 10
1041.9493010675
 20
2001.9173397069
 30
0.0
 11
1041.9493010675
 21
2347.3907335048
 31
0.0
  0
LWPOLYLINE
  5
360
330
1F
100
AcDbEntity
  8
0
  6
Continuous
 62
     7
370
    40
100
AcDbPolyline
 90
        3
 70
   128
 43
0.0
 10
1075.9492954647
 20
1821.917340005
 10
1077.9002001917
 20
1822.109483028
 10
1079.0717965399
 20
1822.4173335677
  0
LINE
  5
361
330
1F
100
AcDbEntity
  8
0
  6
Continuous
 62
     7
370
    40
100
AcDbLine
 10
1095.8872950112
 20
2547.9173286205
 30
0.0
 11
1095.6802433764
 21
2547.9173286205
 31
0.0
  0
LINE
  5
362
330
1F
100
AcDbEntity
  8
0
  6
Continuous
 62
     7
370
    40
100
AcDbLine
 10
1075.9492954647
 20
1821.917340005
 30
0.0
 11
1041.9493010675
 21
1821.917340005
 31
0.0
  0
LWPOLYLINE
  5
363
330
1F
100
AcDbEntity
  8
0
  6
Continuous
 62
     7
370
    40
100
AcDbPolyline
 90
        3
 70
   128
 43
0.0
 10
1296.8268013036
 20
1822.4173335677
 10
1297.9983976518
 20
1822.109483028
 10
1299.9493023788
 20
1821.917340005
  0
LINE
  5
364
330
1F
100
AcDbEntity
  8
0
  6
Continuous
 62
     7
370
    40
100
AcDbLine
 10
1280.2183544671
 20
2547.9173286205
 30
0.0
 11
1280.0113028323
 21
2547.9173286205
 31
0.0
  0
LINE
  5
365
330
1F
100
AcDbEntity
  8
0
  6
Continuous
 62
     7
370
    40
100
AcDbLine
 10
1333.949296776
 20
1821.917340005
 30
0.0
 11
1299.9493023788
 21
1821.917340005
 31
0.0
  0
SPLINE
  5
366
330
1F
100
AcDbEntity
  8
0
  6
Continuous
 62
     7
370
    40
100
AcDbSpline
210
0.0
220
0.0
230
1.0
 70
     8
 71
     3
 72
    22
 73
    18
 74
     0
 42
0.00000001
 43
0.00000001
 12
1.0
 22
0.0
 32
0.0
 13
1.0
 23
0.0
 33
0.0
 40
0.0
 40
0.0
 40
0.0
 40
0.0
 40
0.0411747513556872
 40
0.111160431785171
 40
0.1811631376505018
 40
0.2511753287719215
 40
0.3212118557326876
 40
0.3912856957004699
 40
0.461407167417427
 40
0.5315838961215427
 40
0.601819798547855
 40
0.6721159276430145
 40
0.7424706322512309
 40
0.8128792522609951
 40
0.8833354806165471
 40
0.9538319773499339
 40
1.0
 40
1.0
 40
1.0
 40
1.0
 10
3784.145877783576
 20
1874.025562623671
 30
0.0
 10
3784.134962989612
 20
1874.572872178125
 30
0.0
 10
3784.105496067044
 20
1876.0504564838
 30
0.0
 10
3783.797534123114
 20
1878.446024732671
 30
0.0
 10
3783.146305733922
 20
1881.168108609877
 30
0.0
 10
3782.187201274654
 20
1883.803340997008
 30
0.0
 10
3780.937754371832
 20
1886.319591925307
 30
0.0
 10
3779.411480387466
 20
1888.686660038419
 30
0.0
 10
3777.627124834332
 20
1890.876043099229
 30
0.0
 10
3775.605940834475
 20
1892.86127922382
 30
0.0
 10
3773.372200489679
 20
1894.618259172835
 30
0.0
 10
3770.952732243299
 20
1896.125656065073
 30
0.0
 10
3768.3766789894
 20
1897.36451991931
 30
0.0
 10
3765.675138978317
 20
1898.321149524962
 30
0.0
 10
3762.880987325028
 20
1898.977557257737
 30
0.0
 10
3760.356297233438
 20
1899.305274119608
 30
0.0
 10
3758.772593808216
 20
1899.338450133018
 30
0.0
 10
3758.145869796554
 20
1899.351578982703
 30
0.0
  0
ARC
  5
367
330
1F
100
AcDbEntity
  8
0
  6
Continuous
 62
     7
370
    40
100
AcDbCircle
 10
3736.145873492
 20
1894.3515789061
 30
0.0
 40
5.0
100
AcDbArc
 50
90.0
 51
180.0
  0
LINE
  5
368
330
1F
100
AcDbEntity
  8
0
  6
Continuous
 62
     7
370
    40
100
AcDbLine
 10
3758.1458697966
 20
1899.3515789827
 30
0.0
 11
3736.1458699158
 21
1899.3515789827
 31
0.0
  0
LINE
  5
369
330
1F
100
AcDbEntity
  8
0
  6
Continuous
 62
     7
370
    40
100
AcDbLine
 10
3731.1458746841
 20
1798.9173380976
 30
0.0
 11
3734.1458807638
 21
1798.9173380976
 31
0.0
  0
LINE
  5
36A
330
1F
100
AcDbEntity
  8
0
  6
Continuous
 62
     7
370
    40
100
AcDbLine
 10
3734.1458807638
 20
1817.6587893014
 30
0.0
 11
3762.7609531334
 21
1817.6587893014
 31
0.0
  0
ARC
  5
36B
330
1F
100
AcDbEntity
  8
0
  6
Continuous
 62
     7
370
    40
100
AcDbCircle
 10
3762.7609536673
 20
1822.6587857021
 30
0.0
 40
5.000000000000296
100
AcDbArc
 50
270.0
 51
300.1455923513
  0
LINE
  5
36C
330
1F
100
AcDbEntity
  8
0
  6
Continuous
 62
     7
370
    40
100
AcDbLine
 10
3765.2719478062
 20
1818.3350263482
 30
0.0
 11
3781.6568623236
 21
1827.8504608517
 31
0.0
  0
ARC
  5
36D
330
1F
100
AcDbEntity
  8
0
  6
Continuous
 62
     7
370
    40
100
AcDbCircle
 10
3779.145873492
 20
1832.1742188041
 30
0.0
 40
5.0
100
AcDbArc
 50
300.1455923513
 51
0.0
  0
LINE
  5
36E
330
1F
100
AcDbEntity
  8
0
  6
Continuous
 62
     7
370
    40
100
AcDbLine
 10
3417.1458790949
 20
1800.9173347002
 30
0.0
 11
3420.1458702734
 21
1800.9173347002
 31
0.0
  0
LINE
  5
36F
330
1F
100
AcDbEntity
  8
0
  6
Continuous
 62
     7
370
    40
100
AcDbLine
 10
3399.1458724192
 20
1956.8831397539
 30
0.0
 11
3397.2501466921
 21
1956.8831397539
 31
0.0
  0
LINE
  5
370
330
1F
100
AcDbEntity
  8
0
  6
Continuous
 62
     7
370
    40
100
AcDbLine
 10
3425.0416020801
 20
1956.8831397539
 30
0.0
 11
3423.1458763531
 21
1956.8831397539
 31
0.0
  0
LINE
  5
371
330
1F
100
AcDbEntity
  8
0
  6
Continuous
 62
     7
370
    40
100
AcDbLine
 10
3407.4312607696
 20
1876.3693215644
 30
0.0
 11
3417.1458790949
 21
1876.3693215644
 31
0.0
  0
LINE
  5
372
330
1F
100
AcDbEntity
  8
0
  6
Continuous
 62
     7
370
    40
100
AcDbLine
 10
3420.1458702734
 20
1876.3693215644
 30
0.0
 11
3424.9628941467
 21
1876.3693215644
 31
0.0
  0
ARC
  5
373
330
1F
100
AcDbEntity
  8
0
  6
Continuous
 62
     7
370
    40
100
AcDbCircle
 10
3407.431262591
 20
1879.3693218612
 30
0.0
 40
2.999999999999848
100
AcDbArc
 50
195.9455176554
 51
270.0
  0
LINE
  5
374
330
1F
100
AcDbEntity
  8
0
  6
Continuous
 62
     7
370
    40
100
AcDbLine
 10
3426.1458675316
 20
1799.9173401242
 30
0.0
 11
3430.1458756378
 21
1799.9173401242
 31
0.0
  0
LINE
  5
375
330
1F
100
AcDbEntity
  8
0
  6
Continuous
 62
     7
370
    40
100
AcDbLine
 10
3722.1458713463
 20
1799.9173401242
 30
0.0
 11
3726.1458794525
 21
1799.9173401242
 31
0.0
  0
ELLIPSE
  5
376
330
1F
100
AcDbEntity
  8
0
  6
Continuous
 62
     7
370
    40
100
AcDbEllipse
 10
3736.145873492
 20
1844.0204892418
 30
0.0
 11
4.959719712930564
 21
4.959719712930337
 31
0.0
210
0.0
220
0.0
230
1.0
 40
0.1277064119
 41
1.44377745112375
 42
3.014573777919022
  0
LINE
  5
377
330
1F
100
AcDbEntity
  8
0
  6
Continuous
 62
     7
370
    40
100
AcDbLine
 10
3731.1458746841
 20
1839.1809610968
 30
0.0
 11
3731.1458746841
 21
1894.3515790945
 31
0.0
  0
LINE
  5
378
330
1F
100
AcDbEntity
  8
0
  6
Continuous
 62
     7
370
    40
100
AcDbLine
 10
3784.1458777836
 20
1874.0255626237
 30
0.0
 11
3784.1458777836
 21
1853.5359239524
 31
0.0
  0
LINE
  5
379
330
1F
100
AcDbEntity
  8
0
  6
Continuous
 62
     7
370
    40
100
AcDbLine
 10
3734.1458807638
 20
1834.1546802168
 30
0.0
 11
3731.1458746841
 21
1834.1546802168
 31
0.0
  0
LINE
  5
37A
330
1F
100
AcDbEntity
  8
0
  6
Continuous
 62
     7
370
    40
100
AcDbLine
 10
3731.1458746841
 20
1839.1809610968
 30
0.0
 11
3731.1458746841
 21
1834.1546802168
 31
0.0
  0
LINE
  5
37B
330
1F
100
AcDbEntity
  8
0
  6
Continuous
 62
     7
370
    40
100
AcDbLine
 10
3784.1458777836
 20
1853.5359239524
 30
0.0
 11
3784.1458777836
 21
1832.1742190366
 31
0.0
  0
LINE
  5
37C
330
1F
100
AcDbEntity
  8
0
  6
Continuous
 62
     7
370
    40
100
AcDbLine
 10
3734.1458807638
 20
1834.1546802168
 30
0.0
 11
3734.1458807638
 21
1814.5638255721
 31
0.0
  0
LINE
  5
37D
330
1F
100
AcDbEntity
  8
0
  6
Continuous
 62
     7
370
    40
100
AcDbLine
 10
3731.1458746841
 20
1834.1546802168
 30
0.0
 11
3731.1458746841
 21
1814.5638255721
 31
0.0
  0
LINE
  5
37E
330
1F
100
AcDbEntity
  8
0
  6
Continuous
 62
     7
370
    40
100
AcDbLine
 10
3734.1458807638
 20
1814.5638255721
 30
0.0
 11
3734.1458807638
 21
1798.9173380976
 31
0.0
  0
LINE
  5
37F
330
1F
100
AcDbEntity
  8
0
  6
Continuous
 62
     7
370
    40
100
AcDbLine
 10
3731.1458746841
 20
1814.5638255721
 30
0.0
 11
3731.1458746841
 21
1798.9173380976
 31
0.0
  0
LINE
  5
380
330
1F
100
AcDbEntity
  8
0
  6
Continuous
 62
     7
370
    40
100
AcDbLine
 10
3739.1458759954
 20
1927.4505840933
 30
0.0
 11
3731.1458746841
 21
1927.4505840933
 31
0.0
  0
LINE
  5
381
330
1F
100
AcDbEntity
  8
0
  6
Continuous
 62
     7
370
    40
100
AcDbLine
 10
3739.1458759954
 20
1930.2150400674
 30
0.0
 11
3731.1458746841
 21
1930.2150400674
 31
0.0
  0
LINE
  5
382
330
1F
100
AcDbEntity
  8
0
  6
Continuous
 62
     7
370
    40
100
AcDbLine
 10
3739.1458759954
 20
1930.2150400674
 30
0.0
 11
3739.1458759954
 21
1927.4505840933
 31
0.0
  0
LINE
  5
383
330
1F
100
AcDbEntity
  8
0
  6
Continuous
 62
     7
370
    40
100
AcDbLine
 10
3731.1458746841
 20
1930.2150400674
 30
0.0
 11
3731.1458746841
 21
1927.4505840933
 31
0.0
  0
LINE
  5
384
330
1F
100
AcDbEntity
  8
0
  6
Continuous
 62
     7
370
    40
100
AcDbLine
 10
3739.1458759954
 20
1952.4792319482
 30
0.0
 11
3731.1458746841
 21
1952.4792319482
 31
0.0
  0
LINE
  5
385
330
1F
100
AcDbEntity
  8
0
  6
Continuous
 62
     7
370
    40
100
AcDbLine
 10
3739.1458759954
 20
1952.4792319482
 30
0.0
 11
3739.1458759954
 21
1930.2150400674
 31
0.0
  0
LINE
  5
386
330
1F
100
AcDbEntity
  8
0
  6
Continuous
 62
     7
370
    40
100
AcDbLine
 10
3731.1458746841
 20
1952.4792319482
 30
0.0
 11
3731.1458746841
 21
1930.2150400674
 31
0.0
  0
LINE
  5
387
330
1F
100
AcDbEntity
  8
0
  6
Continuous
 62
     7
370
    40
100
AcDbLine
 10
3739.1458759954
 20
1927.4505840933
 30
0.0
 11
3739.1458759954
 21
1899.3515789827
 31
0.0
  0
LINE
  5
388
330
1F
100
AcDbEntity
  8
0
  6
Continuous
 62
     7
370
    40
100
AcDbLine
 10
3731.1458746841
 20
1927.4505840933
 30
0.0
 11
3731.1458746841
 21
1894.3515790945
 31
0.0
  0
LINE
  5
389
330
1F
100
AcDbEntity
  8
0
  6
Continuous
 62
     7
370
    40
100
AcDbLine
 10
3736.6458783796
 20
1954.1257432049
 30
0.0
 11
3736.6458783796
 21
1952.4792319482
 31
0.0
  0
LINE
  5
38A
330
1F
100
AcDbEntity
  8
0
  6
Continuous
 62
     7
370
    40
100
AcDbLine
 10
3736.6458783796
 20
1954.1257432049
 30
0.0
 11
3733.6458722999
 21
1954.1257432049
 31
0.0
  0
LINE
  5
38B
330
1F
100
AcDbEntity
  8
0
  6
Continuous
 62
     7
370
    40
100
AcDbLine
 10
3733.6458722999
 20
1952.4792319482
 30
0.0
 11
3733.6458722999
 21
1954.1257432049
 31
0.0
  0
LINE
  5
38C
330
1F
100
AcDbEntity
  8
0
  6
Continuous
 62
     7
370
    40
100
AcDbLine
 10
3736.6458783796
 20
1985.0987194424
 30
0.0
 11
3733.6458722999
 21
1985.0987194424
 31
0.0
  0
LINE
  5
38D
330
1F
100
AcDbEntity
  8
0
  6
Continuous
 62
     7
370
    40
100
AcDbLine
 10
3736.6458783796
 20
1985.0987194424
 30
0.0
 11
3736.6458783796
 21
1954.1257432049
 31
0.0
  0
LINE
  5
38E
330
1F
100
AcDbEntity
  8
0
  6
Continuous
 62
     7
370
    40
100
AcDbLine
 10
3733.6458722999
 20
1954.1257432049
 30
0.0
 11
3733.6458722999
 21
1985.0987194424
 31
0.0
  0
LINE
  5
38F
330
1F
100
AcDbEntity
  8
0
  6
Continuous
 62
     7
370
    40
100
AcDbLine
 10
3420.1458702734
 20
1819.85828265
 30
0.0
 11
3420.1458702734
 21
1801.444291914
 31
0.0
  0
LINE
  5
390
330
1F
100
AcDbEntity
  8
0
  6
Continuous
 62
     7
370
    40
100
AcDbLine
 10
3417.1458790949
 20
1801.444291914
 30
0.0
 11
3417.1458790949
 21
1819.85828265
 31
0.0
  0
LINE
  5
391
330
1F
100
AcDbEntity
  8
0
  6
Continuous
 62
     7
370
    40
100
AcDbLine
 10
3420.1458702734
 20
1885.4694085514
 30
0.0
 11
3417.1458790949
 21
1885.4694085514
 31
0.0
  0
LINE
  5
392
330
1F
100
AcDbEntity
  8
0
  6
Continuous
 62
     7
370
    40
100
AcDbLine
 10
3420.1458702734
 20
1885.4694085514
 30
0.0
 11
3420.1458702734
 21
1819.85828265
 31
0.0
  0
LINE
  5
393
330
1F
100
AcDbEntity
  8
0
  6
Continuous
 62
     7
370
    40
100
AcDbLine
 10
3417.1458790949
 20
1885.4694085514
 30
0.0
 11
3417.1458790949
 21
1819.85828265
 31
0.0
  0
SPLINE
  5
394
330
1F
100
AcDbEntity
  8
0
  6
Continuous
 62
     7
370
    40
100
AcDbSpline
210
0.0
220
0.0
230
1.0
 70
     8
 71
     3
 72
    11
 73
     7
 74
     0
 42
0.00000001
 43
0.00000001
 12
1.0
 22
0.0
 32
0.0
 13
1.0
 23
0.0
 33
0.0
 40
0.0
 40
0.0
 40
0.0
 40
0.0
 40
0.2471512191414406
 40
0.4954187257616868
 40
0.7471269972221114
 40
1.0
 40
1.0
 40
1.0
 40
1.0
 10
3397.145868366042
 20
1931.740702906779
 30
0.0
 10
3397.232630952802
 20
1927.275138224307
 30
0.0
 10
3397.406547999724
 20
1918.323839612542
 30
0.0
 10
3398.846663932792
 20
1904.968527121825
 30
0.0
 10
3401.091013468771
 20
1891.668797965678
 30
0.0
 10
3403.385058267613
 20
1882.97342042425
 30
0.0
 10
3404.534728353301
 20
1878.615695828728
 30
0.0
  0
LINE
  5
395
330
1F
100
AcDbEntity
  8
0
  6
Continuous
 62
     7
370
    40
100
AcDbLine
 10
3397.145868366
 20
1931.7407029068
 30
0.0
 11
3397.145868366
 21
1943.2410931533
 31
0.0
  0
LINE
  5
396
330
1F
100
AcDbEntity
  8
0
  6
Continuous
 62
     7
370
    40
100
AcDbLine
 10
3425.1458804062
 20
1956.7791184729
 30
0.0
 11
3425.1458804062
 21
1886.5175748562
 31
0.0
  0
LINE
  5
397
330
1F
100
AcDbEntity
  8
0
  6
Continuous
 62
     7
370
    40
100
AcDbLine
 10
3425.1458804062
 20
1886.5175748562
 30
0.0
 11
3425.1358370235
 21
1886.5822170248
 31
0.0
  0
SPLINE
  5
398
330
1F
100
AcDbEntity
  8
0
  6
Continuous
 62
     7
370
    40
100
AcDbSpline
210
0.0
220
0.0
230
1.0
 70
     8
 71
     3
 72
    13
 73
     9
 74
     0
 42
0.00000001
 43
0.00000001
 12
1.0
 22
0.0
 32
0.0
 13
1.0
 23
0.0
 33
0.0
 40
0.0
 40
0.0
 40
0.0
 40
0.0
 40
0.0020067247871368
 40
0.1511640636165671
 40
0.4645587594973123
 40
0.6929635293882643
 40
0.8459986414702012
 40
1.0
 40
1.0
 40
1.0
 40
1.0
 10
3422.145874326507
 20
1890.030919419757
 30
0.0
 10
3422.148457198117
 20
1890.028374618668
 30
0.0
 10
3422.343021679976
 20
1889.836677941471
 30
0.0
 10
3422.940766983797
 20
1889.237453523583
 30
0.0
 10
3423.813618443366
 20
1888.312238359155
 30
0.0
 10
3424.557976689826
 20
1887.445530445355
 30
0.0
 10
3424.997409231365
 20
1886.869641241391
 30
0.0
 10
3425.089597720154
 20
1886.678225892251
 30
0.0
 10
3425.135837023536
 20
1886.582217024795
 30
0.0
  0
SPLINE
  5
399
330
1F
100
AcDbEntity
  8
0
  6
Continuous
 62
     7
370
    40
100
AcDbSpline
210
0.0
220
0.0
230
1.0
 70
     8
 71
     3
 72
    13
 73
     9
 74
     0
 42
0.00000001
 43
0.00000001
 12
1.0
 22
0.0
 32
0.0
 13
1.0
 23
0.0
 33
0.0
 40
0.0
 40
0.0
 40
0.0
 40
0.0
 40
0.1399237102916958
 40
0.2791888561474916
 40
0.4756020749534944
 40
0.747962317317852
 40
0.9980795048453888
 40
1.0
 40
1.0
 40
1.0
 40
1.0
 10
3425.145880406181
 20
1956.779114747575
 30
0.0
 10
3425.12447584844
 20
1956.828335018379
 30
0.0
 10
3425.081767475576
 20
1956.926543900033
 30
0.0
 10
3424.735272614887
 20
1956.797905089742
 30
0.0
 10
3424.108092024664
 20
1956.391625871536
 30
0.0
 10
3423.194569182432
 20
1955.644486721956
 30
0.0
 10
3422.48741955849
 20
1954.991675240872
 30
0.0
 10
3422.148457176836
 20
1954.663756112716
 30
0.0
 10
3422.145874326507
 20
1954.661257410578
 30
0.0
  0
LINE
  5
39A
330
1F
100
AcDbEntity
  8
0
  6
Continuous
 62
     7
370
    40
100
AcDbLine
 10
3420.1458702734
 20
1801.444291914
 30
0.0
 11
3420.1458702734
 21
1800.9173347002
 31
0.0
  0
LINE
  5
39B
330
1F
100
AcDbEntity
  8
0
  6
Continuous
 62
     7
370
    40
100
AcDbLine
 10
3417.1458790949
 20
1800.9173347002
 30
0.0
 11
3417.1458790949
 21
1801.444291914
 31
0.0
  0
LINE
  5
39C
330
1F
100
AcDbEntity
  8
0
  6
Continuous
 62
     7
370
    40
100
AcDbLine
 10
3425.1358370235
 20
1876.4747137522
 30
0.0
 11
3425.1458804062
 21
1876.5393549895
 31
0.0
  0
LINE
  5
39D
330
1F
100
AcDbEntity
  8
0
  6
Continuous
 62
     7
370
    40
100
AcDbLine
 10
3425.1458804062
 20
1876.5393549895
 30
0.0
 11
3425.1458804062
 21
1886.5175748562
 31
0.0
  0
LINE
  5
39E
330
1F
100
AcDbEntity
  8
0
  6
Continuous
 62
     7
370
    40
100
AcDbLine
 10
3397.145868366
 20
1943.2410931533
 30
0.0
 11
3397.145868366
 21
1956.7791184729
 31
0.0
  0
SPLINE
  5
39F
330
1F
100
AcDbEntity
  8
0
  6
Continuous
 62
     7
370
    40
100
AcDbSpline
210
0.0
220
0.0
230
1.0
 70
     8
 71
     3
 72
    13
 73
     9
 74
     0
 42
0.00000001
 43
0.00000001
 12
1.0
 22
0.0
 32
0.0
 13
1.0
 23
0.0
 33
0.0
 40
0.0
 40
0.0
 40
0.0
 40
0.0
 40
0.1399236471848964
 40
0.2791887302309111
 40
0.475600482065667
 40
0.7479606015932077
 40
0.9980795057115487
 40
1.0
 40
1.0
 40
1.0
 40
1.0
 10
3397.145868366042
 20
1956.779114747575
 30
0.0
 10
3397.167272754305
 20
1956.828334970791
 30
0.0
 10
3397.209980789014
 20
1956.926543757494
 30
0.0
 10
3397.556477517614
 20
1956.797906126493
 30
0.0
 10
3398.183638350266
 20
1956.391623886111
 30
0.0
 10
3399.097164949146
 20
1955.644481641277
 30
0.0
 10
3399.80432676538
 20
1954.991677632809
 30
0.0
 10
3400.143291595478
 20
1954.663756112805
 30
0.0
 10
3400.145874445716
 20
1954.661257410578
 30
0.0
  0
LINE
  5
3A0
330
1F
100
AcDbEntity
  8
0
  6
Continuous
 62
     7
370
    40
100
AcDbLine
 10
3399.1458724192
 20
1956.8745194321
 30
0.0
 11
3423.1458763531
 21
1956.8745194321
 31
0.0
  0
LINE
  5
3A1
330
1F
100
AcDbEntity
  8
0
  6
Continuous
 62
     7
370
    40
100
AcDbLine
 10
3399.1458724192
 20
1958.9715896493
 30
0.0
 11
3423.1458763531
 21
1958.9715896493
 31
0.0
  0
LINE
  5
3A2
330
1F
100
AcDbEntity
  8
0
  6
Continuous
 62
     7
370
    40
100
AcDbLine
 10
3423.1458763531
 20
1958.9715896493
 30
0.0
 11
3423.1458763531
 21
1956.8745194321
 31
0.0
  0
LINE
  5
3A3
330
1F
100
AcDbEntity
  8
0
  6
Continuous
 62
     7
370
    40
100
AcDbLine
 10
3399.1458724192
 20
1958.9715896493
 30
0.0
 11
3399.1458724192
 21
1956.8745194321
 31
0.0
  0
LINE
  5
3A4
330
1F
100
AcDbEntity
  8
0
  6
Continuous
 62
     7
370
    40
100
AcDbLine
 10
3404.5347283533
 20
1878.6156958287
 30
0.0
 11
3404.5466939857
 21
1878.545151869
 31
0.0
  0
LINE
  5
3A5
330
1F
100
AcDbEntity
  8
0
  6
Continuous
 62
     7
370
    40
100
AcDbLine
 10
3424.9628941467
 20
1876.3729686236
 30
0.0
 11
3425.1358370235
 21
1876.4747137522
 31
0.0
  0
LINE
  5
3A6
330
1F
100
AcDbEntity
  8
0
  6
Continuous
 62
     7
370
    40
100
AcDbLine
 10
3678.1458715847
 20
1851.9173374718
 30
0.0
 11
3474.1458753994
 21
1851.9173374718
 31
0.0
  0
LINE
  5
3A7
330
1F
100
AcDbEntity
  8
0
  6
Continuous
 62
     7
370
    40
100
AcDbLine
 10
3467.2683711102
 20
1822.4173335677
 30
0.0
 11
3685.0233758738
 21
1822.4173335677
 31
0.0
  0
LINE
  5
3A8
330
1F
100
AcDbEntity
  8
0
  6
Continuous
 62
     7
370
    40
100
AcDbLine
 10
3479.7357107451
 20
2547.9173286205
 30
0.0
 11
3672.5560362389
 21
2547.9173286205
 31
0.0
  0
LINE
  5
3A9
330
1F
100
AcDbEntity
  8
0
  6
Continuous
 62
     7
370
    40
100
AcDbLine
 10
3726.1458794525
 20
2347.9173405414
 30
0.0
 11
3672.5560362389
 21
2547.9173286205
 31
0.0
  0
LINE
  5
3AA
330
1F
100
AcDbEntity
  8
0
  6
Continuous
 62
     7
370
    40
100
AcDbLine
 10
3726.1458794525
 20
1821.917340005
 30
0.0
 11
3726.1458794525
 21
2347.9173405414
 31
0.0
  0
LINE
  5
3AB
330
1F
100
AcDbEntity
  8
0
  6
Continuous
 62
     7
370
    40
100
AcDbLine
 10
3688.1458769491
 20
1821.917340005
 30
0.0
 11
3726.1458794525
 21
1821.917340005
 31
0.0
  0
ARC
  5
3AC
330
1F
100
AcDbEntity
  8
0
  6
Continuous
 62
     7
370
    40
100
AcDbCircle
 10
3688.145873492
 20
1831.9173372036
 30
0.0
 40
10.0
100
AcDbArc
 50
180.0
 51
270.0
  0
LINE
  5
3AD
330
1F
100
AcDbEntity
  8
0
  6
Continuous
 62
     7
370
    40
100
AcDbLine
 10
3678.1458715847
 20
1831.9173379188
 30
0.0
 11
3678.1458715847
 21
2341.5980263
 31
0.0
  0
LINE
  5
3AE
330
1F
100
AcDbEntity
  8
0
  6
Continuous
 62
     7
370
    40
100
AcDbLine
 10
3678.1458715847
 20
2341.5980263
 30
0.0
 11
3632.8872415176
 21
2510.5055196529
 31
0.0
  0
ARC
  5
3AF
330
1F
100
AcDbEntity
  8
0
  6
Continuous
 62
     7
370
    40
100
AcDbCircle
 10
3623.2279842393
 20
2507.9173372036
 30
0.0
 40
10.0
100
AcDbArc
 50
15.0
 51
90.0
  0
LINE
  5
3B0
330
1F
100
AcDbEntity
  8
0
  6
Continuous
 62
     7
370
    40
100
AcDbLine
 10
3623.2279847315
 20
2517.9173572307
 30
0.0
 11
3529.0637622526
 21
2517.9173572307
 31
0.0
  0
ARC
  5
3B1
330
1F
100
AcDbEntity
  8
0
  6
Continuous
 62
     7
370
    40
100
AcDbCircle
 10
3529.0637627448
 20
2507.9173372036
 30
0.0
 40
10.0
100
AcDbArc
 50
90.0
 51
165.0
  0
LINE
  5
3B2
330
1F
100
AcDbEntity
  8
0
  6
Continuous
 62
     7
370
    40
100
AcDbLine
 10
3519.4045054665
 20
2510.5055196529
 30
0.0
 11
3474.1458753994
 21
2341.5980263
 31
0.0
  0
LINE
  5
3B3
330
1F
100
AcDbEntity
  8
0
  6
Continuous
 62
     7
370
    40
100
AcDbLine
 10
3474.1458753994
 20
2341.5980263
 30
0.0
 11
3474.1458753994
 21
1831.9173379188
 31
0.0
  0
ARC
  5
3B4
330
1F
100
AcDbEntity
  8
0
  6
Continuous
 62
     7
370
    40
100
AcDbCircle
 10
3464.145873492
 20
1831.9173372036
 30
0.0
 40
10.0
100
AcDbArc
 50
270.0
 51
0.0
  0
CIRCLE
  5
3B5
330
1F
100
AcDbEntity
  8
0
  6
Continuous
 62
     7
370
    40
100
AcDbCircle
 10
3455.145873492
 20
1836.9173372036
 30
0.0
 40
4.0
  0
CIRCLE
  5
3B6
330
1F
100
AcDbEntity
  8
0
  6
Continuous
 62
     7
370
    40
100
AcDbCircle
 10
3455.145873492
 20
1936.9173372036
 30
0.0
 40
4.0
  0
CIRCLE
  5
3B7
330
1F
100
AcDbEntity
  8
0
  6
Continuous
 62
     7
370
    40
100
AcDbCircle
 10
3455.145873492
 20
2326.9173372036
 30
0.0
 40
4.0
  0
CIRCLE
  5
3B8
330
1F
100
AcDbEntity
  8
0
  6
Continuous
 62
     7
370
    40
100
AcDbCircle
 10
3697.145873492
 20
2326.9173372036
 30
0.0
 40
3.999999999999545
  0
CIRCLE
  5
3B9
330
1F
100
AcDbEntity
  8
0
  6
Continuous
 62
     7
370
    40
100
AcDbCircle
 10
3697.145873492
 20
1936.9173372036
 30
0.0
 40
3.999999999999545
  0
CIRCLE
  5
3BA
330
1F
100
AcDbEntity
  8
0
  6
Continuous
 62
     7
370
    40
100
AcDbCircle
 10
3697.145873492
 20
1836.9173372036
 30
0.0
 40
3.999999999999545
  0
LINE
  5
3BB
330
1F
100
AcDbEntity
  8
0
  6
Continuous
 62
     7
370
    40
100
AcDbLine
 10
3426.1458675316
 20
1821.917340005
 30
0.0
 11
3426.1458675316
 21
2347.9173405414
 31
0.0
  0
LINE
  5
3BC
330
1F
100
AcDbEntity
  8
0
  6
Continuous
 62
     7
370
    40
100
AcDbLine
 10
3426.1458675316
 20
1821.917340005
 30
0.0
 11
3464.145870035
 21
1821.917340005
 31
0.0
  0
LINE
  5
3BD
330
1F
100
AcDbEntity
  8
0
  6
Continuous
 62
     7
370
    40
100
AcDbLine
 10
3479.7357107451
 20
2547.9173286205
 30
0.0
 11
3426.1458675316
 21
2347.9173405414
 31
0.0
  0
LINE
  5
3BE
330
1F
100
AcDbEntity
  8
0
  6
Continuous
 62
     7
370
    40
100
AcDbLine
 10
3678.1458715847
 20
1950.9173369353
 30
0.0
 11
3474.1458753994
 21
1950.9173369353
 31
0.0
  0
LINE
  5
3BF
330
1F
100
AcDbEntity
  8
0
  6
Continuous
 62
     7
370
    40
100
AcDbLine
 10
3485.4236180833
 20
2552.9173238521
 30
0.0
 11
3666.8681289008
 21
2552.9173238521
 31
0.0
  0
LINE
  5
3C0
330
1F
100
AcDbEntity
  8
0
  6
Continuous
 62
     7
370
    40
100
AcDbLine
 10
3666.8681289008
 20
2552.9173238521
 30
0.0
 11
3668.2078774026
 21
2547.9173286205
 31
0.0
  0
LINE
  5
3C1
330
1F
100
AcDbEntity
  8
0
  6
Continuous
 62
     7
370
    40
100
AcDbLine
 10
3484.0838695815
 20
2547.9173286205
 30
0.0
 11
3485.4236180833
 21
2552.9173238521
 31
0.0
  0
LINE
  5
3C2
330
1F
100
AcDbEntity
  8
0
  6
Continuous
 62
     7
370
    40
100
AcDbLine
 10
3430.1458756378
 20
1816.9173373228
 30
0.0
 11
3430.1458756378
 21
1821.917340005
 31
0.0
  0
LINE
  5
3C3
330
1F
100
AcDbEntity
  8
0
  6
Continuous
 62
     7
370
    40
100
AcDbLine
 10
3426.1458675316
 20
1816.9173373228
 30
0.0
 11
3426.1458675316
 21
1821.917340005
 31
0.0
  0
LINE
  5
3C4
330
1F
100
AcDbEntity
  8
0
  6
Continuous
 62
     7
370
    40
100
AcDbLine
 10
3722.1458713463
 20
1821.917340005
 30
0.0
 11
3722.1458713463
 21
1816.9173373228
 31
0.0
  0
LINE
  5
3C5
330
1F
100
AcDbEntity
  8
0
  6
Continuous
 62
     7
370
    40
100
AcDbLine
 10
3726.1458794525
 20
1821.917340005
 30
0.0
 11
3726.1458794525
 21
1816.9173373228
 31
0.0
  0
LINE
  5
3C6
330
1F
100
AcDbEntity
  8
0
  6
Continuous
 62
     7
370
    40
100
AcDbLine
 10
3430.1458756378
 20
1815.9173352962
 30
0.0
 11
3430.1458756378
 21
1799.9173401242
 31
0.0
  0
LINE
  5
3C7
330
1F
100
AcDbEntity
  8
0
  6
Continuous
 62
     7
370
    40
100
AcDbLine
 10
3426.1458675316
 20
1799.9173401242
 30
0.0
 11
3426.1458675316
 21
1815.9173352962
 31
0.0
  0
LINE
  5
3C8
330
1F
100
AcDbEntity
  8
0
  6
Continuous
 62
     7
370
    40
100
AcDbLine
 10
3430.1458756378
 20
1816.9173373228
 30
0.0
 11
3430.1458756378
 21
1815.9173352962
 31
0.0
  0
LINE
  5
3C9
330
1F
100
AcDbEntity
  8
0
  6
Continuous
 62
     7
370
    40
100
AcDbLine
 10
3426.1458675316
 20
1815.9173352962
 30
0.0
 11
3426.1458675316
 21
1816.9173373228
 31
0.0
  0
LINE
  5
3CA
330
1F
100
AcDbEntity
  8
0
  6
Continuous
 62
     7
370
    40
100
AcDbLine
 10
3722.1458713463
 20
1815.9173352962
 30
0.0
 11
3722.1458713463
 21
1816.9173373228
 31
0.0
  0
LINE
  5
3CB
330
1F
100
AcDbEntity
  8
0
  6
Continuous
 62
     7
370
    40
100
AcDbLine
 10
3726.1458794525
 20
1816.9173373228
 30
0.0
 11
3726.1458794525
 21
1815.9173352962
 31
0.0
  0
LINE
  5
3CC
330
1F
100
AcDbEntity
  8
0
  6
Continuous
 62
     7
370
    40
100
AcDbLine
 10
3722.1458713463
 20
1799.9173401242
 30
0.0
 11
3722.1458713463
 21
1815.9173352962
 31
0.0
  0
LINE
  5
3CD
330
1F
100
AcDbEntity
  8
0
  6
Continuous
 62
     7
370
    40
100
AcDbLine
 10
3726.1458794525
 20
1815.9173352962
 30
0.0
 11
3726.1458794525
 21
1799.9173401242
 31
0.0
  0
ENDSEC
  0
SECTION
  2
OBJECTS
  0
DICTIONARY
  5
C
330
0
100
AcDbDictionary
281
     1
  3
ACAD_GROUP
350
D
  3
ACAD_LAYOUT
350
1A
  3
ACAD_MATERIAL
350
3B
  3
ACAD_MLEADERSTYLE
350
3CF
  3
ACAD_MLINESTYLE
350
17
  3
ACAD_PLOTSETTINGS
350
19
  3
ACAD_PLOTSTYLENAME
350
E
  3
ACAD_TABLESTYLE
350
3CE
  3
ACAD_VISUALSTYLE
350
2A
  0
DICTIONARY
  5
D
102
{ACAD_REACTORS
330
C
102
}
330
C
100
AcDbDictionary
281
     1
  0
DICTIONARY
  5
1A
102
{ACAD_REACTORS
330
C
102
}
330
C
100
AcDbDictionary
281
     1
  3
Layout1
350
1E
  3
Layout2
350
26
  3
Model
350
22
  0
DICTIONARY
  5
3B
102
{ACAD_REACTORS
330
C
102
}
330
C
100
AcDbDictionary
281
     1
  3
ByBlock
350
3D
  3
ByLayer
350
3C
  3
Global
350
3E
  0
DICTIONARY
  5
3CF
102
{ACAD_REACTORS
330
C
102
}
330
C
100
AcDbDictionary
281
     1
  0
DICTIONARY
  5
17
102
{ACAD_REACTORS
330
C
102
}
330
C
100
AcDbDictionary
281
     1
  3
Standard
350
18
  0
DICTIONARY
  5
19
102
{ACAD_REACTORS
330
C
102
}
330
C
100
AcDbDictionary
281
     1
  0
ACDBDICTIONARYWDFLT
  5
E
102
{ACAD_REACTORS
330
C
102
}
330
C
100
AcDbDictionary
281
     1
  3
Normal
350
F
100
AcDbDictionaryWithDefault
340
F
  0
DICTIONARY
  5
3CE
102
{ACAD_REACTORS
330
C
102
}
330
C
100
AcDbDictionary
281
     1
  0
DICTIONARY
  5
2A
102
{ACAD_REACTORS
330
C
102
}
330
C
100
AcDbDictionary
281
     1
  3
2dWireframe
350
2F
  3
3D Hidden
350
31
  3
3dWireframe
350
30
  3
Basic
350
32
  3
Brighten
350
36
  3
ColorChange
350
3A
  3
Conceptual
350
34
  3
Dim
350
35
  3
Facepattern
350
39
  3
Flat
350
2B
  3
FlatWithEdges
350
2C
  3
Gouraud
350
2D
  3
GouraudWithEdges
350
2E
  3
Linepattern
350
38
  3
Realistic
350
33
  3
Thicken
350
37
  0
LAYOUT
  5
1E
102
{ACAD_REACTORS
330
1A
102
}
330
1A
100
AcDbPlotSettings
  1

  2
none_device
  4

  6

 40
0.0
 41
0.0
 42
0.0
 43
0.0
 44
0.0
 45
0.0
 46
0.0
 47
0.0
 48
0.0
 49
0.0
140
0.0
141
0.0
142
1.0
143
1.0
 70
   688
 72
     0
 73
     0
 74
     5
  7

 75
    16
 76
     0
 77
     2
 78
   300
147
1.0
148
0.0
149
0.0
100
AcDbLayout
  1
Layout1
 70
     1
 71
     1
 10
0.0
 20
0.0
 11
420.0
 21
297.0
 12
0.0
 22
0.0
 32
0.0
 14
1.0000000000E+20
 24
1.0000000000E+20
 34
1.0000000000E+20
 15
-1.0000000000E+20
 25
-1.0000000000E+20
 35
-1.0000000000E+20
146
0.0
 13
0.0
 23
0.0
 33
0.0
 16
1.0
 26
0.0
 36
0.0
 17
0.0
 27
1.0
 37
0.0
 76
     0
330
1B
  0
LAYOUT
  5
26
102
{ACAD_REACTORS
330
1A
102
}
330
1A
100
AcDbPlotSettings
  1

  2
none_device
  4

  6

 40
0.0
 41
0.0
 42
0.0
 43
0.0
 44
0.0
 45
0.0
 46
0.0
 47
0.0
 48
0.0
 49
0.0
140
0.0
141
0.0
142
1.0
143
1.0
 70
   688
 72
     0
 73
     0
 74
     5
  7

 75
    16
 76
     0
 77
     2
 78
   300
147
1.0
148
0.0
149
0.0
100
AcDbLayout
  1
Layout2
 70
     1
 71
     2
 10
0.0
 20
0.0
 11
0.0
 21
0.0
 12
0.0
 22
0.0
 32
0.0
 14
0.0
 24
0.0
 34
0.0
 15
0.0
 25
0.0
 35
0.0
146
0.0
 13
0.0
 23
0.0
 33
0.0
 16
1.0
 26
0.0
 36
0.0
 17
0.0
 27
1.0
 37
0.0
 76
     0
330
23
  0
LAYOUT
  5
22
102
{ACAD_REACTORS
330
1A
102
}
330
1A
100
AcDbPlotSettings
  1

  2
none_device
  4

  6

 40
0.0
 41
0.0
 42
0.0
 43
0.0
 44
0.0
 45
0.0
 46
0.0
 47
0.0
 48
0.0
 49
0.0
140
0.0
141
0.0
142
1.0
143
1.0
 70
  1712
 72
     0
 73
     0
 74
     0
  7

 75
     0
 76
     0
 77
     2
 78
   300
147
1.0
148
0.0
149
0.0
100
AcDbLayout
  1
Model
 70
     1
 71
     0
 10
0.0
 20
0.0
 11
4200.0
 21
2970.0
 12
0.0
 22
0.0
 32
0.0
 14
0.0
 24
0.0
 34
0.0
 15
4200.0
 25
2970.0
 35
0.0
146
0.0
 13
0.0
 23
0.0
 33
0.0
 16
1.0
 26
0.0
 36
0.0
 17
0.0
 27
1.0
 37
0.0
 76
     0
330
1F
331
29
  0
MATERIAL
  5
3D
102
{ACAD_REACTORS
330
3B
102
}
330
3B
100
AcDbMaterial
  1
ByBlock
 72
     1
 94
      127
  0
MATERIAL
  5
3C
102
{ACAD_REACTORS
330
3B
102
}
330
3B
100
AcDbMaterial
  1
ByLayer
 72
     1
 94
      127
  0
MATERIAL
  5
3E
102
{ACAD_REACTORS
330
3B
102
}
330
3B
100
AcDbMaterial
  1
Global
 72
     1
 94
      127
  0
MLINESTYLE
  5
18
102
{ACAD_REACTORS
330
17
102
}
330
17
100
AcDbMlineStyle
  2
Standard
 70
     0
  3

 62
   256
 51
90.0
 52
90.0
 71
     2
 49
0.5
 62
   256
  6
BYLAYER
 49
-0.5
 62
   256
  6
BYLAYER
  0
ACDBPLACEHOLDER
  5
F
102
{ACAD_REACTORS
330
E
102
}
330
E
  0
VISUALSTYLE
  5
2F
102
{ACAD_REACTORS
330
2A
102
}
330
2A
100
AcDbVisualStyle
  2
2dWireframe
 70
     4
 71
     0
 72
     2
 73
     0
 90
        0
 40
-0.6
 41
-30.0
 62
     5
 63
     7
421
 16777215
 74
     1
 91
        4
 64
     7
 65
   257
 75
     1
175
     1
 42
1.0
 92
        0
 66
   257
 43
1.0
 76
     1
 77
     6
 78
     2
 67
     7
 79
     5
170
     0
171
     0
290
     0
174
     0
 93
        1
 44
0.0
173
     0
291
     0
 45
0.0
  0
VISUALSTYLE
  5
31
102
{ACAD_REACTORS
330
2A
102
}
330
2A
100
AcDbVisualStyle
  2
3D Hidden
 70
     6
 71
     1
 72
     2
 73
     2
 90
        0
 40
-0.6
 41
-30.0
 62
     5
 63
     7
421
 16777215
 74
     2
 91
        2
 64
     7
 65
   257
 75
     2
175
     1
 42
40.0
 92
        0
 66
   257
 43
1.0
 76
     1
 77
     6
 78
     2
 67
     7
 79
     3
170
     0
171
     0
290
     0
174
     0
 93
        1
 44
0.0
173
     0
291
     0
 45
0.0
  0
VISUALSTYLE
  5
30
102
{ACAD_REACTORS
330
2A
102
}
330
2A
100
AcDbVisualStyle
  2
3dWireframe
 70
     5
 71
     0
 72
     2
 73
     0
 90
        0
 40
-0.6
 41
-30.0
 62
     5
 63
     7
421
 16777215
 74
     1
 91
        4
 64
     7
 65
   257
 75
     1
175
     1
 42
1.0
 92
        0
 66
   257
 43
1.0
 76
     1
 77
     6
 78
     2
 67
     7
 79
     5
170
     0
171
     0
290
     0
174
     0
 93
        1
 44
0.0
173
     0
291
     0
 45
0.0
  0
VISUALSTYLE
  5
32
102
{ACAD_REACTORS
330
2A
102
}
330
2A
100
AcDbVisualStyle
  2
Basic
 70
     7
 71
     1
 72
     0
 73
     1
 90
        0
 40
-0.6
 41
-30.0
 62
     5
 63
     7
421
 16777215
 74
     0
 91
        4
 64
     7
 65
   257
 75
     1
175
     1
 42
1.0
 92
        8
 66
     7
 43
1.0
 76
     1
 77
     6
 78
     2
 67
     7
 79
     5
170
     0
171
     0
290
     0
174
     0
 93
        1
 44
0.0
173
     0
291
     1
 45
0.0
  0
VISUALSTYLE
  5
36
102
{ACAD_REACTORS
330
2A
102
}
330
2A
100
AcDbVisualStyle
  2
Brighten
 70
    12
 71
     2
 72
     2
 73
     0
 90
        0
 40
-0.6
 41
-30.0
 62
     5
 63
     7
421
 16777215
 74
     1
 91
        4
 64
     7
 65
   257
 75
     1
175
     1
 42
1.0
 92
        8
 66
     7
 43
1.0
 76
     1
 77
     6
 78
     2
 67
     7
 79
     5
170
     0
171
     0
290
     0
174
     0
 93
        1
 44
50.0
173
     0
291
     1
 45
0.0
  0
VISUALSTYLE
  5
3A
102
{ACAD_REACTORS
330
2A
102
}
330
2A
100
AcDbVisualStyle
  2
ColorChange
 70
    16
 71
     2
 72
     2
 73
     3
 90
        0
 40
-0.6
 41
-30.0
 62
     5
 63
     8
421
  8421504
 74
     1
 91
        4
 64
     7
 65
   257
 75
     1
175
     1
 42
1.0
 92
        8
 66
     8
424
  8421504
 43
1.0
 76
     1
 77
     6
 78
     2
 67
     7
 79
     5
170
     0
171
     0
290
     0
174
     0
 93
        1
 44
0.0
173
     0
291
     1
 45
0.0
  0
VISUALSTYLE
  5
34
102
{ACAD_REACTORS
330
2A
102
}
330
2A
100
AcDbVisualStyle
  2
Conceptual
 70
     9
 71
     3
 72
     2
 73
     0
 90
        0
 40
-0.6
 41
-30.0
 62
     5
 63
     7
421
 16777215
 74
     2
 91
        2
 64
     7
 65
   257
 75
     1
175
     1
 42
40.0
 92
        8
 66
     7
 43
1.0
 76
     1
 77
     6
 78
     2
 67
     7
 79
     3
170
     0
171
     0
290
     0
174
     0
 93
        1
 44
0.0
173
     0
291
     0
 45
0.0
  0
VISUALSTYLE
  5
35
102
{ACAD_REACTORS
330
2A
102
}
330
2A
100
AcDbVisualStyle
  2
Dim
 70
    11
 71
     2
 72
     2
 73
     0
 90
        0
 40
-0.6
 41
-30.0
 62
     5
 63
     7
421
 16777215
 74
     1
 91
        4
 64
     7
 65
   257
 75
     1
175
     1
 42
1.0
 92
        8
 66
     7
 43
1.0
 76
     1
 77
     6
 78
     2
 67
     7
 79
     5
170
     0
171
     0
290
     0
174
     0
 93
        1
 44
-50.0
173
     0
291
     1
 45
0.0
  0
VISUALSTYLE
  5
39
102
{ACAD_REACTORS
330
2A
102
}
330
2A
100
AcDbVisualStyle
  2
Facepattern
 70
    15
 71
     2
 72
     2
 73
     0
 90
        0
 40
-0.6
 41
-30.0
 62
     5
 63
     7
421
 16777215
 74
     1
 91
        4
 64
     7
 65
   257
 75
     1
175
     1
 42
1.0
 92
        8
 66
     7
 43
1.0
 76
     1
 77
     6
 78
     2
 67
     7
 79
     5
170
     0
171
     0
290
     0
174
     0
 93
        1
 44
0.0
173
     0
291
     1
 45
0.0
  0
VISUALSTYLE
  5
2B
102
{ACAD_REACTORS
330
2A
102
}
330
2A
100
AcDbVisualStyle
  2
Flat
 70
     0
 71
     2
 72
     1
 73
     1
 90
        2
 40
-0.6
 41
30.0
 62
     5
 63
     7
421
 16777215
 74
     0
 91
        4
 64
     7
 65
   257
 75
     1
175
     1
 42
1.0
 92
        8
 66
     7
 43
1.0
 76
     1
 77
     6
 78
     2
 67
     7
 79
     5
170
     0
171
     0
290
     0
174
     0
 93
       13
 44
0.0
173
     0
291
     1
 45
0.0
  0
VISUALSTYLE
  5
2C
102
{ACAD_REACTORS
330
2A
102
}
330
2A
100
AcDbVisualStyle
  2
FlatWithEdges
 70
     1
 71
     2
 72
     1
 73
     1
 90
        2
 40
-0.6
 41
30.0
 62
     5
 63
     7
421
 16777215
 74
     1
 91
        4
 64
     7
 65
   257
 75
     1
175
     1
 42
1.0
 92
        0
 66
   257
 43
1.0
 76
     1
 77
     6
 78
     2
 67
     7
 79
     5
170
     0
171
     0
290
     0
174
     0
 93
       13
 44
0.0
173
     0
291
     1
 45
0.0
  0
VISUALSTYLE
  5
2D
102
{ACAD_REACTORS
330
2A
102
}
330
2A
100
AcDbVisualStyle
  2
Gouraud
 70
     2
 71
     2
 72
     2
 73
     1
 90
        2
 40
-0.6
 41
30.0
 62
     5
 63
     7
421
 16777215
 74
     0
 91
        4
 64
     7
 65
   257
 75
     1
175
     1
 42
1.0
 92
        0
 66
     7
 43
1.0
 76
     1
 77
     6
 78
     2
 67
     7
 79
     5
170
     0
171
     0
290
     0
174
     0
 93
       13
 44
0.0
173
     0
291
     1
 45
0.0
  0
VISUALSTYLE
  5
2E
102
{ACAD_REACTORS
330
2A
102
}
330
2A
100
AcDbVisualStyle
  2
GouraudWithEdges
 70
     3
 71
     2
 72
     2
 73
     1
 90
        2
 40
-0.6
 41
30.0
 62
     5
 63
     7
421
 16777215
 74
     1
 91
        4
 64
     7
 65
   257
 75
     1
175
     1
 42
1.0
 92
        0
 66
   257
 43
1.0
 76
     1
 77
     6
 78
     2
 67
     7
 79
     5
170
     0
171
     0
290
     0
174
     0
 93
       13
 44
0.0
173
     0
291
     1
 45
0.0
  0
VISUALSTYLE
  5
38
102
{ACAD_REACTORS
330
2A
102
}
330
2A
100
AcDbVisualStyle
  2
Linepattern
 70
    14
 71
     2
 72
     2
 73
     0
 90
        0
 40
-0.6
 41
-30.0
 62
     5
 63
     7
421
 16777215
 74
     1
 91
        4
 64
     7
 65
   257
 75
     7
175
     7
 42
1.0
 92
        8
 66
     7
 43
1.0
 76
     1
 77
     6
 78
     2
 67
     7
 79
     5
170
     0
171
     0
290
     0
174
     0
 93
        1
 44
0.0
173
     0
291
     1
 45
0.0
  0
VISUALSTYLE
  5
33
102
{ACAD_REACTORS
330
2A
102
}
330
2A
100
AcDbVisualStyle
  2
Realistic
 70
     8
 71
     2
 72
     2
 73
     0
 90
        0
 40
-0.6
 41
-30.0
 62
     5
 63
     7
421
 16777215
 74
     1
 91
        0
 64
     7
 65
   257
 75
     1
175
     1
 42
1.0
 92
        8
 66
     8
424
  7895160
 43
1.0
 76
     1
 77
     6
 78
     2
 67
     7
 79
     5
170
     0
171
     0
290
     0
174
     0
 93
       13
 44
0.0
173
     0
291
     0
 45
0.0
  0
VISUALSTYLE
  5
37
102
{ACAD_REACTORS
330
2A
102
}
330
2A
100
AcDbVisualStyle
  2
Thicken
 70
    13
 71
     2
 72
     2
 73
     0
 90
        0
 40
-0.6
 41
-30.0
 62
     5
 63
     7
421
 16777215
 74
     1
 91
        4
 64
     7
 65
   257
 75
     1
175
     1
 42
1.0
 92
       12
 66
     7
 43
1.0
 76
     1
 77
     6
 78
     2
 67
     7
 79
     5
170
     0
171
     0
290
     0
174
     0
 93
        1
 44
0.0
173
     0
291
     1
 45
0.0
  0
ENDSEC
  0
EOF
