  0
SECTION
  2
HEADER
  9
$ACADVER
  1
AC1009
  9
$DWGCODEPAGE
  3
ansi_1252
  9
$INSBASE
 10
0.0
 20
0.0
 30
0.0
  9
$EXTMIN
 10
0.0
 20
0.0
 30
0.0
  9
$EXTMAX
 10
420.0
 20
297.0
 30
0.0
  9
$LIMMIN
 10
0.0
 20
0.0
  9
$LIMMAX
 10
420.0
 20
297.0
  9
$ORTHOMODE
 70
     0
  9
$REGENMODE
 70
     1
  9
$FILLMODE
 70
     1
  9
$QTEXTMODE
 70
     0
  9
$MIRRTEXT
 70
     1
  9
$DRAGMODE
 70
     2
  9
$LTSCALE
 40
1.0
  9
$OSMODE
 70
    37
  9
$ATTMODE
 70
     1
  9
$TEXTSIZE
 40
3.5
  9
$TRACEWID
 40
1.0
  9
$TEXTSTYLE
  7
STANDARD
  9
$CLAYER
  8
0
  9
$CELTYPE
  6
BYLAYER
  9
$CECOLOR
 62
   256
  9
$DIMSCALE
 40
1.0
  9
$DIMASZ
 40
4.0
  9
$DIMEXO
 40
0.0
  9
$DIMDLI
 40
3.75
  9
$DIMRND
 40
0.0
  9
$DIMDLE
 40
0.0
  9
$DIMEXE
 40
2.0
  9
$DIMTP
 40
0.0
  9
$DIMTM
 40
0.0
  9
$DIMTXT
 40
3.5
  9
$DIMCEN
 40
2.5
  9
$DIMTSZ
 40
0.0
  9
$DIMTOL
 70
     0
  9
$DIMLIM
 70
     0
  9
$DIMTIH
 70
     1
  9
$DIMTOH
 70
     1
  9
$DIMSE1
 70
     0
  9
$DIMSE2
 70
     0
  9
$DIMTAD
 70
     1
  9
$DIMZIN
 70
     0
  9
$DIMBLK
  1

  9
$DIMASO
 70
     1
  9
$DIMSHO
 70
     1
  9
$DIMPOST
  1

  9
$DIMAPOST
  1

  9
$DIMALT
 70
     0
  9
$DIMALTD
 70
     3
  9
$DIMALTF
 40
0.0393700787
  9
$DIMLFAC
 40
5.0
  9
$DIMTOFL
 70
     1
  9
$DIMTVP
 40
0.0
  9
$DIMTIX
 70
     0
  9
$DIMSOXD
 70
     0
  9
$DIMSAH
 70
     0
  9
$DIMBLK1
  1

  9
$DIMBLK2
  1

  9
$DIMSTYLE
  2
ISO-25
  9
$DIMCLRD
 70
     0
  9
$DIMCLRE
 70
     0
  9
$DIMCLRT
 70
     0
  9
$DIMTFAC
 40
1.0
  9
$DIMGAP
 40
1.524
  9
$LUNITS
 70
     2
  9
$LUPREC
 70
     2
  9
$SKETCHINC
 40
1.0
  9
$FILLETRAD
 40
10.0
  9
$AUNITS
 70
     0
  9
$AUPREC
 70
     2
  9
$MENU
  1
.
  9
$ELEVATION
 40
0.0
  9
$PELEVATION
 40
0.0
  9
$THICKNESS
 40
0.0
  9
$LIMCHECK
 70
     0
  9
$CHAMFERA
 40
10.0
  9
$CHAMFERB
 40
10.0
  9
$SKPOLY
 70
     0
  9
$TDCREATE
 40
2457452.364405799
  9
$TDUPDATE
 40
2457452.364406539
  9
$TDINDWG
 40
0.0000000116
  9
$TDUSRTIMER
 40
0.0000000116
  9
$USRTIMER
 70
     1
  9
$ANGBASE
 50
0.0
  9
$ANGDIR
 70
     0
  9
$PDMODE
 70
     0
  9
$PDSIZE
 40
-1.0
  9
$PLINEWID
 40
0.0
  9
$COORDS
 70
     1
  9
$SPLFRAME
 70
     0
  9
$SPLINETYPE
 70
     6
  9
$SPLINESEGS
 70
     8
  9
$ATTDIA
 70
     0
  9
$ATTREQ
 70
     1
  9
$HANDLING
 70
     1
  9
$HANDSEED
  5
E4
  9
$SURFTAB1
 70
     6
  9
$SURFTAB2
 70
     6
  9
$SURFTYPE
 70
     6
  9
$SURFU
 70
     6
  9
$SURFV
 70
     6
  9
$UCSNAME
  2

  9
$UCSORG
 10
0.0
 20
0.0
 30
0.0
  9
$UCSXDIR
 10
1.0
 20
0.0
 30
0.0
  9
$UCSYDIR
 10
0.0
 20
1.0
 30
0.0
  9
$PUCSNAME
  2

  9
$PUCSORG
 10
0.0
 20
0.0
 30
0.0
  9
$PUCSXDIR
 10
1.0
 20
0.0
 30
0.0
  9
$PUCSYDIR
 10
0.0
 20
1.0
 30
0.0
  9
$USERI1
 70
     0
  9
$USERI2
 70
     0
  9
$USERI3
 70
     0
  9
$USERI4
 70
     0
  9
$USERI5
 70
     0
  9
$USERR1
 40
0.0
  9
$USERR2
 40
0.0
  9
$USERR3
 40
0.0
  9
$USERR4
 40
0.0
  9
$USERR5
 40
0.0
  9
$WORLDVIEW
 70
     1
  9
$SHADEDGE
 70
     3
  9
$SHADEDIF
 70
    70
  9
$TILEMODE
 70
     1
  9
$MAXACTVP
 70
    64
  9
$PLIMCHECK
 70
     0
  9
$PEXTMIN
 10
1.0000000000E+20
 20
1.0000000000E+20
 30
1.0000000000E+20
  9
$PEXTMAX
 10
-1.0000000000E+20
 20
-1.0000000000E+20
 30
-1.0000000000E+20
  9
$PLIMMIN
 10
0.0
 20
0.0
  9
$PLIMMAX
 10
420.0
 20
297.0
  9
$UNITMODE
 70
     0
  9
$VISRETAIN
 70
     1
  9
$PLINEGEN
 70
     0
  9
$PSLTSCALE
 70
     1
  0
ENDSEC
  0
SECTION
  2
TABLES
  0
TABLE
  2
VPORT
 70
     1
  0
VPORT
  2
*ACTIVE
 70
     0
 10
0.0
 20
0.0
 11
1.0
 21
1.0
 12
210.0
 22
148.5
 13
0.0
 23
0.0
 14
10.0
 24
10.0
 15
10.0
 25
10.0
 16
0.0
 26
0.0
 36
1.0
 17
0.0
 27
0.0
 37
0.0
 40
297.0
 41
1.4141414141
 42
50.0
 43
0.0
 44
0.0
 50
0.0
 51
0.0
 71
     0
 72
  2000
 73
     1
 74
     3
 75
     0
 76
     0
 77
     0
 78
     0
  0
ENDTAB
  0
TABLE
  2
LTYPE
 70
     6
  0
LTYPE
  2
CONTINUOUS
 70
     0
  3
Solid line
 72
    65
 73
     0
 40
0.0
  0
LTYPE
  2
HIDDEN
 70
     0
  3
Hidden __ __ __ __ __ __ __ __ __ __ __ __ __ __
 72
    65
 73
     2
 40
1.905
 49
1.27
 49
-0.635
  0
LTYPE
  2
PHANTOM
 70
     0
  3
Phantom ______  __  __  ______  __  __  ______
 72
    65
 73
     6
 40
12.7
 49
6.35
 49
-1.27
 49
1.27
 49
-1.27
 49
1.27
 49
-1.27
  0
LTYPE
  2
CENTER
 70
     0
  3
Center ____ _ ____ _ ____ _ ____ _ ____ _ ____
 72
    65
 73
     4
 40
10.16
 49
6.35
 49
-1.27
 49
1.27
 49
-1.27
  0
LTYPE
  2
CENTERX2
 70
     0
  3
Center (2x) ________  __  ________  __  _____
 72
    65
 73
     4
 40
20.32
 49
12.7
 49
-2.54
 49
2.54
 49
-2.54
  0
LTYPE
  2
DOT2
 70
     0
  3
Dot (.5x) ........................................
 72
    65
 73
     2
 40
0.635
 49
0.0
 49
-0.635
  0
ENDTAB
  0
TABLE
  2
LAYER
 70
     2
  0
LAYER
  2
0
 70
     0
 62
     7
  6
CONTINUOUS
  0
LAYER
  2
FORMAT
 70
     0
 62
     7
  6
CONTINUOUS
  0
ENDTAB
  0
TABLE
  2
STYLE
 70
     1
  0
STYLE
  2
STANDARD
 70
     0
 40
0.0
 41
1.0
 50
0.0
 71
     0
 42
3.5
  3
txt
  4

  0
ENDTAB
  0
TABLE
  2
VIEW
 70
     0
  0
ENDTAB
  0
TABLE
  2
UCS
 70
     0
  0
ENDTAB
  0
TABLE
  2
APPID
 70
     1
  0
APPID
  2
ACAD
 70
     0
  0
ENDTAB
  0
TABLE
  2
DIMSTYLE
 70
     1
  0
DIMSTYLE
  2
ISO-25
 70
     0
  3

  4

  5

  6

  7

 40
1.0
 41
2.5
 42
0.625
 43
3.75
 44
1.25
 45
0.0
 46
0.0
 47
0.0
 48
0.0
140
2.5
141
2.5
142
0.0
143
0.0393700787
144
1.0
145
0.0
146
1.0
147
0.625
 71
     0
 72
     0
 73
     0
 74
     0
 75
     0
 76
     0
 77
     1
 78
     8
170
     0
171
     3
172
     1
173
     0
174
     0
175
     0
176
     0
177
     0
178
     0
  0
ENDTAB
  0
ENDSEC
  0
SECTION
  2
BLOCKS
  0
BLOCK
  8
0
  2
$MODEL_SPACE
 70
     0
 10
0.0
 20
0.0
 30
0.0
  3
$MODEL_SPACE
  1

  0
ENDBLK
  5
21
  8
0
  0
BLOCK
 67
     1
  8
0
  2
$PAPER_SPACE
 70
     0
 10
0.0
 20
0.0
 30
0.0
  3
$PAPER_SPACE
  1

  0
ENDBLK
  5
1D
 67
     1
  8
0
  0
ENDSEC
  0
SECTION
  2
ENTITIES
  0
LINE
  5
45
  8
0
  6
CONTINUOUS
 62
     7
 10
414.85
 20
5.15
 30
0.0
 11
5.15
 21
5.15
 31
0.0
  0
LINE
  5
46
  8
0
  6
CONTINUOUS
 62
     7
 10
415.0
 20
5.0
 30
0.0
 11
415.0
 21
277.0
 31
0.0
  0
LINE
  5
47
  8
0
  6
CONTINUOUS
 62
     7
 10
415.0
 20
277.0
 30
0.0
 11
5.0
 21
277.0
 31
0.0
  0
LINE
  5
48
  8
0
  6
CONTINUOUS
 62
     7
 10
5.15
 20
276.85
 30
0.0
 11
5.15
 21
5.15
 31
0.0
  0
LINE
  5
49
  8
0
  6
CONTINUOUS
 62
     7
 10
141.7229494488
 20
177.4535482827
 30
0.0
 11
142.9229494488
 21
177.4535482827
 31
0.0
  0
LINE
  5
4A
  8
0
  6
CONTINUOUS
 62
     7
 10
142.9229494488
 20
179.0535482827
 30
0.0
 11
141.7229494488
 21
179.0535482827
 31
0.0
  0
LINE
  5
4B
  8
0
  6
CONTINUOUS
 62
     7
 10
78.1229494488
 20
177.4535482827
 30
0.0
 11
79.3229494488
 21
177.4535482827
 31
0.0
  0
LINE
  5
4C
  8
0
  6
CONTINUOUS
 62
     7
 10
79.3229494488
 20
179.0535482827
 30
0.0
 11
78.1229494488
 21
179.0535482827
 31
0.0
  0
LINE
  5
4D
  8
0
  6
CONTINUOUS
 62
     7
 10
141.7229494488
 20
250.8143177981
 30
0.0
 11
79.3229494488
 21
250.8143177981
 31
0.0
  0
LINE
  5
4E
  8
0
  6
CONTINUOUS
 62
     7
 10
79.3229494488
 20
166.8940340832
 30
0.0
 11
141.7229494488
 21
166.8940340832
 31
0.0
  0
LINE
  5
4F
  8
0
  6
CONTINUOUS
 62
     7
 10
122.5229494488
 20
220.8535482827
 30
0.0
 11
122.5229494488
 21
237.6535482827
 31
0.0
  0
ARC
  5
50
  8
0
  6
CONTINUOUS
 62
     7
 10
110.5229494488
 20
292.3535482827
 30
0.0
 40
72.50000000000006
 50
260.4727166185
 51
279.5272833815
  0
ARC
  5
51
  8
0
  6
CONTINUOUS
 62
     7
 10
160.2217573797
 20
222.2318027438
 30
0.0
 40
60.00000000000002
 50
170.0570380878
 51
179.6388285311
  0
ARC
  5
52
  8
0
  6
CONTINUOUS
 62
     7
 10
110.5229494488
 20
292.3535482827
 30
0.0
 40
70.49999999999996
 50
261.5990581385
 51
278.4009418616
  0
ARC
  5
53
  8
0
  6
CONTINUOUS
 62
     7
 10
60.8241415179
 20
222.2318027438
 30
0.0
 40
60.00000000000002
 50
0.3611714689
 51
9.9429619122
  0
ARC
  5
54
  8
0
  6
CONTINUOUS
 62
     7
 10
110.5229494488
 20
166.1535482827
 30
0.0
 40
67.1
 50
81.9469794422
 51
98.0530205578
  0
LINE
  5
55
  8
0
  6
CONTINUOUS
 62
     7
 10
98.5229494488
 20
237.6535482827
 30
0.0
 11
98.5229494488
 21
220.8535482827
 31
0.0
  0
ARC
  5
56
  8
0
  6
CONTINUOUS
 62
     7
 10
110.5229494488
 20
166.1535482827
 30
0.0
 40
72.50000000000006
 50
80.4727166185
 51
99.5272833815
  0
LINE
  5
57
  8
0
  6
CONTINUOUS
 62
     7
 10
108.1153451064
 20
221.8946706211
 30
0.0
 11
112.9305537912
 21
221.8946706211
 31
0.0
  0
LINE
  5
58
  8
0
  6
CONTINUOUS
 62
     7
 10
79.9229494488
 20
168.9394187026
 30
0.0
 11
79.3360608884
 21
168.3525301422
 31
0.0
  0
LINE
  5
59
  8
0
  6
CONTINUOUS
 62
     7
 10
141.7098380092
 20
168.3525301422
 30
0.0
 11
141.1229494488
 21
168.9394187026
 31
0.0
  0
ARC
  5
5A
  8
0
  6
CONTINUOUS
 62
     7
 10
79.5696802871
 20
246.9904085829
 30
0.0
 40
0.2469042556852286
 50
182.1475589446
 51
227.6446223334
  0
LINE
  5
5B
  8
0
  6
CONTINUOUS
 62
     7
 10
79.9229494488
 20
246.2883359677
 30
0.0
 11
79.4033342065
 21
246.8079512099
 31
0.0
  0
ARC
  5
5C
  8
0
  6
CONTINUOUS
 62
     7
 10
79.3611515569
 20
168.323623847
 30
0.0
 40
0.0382768278016797
 50
130.9579855806
 51
176.4193825602
  0
LINE
  5
5D
  8
0
  6
CONTINUOUS
 62
     7
 10
79.3229494488
 20
168.3260143457
 30
0.0
 11
79.3229494488
 21
246.9811562907
 31
0.0
  0
LINE
  5
5E
  8
0
  6
CONTINUOUS
 62
     7
 10
141.6425646911
 20
246.8079512099
 30
0.0
 11
141.1229494488
 21
246.2883359677
 31
0.0
  0
ARC
  5
5F
  8
0
  6
CONTINUOUS
 62
     7
 10
141.4762186105
 20
246.9904085829
 30
0.0
 40
0.2469042556853778
 50
312.3553776666
 51
357.8524410554
  0
LINE
  5
60
  8
0
  6
CONTINUOUS
 62
     7
 10
141.7229494488
 20
246.9811562907
 30
0.0
 11
141.7229494488
 21
168.3260143457
 31
0.0
  0
ARC
  5
61
  8
0
  6
CONTINUOUS
 62
     7
 10
141.6847473407
 20
168.323623847
 30
0.0
 40
0.0382768278017666
 50
3.5806174399
 51
49.0420144194
  0
LINE
  5
62
  8
0
  6
CONTINUOUS
 62
     7
 10
141.7229494488
 20
250.7339330404
 30
0.0
 11
141.7229494488
 21
246.9811562907
 31
0.0
  0
LINE
  5
63
  8
0
  6
CONTINUOUS
 62
     7
 10
79.3229494488
 20
250.7339330404
 30
0.0
 11
79.3229494488
 21
246.9811562907
 31
0.0
  0
LINE
  5
64
  8
0
  6
CONTINUOUS
 62
     7
 10
141.7229494488
 20
168.3260143457
 30
0.0
 11
141.7229494488
 21
166.9071455228
 31
0.0
  0
LINE
  5
65
  8
0
  6
CONTINUOUS
 62
     7
 10
79.3229494488
 20
168.3260143457
 30
0.0
 11
79.3229494488
 21
166.9071455228
 31
0.0
  0
LINE
  5
66
  8
0
  6
CONTINUOUS
 62
     7
 10
141.7229494488
 20
250.8143177981
 30
0.0
 11
141.7229494488
 21
250.7339330404
 31
0.0
  0
LINE
  5
67
  8
0
  6
CONTINUOUS
 62
     7
 10
79.3229494488
 20
250.7339330404
 30
0.0
 11
79.3229494488
 21
250.8143177981
 31
0.0
  0
LINE
  5
68
  8
0
  6
CONTINUOUS
 62
     7
 10
141.7229494488
 20
166.9071455228
 30
0.0
 11
141.7229494488
 21
166.8940340832
 31
0.0
  0
LINE
  5
69
  8
0
  6
CONTINUOUS
 62
     7
 10
79.3229494488
 20
166.8940340832
 30
0.0
 11
79.3229494488
 21
166.9071455228
 31
0.0
  0
LINE
  5
6A
  8
0
  6
CONTINUOUS
 62
     7
 10
76.0229494488
 20
158.0535482827
 30
0.0
 11
75.6229494488
 21
157.6535482827
 31
0.0
  0
LINE
  5
6B
  8
0
  6
CONTINUOUS
 62
     7
 10
75.6229494488
 20
157.6535482827
 30
0.0
 11
75.6229494488
 21
261.2535482827
 31
0.0
  0
LINE
  5
6C
  8
0
  6
CONTINUOUS
 62
     7
 10
76.0229494488
 20
260.8535482827
 30
0.0
 11
75.6229494488
 21
261.2535482827
 31
0.0
  0
LINE
  5
6D
  8
0
  6
CONTINUOUS
 62
     7
 10
145.4229494488
 20
261.2535482827
 30
0.0
 11
145.4229494488
 21
157.6535482827
 31
0.0
  0
LINE
  5
6E
  8
0
  6
CONTINUOUS
 62
     7
 10
145.4229494488
 20
157.6535482827
 30
0.0
 11
145.0229494488
 21
158.0535482827
 31
0.0
  0
LINE
  5
6F
  8
0
  6
CONTINUOUS
 62
     7
 10
145.4229494488
 20
261.2535482827
 30
0.0
 11
145.0229494488
 21
260.8535482827
 31
0.0
  0
LINE
  5
70
  8
0
  6
CONTINUOUS
 62
     7
 10
78.1229494488
 20
252.6535482827
 30
0.0
 11
78.1229494488
 21
166.2535482827
 31
0.0
  0
LINE
  5
71
  8
0
  6
CONTINUOUS
 62
     7
 10
78.1229494488
 20
166.2535482827
 30
0.0
 11
77.7229494488
 21
165.8535482827
 31
0.0
  0
LINE
  5
72
  8
0
  6
CONTINUOUS
 62
     7
 10
78.1229494488
 20
252.6535482827
 30
0.0
 11
77.7229494488
 21
253.0535482827
 31
0.0
  0
LINE
  5
73
  8
0
  6
CONTINUOUS
 62
     7
 10
145.4229494488
 20
157.6535482827
 30
0.0
 11
75.6229494488
 21
157.6535482827
 31
0.0
  0
LINE
  5
74
  8
0
  6
CONTINUOUS
 62
     7
 10
142.9229494488
 20
252.6535482827
 30
0.0
 11
78.1229494488
 21
252.6535482827
 31
0.0
  0
LINE
  5
75
  8
0
  6
CONTINUOUS
 62
     7
 10
143.3229494488
 20
253.0535482827
 30
0.0
 11
142.9229494488
 21
252.6535482827
 31
0.0
  0
LINE
  5
76
  8
0
  6
CONTINUOUS
 62
     7
 10
78.1229494488
 20
166.2535482827
 30
0.0
 11
142.9229494488
 21
166.2535482827
 31
0.0
  0
LINE
  5
77
  8
0
  6
CONTINUOUS
 62
     7
 10
143.3229494488
 20
165.8535482827
 30
0.0
 11
142.9229494488
 21
166.2535482827
 31
0.0
  0
LINE
  5
78
  8
0
  6
CONTINUOUS
 62
     7
 10
142.9229494488
 20
166.2535482827
 30
0.0
 11
142.9229494488
 21
252.6535482827
 31
0.0
  0
LINE
  5
79
  8
0
  6
CONTINUOUS
 62
     7
 10
75.6229494488
 20
261.2535482827
 30
0.0
 11
145.4229494488
 21
261.2535482827
 31
0.0
  0
LINE
  5
7A
  8
0
  6
CONTINUOUS
 62
     7
 10
78.1229494488
 20
181.6535482827
 30
0.0
 11
79.3229494488
 21
181.6535482827
 31
0.0
  0
LINE
  5
7B
  8
0
  6
CONTINUOUS
 62
     7
 10
141.7229494488
 20
181.6535482827
 30
0.0
 11
142.9229494488
 21
181.6535482827
 31
0.0
  0
LINE
  5
7C
  8
0
  6
CONTINUOUS
 62
    59
 10
79.9229494488
 20
246.2883359677
 30
0.0
 11
79.9229494488
 21
168.9394187026
 31
0.0
  0
LINE
  5
7D
  8
0
  6
CONTINUOUS
 62
    59
 10
79.9229494488
 20
168.9394187026
 30
0.0
 11
141.1229494488
 21
168.9394187026
 31
0.0
  0
LINE
  5
7E
  8
0
  6
CONTINUOUS
 62
    59
 10
141.1229494488
 20
168.9394187026
 30
0.0
 11
141.1229494488
 21
246.2883359677
 31
0.0
  0
LINE
  5
7F
  8
0
  6
CONTINUOUS
 62
    59
 10
141.1229494488
 20
246.2883359677
 30
0.0
 11
79.9229494488
 21
246.2883359677
 31
0.0
  0
LINE
  5
80
  8
0
  6
CONTINUOUS
 62
    59
 10
79.0229494488
 20
158.0535482827
 30
0.0
 11
142.0229494488
 21
158.0535482827
 31
0.0
  0
LINE
  5
81
  8
0
  6
CONTINUOUS
 62
    59
 10
76.0229494488
 20
257.8535482827
 30
0.0
 11
76.0229494488
 21
161.0535482827
 31
0.0
  0
LINE
  5
82
  8
0
  6
CONTINUOUS
 62
    59
 10
142.0229494488
 20
260.8535482827
 30
0.0
 11
79.0229494488
 21
260.8535482827
 31
0.0
  0
LINE
  5
83
  8
0
  6
CONTINUOUS
 62
    59
 10
145.0229494488
 20
161.0535482827
 30
0.0
 11
145.0229494488
 21
257.8535482827
 31
0.0
  0
CIRCLE
  5
84
  8
0
  6
CONTINUOUS
 62
    59
 10
84.5229494488
 20
257.8535482827
 30
0.0
 40
0.8499999999999854
  0
CIRCLE
  5
85
  8
0
  6
CONTINUOUS
 62
    59
 10
110.5229494488
 20
257.8535482827
 30
0.0
 40
0.849999999999999
  0
CIRCLE
  5
86
  8
0
  6
CONTINUOUS
 62
    59
 10
136.5229494488
 20
257.8535482827
 30
0.0
 40
0.8499999999999718
  0
CIRCLE
  5
87
  8
0
  6
CONTINUOUS
 62
    59
 10
84.5229494488
 20
161.0535482827
 30
0.0
 40
0.8499999999999936
  0
CIRCLE
  5
88
  8
0
  6
CONTINUOUS
 62
    59
 10
110.5229494488
 20
161.0535482827
 30
0.0
 40
0.8500000000000073
  0
CIRCLE
  5
89
  8
0
  6
CONTINUOUS
 62
    59
 10
136.5229494488
 20
161.0535482827
 30
0.0
 40
0.8499999999999801
  0
ARC
  5
8A
  8
0
  6
CONTINUOUS
 62
    59
 10
79.0229494488
 20
161.0535482827
 30
0.0
 40
3.0
 50
180.0
 51
270.0
  0
ARC
  5
8B
  8
0
  6
CONTINUOUS
 62
    59
 10
79.0229494488
 20
257.8535482827
 30
0.0
 40
3.0
 50
90.0
 51
180.0
  0
ARC
  5
8C
  8
0
  6
CONTINUOUS
 62
    59
 10
142.0229494488
 20
257.8535482827
 30
0.0
 40
3.0
 50
0.0
 51
90.0
  0
ARC
  5
8D
  8
0
  6
CONTINUOUS
 62
    59
 10
142.0229494488
 20
161.0535482827
 30
0.0
 40
3.0
 50
270.0
 51
0.0
  0
LINE
  5
8E
  8
0
  6
CONTINUOUS
 62
     7
 10
234.1821189134
 20
219.8535482827
 30
0.0
 11
234.5221189134
 21
219.8535482827
 31
0.0
  0
LINE
  5
8F
  8
0
  6
CONTINUOUS
 62
     7
 10
234.5221189134
 20
238.6535482827
 30
0.0
 11
234.1821189134
 21
238.6535482827
 31
0.0
  0
LINE
  5
90
  8
0
  6
CONTINUOUS
 62
     7
 10
234.5221189134
 20
220.8535482827
 30
0.0
 11
234.1821189134
 21
220.8535482827
 31
0.0
  0
LINE
  5
91
  8
0
  6
CONTINUOUS
 62
     7
 10
234.5221189134
 20
220.8535482827
 30
0.0
 11
234.5221189134
 21
219.8535482827
 31
0.0
  0
LINE
  5
92
  8
0
  6
CONTINUOUS
 62
     7
 10
234.5221189134
 20
237.6535482827
 30
0.0
 11
234.1821189134
 21
237.6535482827
 31
0.0
  0
LINE
  5
93
  8
0
  6
CONTINUOUS
 62
     7
 10
234.5221189134
 20
237.6535482827
 30
0.0
 11
234.5221189134
 21
220.8535482827
 31
0.0
  0
LINE
  5
94
  8
0
  6
CONTINUOUS
 62
     7
 10
234.5221189134
 20
238.6535482827
 30
0.0
 11
234.5221189134
 21
237.6535482827
 31
0.0
  0
CIRCLE
  5
95
  8
0
  6
CONTINUOUS
 62
     7
 10
229.2821189134
 20
178.2535482827
 30
0.0
 40
0.799999999999983
  0
LINE
  5
96
  8
0
  6
CONTINUOUS
 62
     7
 10
234.1821189134
 20
260.8535482827
 30
0.0
 11
234.1821189134
 21
158.0535482827
 31
0.0
  0
ARC
  5
97
  8
0
  6
CONTINUOUS
 62
     7
 10
233.7821189134
 20
158.0535482827
 30
0.0
 40
0.3999999999999773
 50
270.0
 51
0.0
  0
ARC
  5
98
  8
0
  6
CONTINUOUS
 62
     7
 10
233.7821189134
 20
260.8535482827
 30
0.0
 40
0.3999999999999204
 50
0.0
 51
90.0
  0
LINE
  5
99
  8
0
  6
CONTINUOUS
 62
     7
 10
233.7821189134
 20
261.2535482827
 30
0.0
 11
232.6821189134
 21
261.2535482827
 31
0.0
  0
LINE
  5
9A
  8
0
  6
CONTINUOUS
 62
     7
 10
233.7821189134
 20
157.6535482827
 30
0.0
 11
232.6821189134
 21
157.6535482827
 31
0.0
  0
LINE
  5
9B
  8
0
  6
CONTINUOUS
 62
     7
 10
232.6821189134
 20
261.2535482827
 30
0.0
 11
232.6821189134
 21
157.6535482827
 31
0.0
  0
LINE
  5
9C
  8
0
  6
CONTINUOUS
 62
     7
 10
216.4821189134
 20
165.6535482827
 30
0.0
 11
216.4821189134
 21
182.0535482827
 31
0.0
  0
LINE
  5
9D
  8
0
  6
CONTINUOUS
 62
     7
 10
218.8821189134
 20
182.0535482827
 30
0.0
 11
218.8821189134
 21
253.2535482827
 31
0.0
  0
LINE
  5
9E
  8
0
  6
CONTINUOUS
 62
     7
 10
232.6821189134
 20
253.2535482827
 30
0.0
 11
218.8821189134
 21
253.2535482827
 31
0.0
  0
LINE
  5
9F
  8
0
  6
CONTINUOUS
 62
     7
 10
232.6821189134
 20
165.6535482827
 30
0.0
 11
216.4821189134
 21
165.6535482827
 31
0.0
  0
CIRCLE
  5
A0
  8
0
  6
CONTINUOUS
 62
     7
 10
229.2821189134
 20
178.2535482827
 30
0.0
 40
0.8400000000000034
  0
LINE
  5
A1
  8
0
  6
CONTINUOUS
 62
     7
 10
216.4821189134
 20
182.0535482827
 30
0.0
 11
218.8821189134
 21
182.0535482827
 31
0.0
  0
LINE
  5
A2
  8
0
  6
CONTINUOUS
 62
    59
 10
233.0821189134
 20
158.0535482827
 30
0.0
 11
232.6821189134
 21
158.0535482827
 31
0.0
  0
LINE
  5
A3
  8
0
  6
CONTINUOUS
 62
    59
 10
233.0821189134
 20
260.8535482827
 30
0.0
 11
233.0821189134
 21
158.0535482827
 31
0.0
  0
LINE
  5
A4
  8
0
  6
CONTINUOUS
 62
    59
 10
232.6821189134
 20
160.2035482827
 30
0.0
 11
233.0821189134
 21
160.2035482827
 31
0.0
  0
LINE
  5
A5
  8
0
  6
CONTINUOUS
 62
    59
 10
233.0821189134
 20
161.9035482827
 30
0.0
 11
232.6821189134
 21
161.9035482827
 31
0.0
  0
LINE
  5
A6
  8
0
  6
CONTINUOUS
 62
    59
 10
232.6821189134
 20
257.0035482827
 30
0.0
 11
233.0821189134
 21
257.0035482827
 31
0.0
  0
LINE
  5
A7
  8
0
  6
CONTINUOUS
 62
    59
 10
233.0821189134
 20
258.7035482827
 30
0.0
 11
232.6821189134
 21
258.7035482827
 31
0.0
  0
LINE
  5
A8
  8
0
  6
CONTINUOUS
 62
    59
 10
232.6821189134
 20
260.8535482827
 30
0.0
 11
233.0821189134
 21
260.8535482827
 31
0.0
  0
LINE
  5
A9
  8
0
  6
CONTINUOUS
 62
     7
 10
358.7951704793
 20
173.6535482827
 30
0.0
 11
358.7951704793
 21
173.0135482827
 31
0.0
  0
LINE
  5
AA
  8
0
  6
CONTINUOUS
 62
     7
 10
377.5951704793
 20
173.0135482827
 30
0.0
 11
377.5951704793
 21
173.6535482827
 31
0.0
  0
LINE
  5
AB
  8
0
  6
CONTINUOUS
 62
     7
 10
359.7951704793
 20
173.0135482827
 30
0.0
 11
359.7951704793
 21
173.6535482827
 31
0.0
  0
LINE
  5
AC
  8
0
  6
CONTINUOUS
 62
     7
 10
359.7951704793
 20
173.0135482827
 30
0.0
 11
358.7951704793
 21
173.0135482827
 31
0.0
  0
LINE
  5
AD
  8
0
  6
CONTINUOUS
 62
     7
 10
376.5951704793
 20
173.0135482827
 30
0.0
 11
376.5951704793
 21
173.6535482827
 31
0.0
  0
LINE
  5
AE
  8
0
  6
CONTINUOUS
 62
     7
 10
376.5951704793
 20
173.0135482827
 30
0.0
 11
359.7951704793
 21
173.0135482827
 31
0.0
  0
LINE
  5
AF
  8
0
  6
CONTINUOUS
 62
     7
 10
377.5951704793
 20
173.0135482827
 30
0.0
 11
376.5951704793
 21
173.0135482827
 31
0.0
  0
LINE
  5
B0
  8
0
  6
CONTINUOUS
 62
     7
 10
322.0951704793
 20
181.6535482827
 30
0.0
 11
389.6951704793
 21
181.6535482827
 31
0.0
  0
LINE
  5
B1
  8
0
  6
CONTINUOUS
 62
     7
 10
389.6951704793
 20
185.6535482827
 30
0.0
 11
389.6951704793
 21
181.6535482827
 31
0.0
  0
LINE
  5
B2
  8
0
  6
CONTINUOUS
 62
     7
 10
322.0951704793
 20
188.0535482827
 30
0.0
 11
387.2951704793
 21
188.0535482827
 31
0.0
  0
ARC
  5
B3
  8
0
  6
CONTINUOUS
 62
     7
 10
387.2951704793
 20
185.6535482827
 30
0.0
 40
2.400000000000006
 50
0.0
 51
90.0
  0
CIRCLE
  5
B4
  8
0
  6
CONTINUOUS
 62
     7
 10
317.1951704793
 20
178.2535482827
 30
0.0
 40
0.8000000000000114
  0
ARC
  5
B5
  8
0
  6
CONTINUOUS
 62
     7
 10
389.1559399947
 20
181.0535482827
 30
0.0
 40
0.6000000000000155
 50
330.0
 51
0.0
  0
LINE
  5
B6
  8
0
  6
CONTINUOUS
 62
     7
 10
389.675555237
 20
180.7535482827
 30
0.0
 11
385.9227784873
 21
174.2535482827
 31
0.0
  0
ARC
  5
B7
  8
0
  6
CONTINUOUS
 62
     7
 10
389.1559399947
 20
181.0535482827
 30
0.0
 40
0.5999999999999375
 50
0.0
 51
90.0
  0
LINE
  5
B8
  8
0
  6
CONTINUOUS
 62
     7
 10
385.9227784873
 20
174.2535482827
 30
0.0
 11
385.7495734065
 21
173.9535482827
 31
0.0
  0
ARC
  5
B9
  8
0
  6
CONTINUOUS
 62
     7
 10
385.2299581643
 20
174.2535482827
 30
0.0
 40
0.600000000000307
 50
270.0
 51
330.0
  0
LINE
  5
BA
  8
0
  6
CONTINUOUS
 62
     7
 10
385.2299581643
 20
173.6535482827
 30
0.0
 11
322.0951704793
 21
173.6535482827
 31
0.0
  0
LINE
  5
BB
  8
0
  6
CONTINUOUS
 62
     7
 10
322.0951704793
 20
260.8535482827
 30
0.0
 11
322.0951704793
 21
158.0535482827
 31
0.0
  0
ARC
  5
BC
  8
0
  6
CONTINUOUS
 62
     7
 10
321.6951704793
 20
158.0535482827
 30
0.0
 40
0.4000000000000057
 50
270.0
 51
0.0
  0
ARC
  5
BD
  8
0
  6
CONTINUOUS
 62
     7
 10
321.6951704793
 20
260.8535482827
 30
0.0
 40
0.3999999999999204
 50
0.0
 51
90.0
  0
LINE
  5
BE
  8
0
  6
CONTINUOUS
 62
     7
 10
321.6951704793
 20
261.2535482827
 30
0.0
 11
320.5951704793
 21
261.2535482827
 31
0.0
  0
LINE
  5
BF
  8
0
  6
CONTINUOUS
 62
     7
 10
321.6951704793
 20
157.6535482827
 30
0.0
 11
320.5951704793
 21
157.6535482827
 31
0.0
  0
LINE
  5
C0
  8
0
  6
CONTINUOUS
 62
     7
 10
320.5951704793
 20
261.2535482827
 30
0.0
 11
320.5951704793
 21
157.6535482827
 31
0.0
  0
LINE
  5
C1
  8
0
  6
CONTINUOUS
 62
     7
 10
304.3951704793
 20
165.6535482827
 30
0.0
 11
304.3951704793
 21
182.0535482827
 31
0.0
  0
LINE
  5
C2
  8
0
  6
CONTINUOUS
 62
     7
 10
306.7951704793
 20
182.0535482827
 30
0.0
 11
306.7951704793
 21
253.2535482827
 31
0.0
  0
LINE
  5
C3
  8
0
  6
CONTINUOUS
 62
     7
 10
320.5951704793
 20
253.2535482827
 30
0.0
 11
306.7951704793
 21
253.2535482827
 31
0.0
  0
LINE
  5
C4
  8
0
  6
CONTINUOUS
 62
     7
 10
320.5951704793
 20
165.6535482827
 30
0.0
 11
304.3951704793
 21
165.6535482827
 31
0.0
  0
CIRCLE
  5
C5
  8
0
  6
CONTINUOUS
 62
     7
 10
317.1951704793
 20
178.2535482827
 30
0.0
 40
0.839999999999975
  0
LINE
  5
C6
  8
0
  6
CONTINUOUS
 62
     7
 10
304.3951704793
 20
182.0535482827
 30
0.0
 11
306.7951704793
 21
182.0535482827
 31
0.0
  0
LINE
  5
C7
  8
0
  6
CONTINUOUS
 62
    59
 10
320.5951704793
 20
260.8535482827
 30
0.0
 11
320.9951704793
 21
260.8535482827
 31
0.0
  0
LINE
  5
C8
  8
0
  6
CONTINUOUS
 62
    59
 10
320.9951704793
 20
260.8535482827
 30
0.0
 11
320.9951704793
 21
158.0535482827
 31
0.0
  0
LINE
  5
C9
  8
0
  6
CONTINUOUS
 62
    59
 10
320.9951704793
 20
258.7035482827
 30
0.0
 11
320.5951704793
 21
258.7035482827
 31
0.0
  0
LINE
  5
CA
  8
0
  6
CONTINUOUS
 62
    59
 10
320.5951704793
 20
257.0035482827
 30
0.0
 11
320.9951704793
 21
257.0035482827
 31
0.0
  0
LINE
  5
CB
  8
0
  6
CONTINUOUS
 62
    59
 10
320.9951704793
 20
161.9035482827
 30
0.0
 11
320.5951704793
 21
161.9035482827
 31
0.0
  0
LINE
  5
CC
  8
0
  6
CONTINUOUS
 62
    59
 10
320.5951704793
 20
160.2035482827
 30
0.0
 11
320.9951704793
 21
160.2035482827
 31
0.0
  0
LINE
  5
CD
  8
0
  6
CONTINUOUS
 62
    59
 10
320.9951704793
 20
158.0535482827
 30
0.0
 11
320.5951704793
 21
158.0535482827
 31
0.0
  0
LINE
  5
CE
  8
0
  6
CONTINUOUS
 62
     7
 10
79.3229494488
 20
31.6929263155
 30
0.0
 11
141.7229494488
 21
31.6929263155
 31
0.0
  0
LINE
  5
CF
  8
0
  6
CONTINUOUS
 62
     7
 10
141.7229494488
 20
99.3536958309
 30
0.0
 11
141.7229494488
 21
31.7536958309
 31
0.0
  0
LINE
  5
D0
  8
0
  6
CONTINUOUS
 62
     7
 10
141.7229494488
 20
31.7536958309
 30
0.0
 11
139.3229494488
 21
34.1536958309
 31
0.0
  0
LINE
  5
D1
  8
0
  6
CONTINUOUS
 62
     7
 10
81.7229494488
 20
34.1536958309
 30
0.0
 11
79.3229494488
 21
31.7536958309
 31
0.0
  0
LINE
  5
D2
  8
0
  6
CONTINUOUS
 62
     7
 10
79.3229494488
 20
31.7536958309
 30
0.0
 11
79.3229494488
 21
99.3536958309
 31
0.0
  0
LINE
  5
D3
  8
0
  6
CONTINUOUS
 62
     7
 10
141.7229494488
 20
31.7536958309
 30
0.0
 11
79.3229494488
 21
31.7536958309
 31
0.0
  0
LINE
  5
D4
  8
0
  6
CONTINUOUS
 62
     7
 10
141.7229494488
 20
31.7536958309
 30
0.0
 11
141.7229494488
 21
31.6929263155
 31
0.0
  0
LINE
  5
D5
  8
0
  6
CONTINUOUS
 62
     7
 10
141.7229494488
 20
31.6929263155
 30
0.0
 11
141.6621799333
 21
31.7536958309
 31
0.0
  0
LINE
  5
D6
  8
0
  6
CONTINUOUS
 62
     7
 10
79.3229494488
 20
31.6929263155
 30
0.0
 11
79.3837189643
 21
31.7536958309
 31
0.0
  0
LINE
  5
D7
  8
0
  6
CONTINUOUS
 62
     7
 10
79.3229494488
 20
31.6929263155
 30
0.0
 11
79.3229494488
 21
31.7536958309
 31
0.0
  0
LINE
  5
D8
  8
0
  6
CONTINUOUS
 62
     7
 10
145.4229494488
 20
100.8536958309
 30
0.0
 11
75.6229494488
 21
100.8536958309
 31
0.0
  0
LINE
  5
D9
  8
0
  6
CONTINUOUS
 62
     7
 10
145.4229494488
 20
99.7536958309
 30
0.0
 11
145.4229494488
 21
100.8536958309
 31
0.0
  0
LINE
  5
DA
  8
0
  6
CONTINUOUS
 62
     7
 10
75.6229494488
 20
99.7536958309
 30
0.0
 11
75.6229494488
 21
100.8536958309
 31
0.0
  0
LINE
  5
DB
  8
0
  6
CONTINUOUS
 62
     7
 10
145.0229494488
 20
99.3536958309
 30
0.0
 11
76.0229494488
 21
99.3536958309
 31
0.0
  0
ARC
  5
DC
  8
0
  6
CONTINUOUS
 62
     7
 10
76.0229494488
 20
99.7536958309
 30
0.0
 40
0.4000000000000341
 50
180.0
 51
270.0
  0
ARC
  5
DD
  8
0
  6
CONTINUOUS
 62
     7
 10
145.0229494488
 20
99.7536958309
 30
0.0
 40
0.4000000000000057
 50
270.0
 51
0.0
  0
LINE
  5
DE
  8
0
  6
CONTINUOUS
 62
     7
 10
143.6229494488
 20
114.6536958309
 30
0.0
 11
77.4229494488
 21
114.6536958309
 31
0.0
  0
LINE
  5
DF
  8
0
  6
CONTINUOUS
 62
     7
 10
143.6229494488
 20
100.8536958309
 30
0.0
 11
143.6229494488
 21
114.6536958309
 31
0.0
  0
LINE
  5
E0
  8
0
  6
CONTINUOUS
 62
     7
 10
77.4229494488
 20
100.8536958309
 30
0.0
 11
77.4229494488
 21
114.6536958309
 31
0.0
  0
LINE
  5
E1
  8
0
  6
CONTINUOUS
 62
     7
 10
77.4229494488
 20
117.0536958309
 30
0.0
 11
143.6229494488
 21
117.0536958309
 31
0.0
  0
LINE
  5
E2
  8
0
  6
CONTINUOUS
 62
     7
 10
143.6229494488
 20
117.0536958309
 30
0.0
 11
143.6229494488
 21
114.6536958309
 31
0.0
  0
LINE
  5
E3
  8
0
  6
CONTINUOUS
 62
     7
 10
77.4229494488
 20
117.0536958309
 30
0.0
 11
77.4229494488
 21
114.6536958309
 31
0.0
  0
ENDSEC
  0
EOF
