  0
SECTION
  2
HEADER
  9
$ACADVER
  1
AC1009
  9
$DWGCODEPAGE
  3
ansi_1252
  9
$INSBASE
 10
0.0
 20
0.0
 30
0.0
  9
$EXTMIN
 10
0.0
 20
0.0
 30
0.0
  9
$EXTMAX
 10
420.0
 20
297.0
 30
0.0
  9
$LIMMIN
 10
0.0
 20
0.0
  9
$LIMMAX
 10
420.0
 20
297.0
  9
$ORTHOMODE
 70
     0
  9
$REGENMODE
 70
     1
  9
$FILLMODE
 70
     1
  9
$QTEXTMODE
 70
     0
  9
$MIRRTEXT
 70
     1
  9
$DRAGMODE
 70
     2
  9
$LTSCALE
 40
1.0
  9
$OSMODE
 70
    37
  9
$ATTMODE
 70
     1
  9
$TEXTSIZE
 40
3.5
  9
$TRACEWID
 40
1.0
  9
$TEXTSTYLE
  7
STANDARD
  9
$CLAYER
  8
0
  9
$CELTYPE
  6
BYLAYER
  9
$CECOLOR
 62
   256
  9
$DIMSCALE
 40
1.0
  9
$DIMASZ
 40
4.0
  9
$DIMEXO
 40
0.0
  9
$DIMDLI
 40
3.75
  9
$DIMRND
 40
0.0
  9
$DIMDLE
 40
0.0
  9
$DIMEXE
 40
2.0
  9
$DIMTP
 40
0.0
  9
$DIMTM
 40
0.0
  9
$DIMTXT
 40
3.5
  9
$DIMCEN
 40
2.5
  9
$DIMTSZ
 40
0.0
  9
$DIMTOL
 70
     0
  9
$DIMLIM
 70
     0
  9
$DIMTIH
 70
     1
  9
$DIMTOH
 70
     1
  9
$DIMSE1
 70
     0
  9
$DIMSE2
 70
     0
  9
$DIMTAD
 70
     1
  9
$DIMZIN
 70
     0
  9
$DIMBLK
  1

  9
$DIMASO
 70
     1
  9
$DIMSHO
 70
     1
  9
$DIMPOST
  1

  9
$DIMAPOST
  1

  9
$DIMALT
 70
     0
  9
$DIMALTD
 70
     3
  9
$DIMALTF
 40
0.0393700787
  9
$DIMLFAC
 40
5.0
  9
$DIMTOFL
 70
     1
  9
$DIMTVP
 40
0.0
  9
$DIMTIX
 70
     0
  9
$DIMSOXD
 70
     0
  9
$DIMSAH
 70
     0
  9
$DIMBLK1
  1

  9
$DIMBLK2
  1

  9
$DIMSTYLE
  2
ISO-25
  9
$DIMCLRD
 70
     0
  9
$DIMCLRE
 70
     0
  9
$DIMCLRT
 70
     0
  9
$DIMTFAC
 40
1.0
  9
$DIMGAP
 40
1.524
  9
$LUNITS
 70
     2
  9
$LUPREC
 70
     2
  9
$SKETCHINC
 40
1.0
  9
$FILLETRAD
 40
10.0
  9
$AUNITS
 70
     0
  9
$AUPREC
 70
     2
  9
$MENU
  1
.
  9
$ELEVATION
 40
0.0
  9
$PELEVATION
 40
0.0
  9
$THICKNESS
 40
0.0
  9
$LIMCHECK
 70
     0
  9
$CHAMFERA
 40
10.0
  9
$CHAMFERB
 40
10.0
  9
$SKPOLY
 70
     0
  9
$TDCREATE
 40
2457801.378070197
  9
$TDUPDATE
 40
2457801.378070336
  9
$TDINDWG
 40
0.0000000116
  9
$TDUSRTIMER
 40
0.0000000116
  9
$USRTIMER
 70
     1
  9
$ANGBASE
 50
0.0
  9
$ANGDIR
 70
     0
  9
$PDMODE
 70
     0
  9
$PDSIZE
 40
-1.0
  9
$PLINEWID
 40
0.0
  9
$COORDS
 70
     1
  9
$SPLFRAME
 70
     0
  9
$SPLINETYPE
 70
     6
  9
$SPLINESEGS
 70
     8
  9
$ATTDIA
 70
     0
  9
$ATTREQ
 70
     1
  9
$HANDLING
 70
     1
  9
$HANDSEED
  5
EF
  9
$SURFTAB1
 70
     6
  9
$SURFTAB2
 70
     6
  9
$SURFTYPE
 70
     6
  9
$SURFU
 70
     6
  9
$SURFV
 70
     6
  9
$UCSNAME
  2

  9
$UCSORG
 10
0.0
 20
0.0
 30
0.0
  9
$UCSXDIR
 10
1.0
 20
0.0
 30
0.0
  9
$UCSYDIR
 10
0.0
 20
1.0
 30
0.0
  9
$PUCSNAME
  2

  9
$PUCSORG
 10
0.0
 20
0.0
 30
0.0
  9
$PUCSXDIR
 10
1.0
 20
0.0
 30
0.0
  9
$PUCSYDIR
 10
0.0
 20
1.0
 30
0.0
  9
$USERI1
 70
     0
  9
$USERI2
 70
     0
  9
$USERI3
 70
     0
  9
$USERI4
 70
     0
  9
$USERI5
 70
     0
  9
$USERR1
 40
0.0
  9
$USERR2
 40
0.0
  9
$USERR3
 40
0.0
  9
$USERR4
 40
0.0
  9
$USERR5
 40
0.0
  9
$WORLDVIEW
 70
     1
  9
$SHADEDGE
 70
     3
  9
$SHADEDIF
 70
    70
  9
$TILEMODE
 70
     1
  9
$MAXACTVP
 70
    64
  9
$PLIMCHECK
 70
     0
  9
$PEXTMIN
 10
1.0000000000E+20
 20
1.0000000000E+20
 30
1.0000000000E+20
  9
$PEXTMAX
 10
-1.0000000000E+20
 20
-1.0000000000E+20
 30
-1.0000000000E+20
  9
$PLIMMIN
 10
0.0
 20
0.0
  9
$PLIMMAX
 10
420.0
 20
297.0
  9
$UNITMODE
 70
     0
  9
$VISRETAIN
 70
     1
  9
$PLINEGEN
 70
     0
  9
$PSLTSCALE
 70
     1
  0
ENDSEC
  0
SECTION
  2
TABLES
  0
TABLE
  2
VPORT
 70
     1
  0
VPORT
  2
*ACTIVE
 70
     0
 10
0.0
 20
0.0
 11
1.0
 21
1.0
 12
210.0
 22
148.5
 13
0.0
 23
0.0
 14
10.0
 24
10.0
 15
10.0
 25
10.0
 16
0.0
 26
0.0
 36
1.0
 17
0.0
 27
0.0
 37
0.0
 40
297.0
 41
1.4141414141
 42
50.0
 43
0.0
 44
0.0
 50
0.0
 51
0.0
 71
     0
 72
  2000
 73
     1
 74
     3
 75
     0
 76
     0
 77
     0
 78
     0
  0
ENDTAB
  0
TABLE
  2
LTYPE
 70
     6
  0
LTYPE
  2
CONTINUOUS
 70
     0
  3
Solid line
 72
    65
 73
     0
 40
0.0
  0
LTYPE
  2
HIDDEN
 70
     0
  3
Hidden __ __ __ __ __ __ __ __ __ __ __ __ __ __
 72
    65
 73
     2
 40
1.905
 49
1.27
 49
-0.635
  0
LTYPE
  2
PHANTOM
 70
     0
  3
Phantom ______  __  __  ______  __  __  ______
 72
    65
 73
     6
 40
12.7
 49
6.35
 49
-1.27
 49
1.27
 49
-1.27
 49
1.27
 49
-1.27
  0
LTYPE
  2
CENTER
 70
     0
  3
Center ____ _ ____ _ ____ _ ____ _ ____ _ ____
 72
    65
 73
     4
 40
10.16
 49
6.35
 49
-1.27
 49
1.27
 49
-1.27
  0
LTYPE
  2
CENTERX2
 70
     0
  3
Center (2x) ________  __  ________  __  _____
 72
    65
 73
     4
 40
20.32
 49
12.7
 49
-2.54
 49
2.54
 49
-2.54
  0
LTYPE
  2
DOT2
 70
     0
  3
Dot (.5x) ........................................
 72
    65
 73
     2
 40
0.635
 49
0.0
 49
-0.635
  0
ENDTAB
  0
TABLE
  2
LAYER
 70
     2
  0
LAYER
  2
0
 70
     0
 62
     7
  6
CONTINUOUS
  0
LAYER
  2
FORMAT
 70
     0
 62
     7
  6
CONTINUOUS
  0
ENDTAB
  0
TABLE
  2
STYLE
 70
     1
  0
STYLE
  2
STANDARD
 70
     0
 40
0.0
 41
1.0
 50
0.0
 71
     0
 42
3.5
  3
txt
  4

  0
ENDTAB
  0
TABLE
  2
VIEW
 70
     0
  0
ENDTAB
  0
TABLE
  2
UCS
 70
     0
  0
ENDTAB
  0
TABLE
  2
APPID
 70
     1
  0
APPID
  2
ACAD
 70
     0
  0
ENDTAB
  0
TABLE
  2
DIMSTYLE
 70
     1
  0
DIMSTYLE
  2
ISO-25
 70
     0
  3

  4

  5

  6

  7

 40
1.0
 41
2.5
 42
0.625
 43
3.75
 44
1.25
 45
0.0
 46
0.0
 47
0.0
 48
0.0
140
2.5
141
2.5
142
0.0
143
0.0393700787
144
1.0
145
0.0
146
1.0
147
0.625
 71
     0
 72
     0
 73
     0
 74
     0
 75
     0
 76
     0
 77
     1
 78
     8
170
     0
171
     3
172
     1
173
     0
174
     0
175
     0
176
     0
177
     0
178
     0
  0
ENDTAB
  0
ENDSEC
  0
SECTION
  2
BLOCKS
  0
BLOCK
  8
0
  2
$MODEL_SPACE
 70
     0
 10
0.0
 20
0.0
 30
0.0
  3
$MODEL_SPACE
  1

  0
ENDBLK
  5
21
  8
0
  0
BLOCK
 67
     1
  8
0
  2
$PAPER_SPACE
 70
     0
 10
0.0
 20
0.0
 30
0.0
  3
$PAPER_SPACE
  1

  0
ENDBLK
  5
1D
 67
     1
  8
0
  0
ENDSEC
  0
SECTION
  2
ENTITIES
  0
LINE
  5
45
  8
0
  6
CONTINUOUS
 62
     7
 10
414.85
 20
5.15
 30
0.0
 11
5.15
 21
5.15
 31
0.0
  0
LINE
  5
46
  8
0
  6
CONTINUOUS
 62
     7
 10
415.0
 20
5.0
 30
0.0
 11
415.0
 21
277.0
 31
0.0
  0
LINE
  5
47
  8
0
  6
CONTINUOUS
 62
     7
 10
415.0
 20
277.0
 30
0.0
 11
5.0
 21
277.0
 31
0.0
  0
LINE
  5
48
  8
0
  6
CONTINUOUS
 62
     7
 10
5.15
 20
276.85
 30
0.0
 11
5.15
 21
5.15
 31
0.0
  0
LINE
  5
49
  8
0
  6
CONTINUOUS
 62
     7
 10
145.8023061116
 20
130.9963453662
 30
0.0
 11
145.8023061116
 21
241.0173689195
 31
0.0
  0
LINE
  5
4A
  8
0
  6
CONTINUOUS
 62
     7
 10
145.8023061116
 20
241.0173689195
 30
0.0
 11
46.7812825583
 21
241.0173689195
 31
0.0
  0
LINE
  5
4B
  8
0
  6
CONTINUOUS
 62
     7
 10
46.7812825583
 20
130.9963453662
 30
0.0
 11
145.8023061116
 21
130.9963453662
 31
0.0
  0
LINE
  5
4C
  8
0
  6
CONTINUOUS
 62
     7
 10
46.7812825583
 20
241.0173689195
 30
0.0
 11
46.7812825583
 21
130.9963453662
 31
0.0
  0
LINE
  5
4D
  8
0
  6
CONTINUOUS
 62
     7
 10
141.4227344427
 20
135.3759170352
 30
0.0
 11
140.7299141196
 21
136.0687373582
 31
0.0
  0
LINE
  5
4E
  8
0
  6
CONTINUOUS
 62
     7
 10
141.4227344427
 20
236.6377972505
 30
0.0
 11
140.7299141196
 21
235.9449769275
 31
0.0
  0
LINE
  5
4F
  8
0
  6
CONTINUOUS
 62
     7
 10
51.8536745503
 20
136.0687373582
 30
0.0
 11
51.1608542273
 21
135.3759170352
 31
0.0
  0
LINE
  5
50
  8
0
  6
CONTINUOUS
 62
     7
 10
59.491794335
 20
226.4068571429
 30
0.0
 11
59.491794335
 21
145.6068571429
 31
0.0
  0
ARC
  5
51
  8
0
  6
CONTINUOUS
 62
     7
 10
61.491794335
 20
145.6068571429
 30
0.0
 40
2.000000000000007
 50
180.0
 51
270.0
  0
ARC
  5
52
  8
0
  6
CONTINUOUS
 62
     7
 10
131.091794335
 20
145.6068571429
 30
0.0
 40
2.0
 50
270.0
 51
0.0
  0
ARC
  5
53
  8
0
  6
CONTINUOUS
 62
     7
 10
131.091794335
 20
226.4068571429
 30
0.0
 40
2.000000000000028
 50
0.0
 51
90.0
  0
LINE
  5
54
  8
0
  6
CONTINUOUS
 62
     7
 10
131.091794335
 20
228.4068571429
 30
0.0
 11
61.491794335
 21
228.4068571429
 31
0.0
  0
CIRCLE
  5
55
  8
0
  6
CONTINUOUS
 62
     7
 10
72.491794335
 20
230.4068571429
 30
0.0
 40
0.8999999999999915
  0
CIRCLE
  5
56
  8
0
  6
CONTINUOUS
 62
     7
 10
57.091794335
 20
205.4068571429
 30
0.0
 40
0.9000000000000057
  0
CIRCLE
  5
57
  8
0
  6
CONTINUOUS
 62
     7
 10
120.091794335
 20
230.4068571429
 30
0.0
 40
0.9000000000000057
  0
CIRCLE
  5
58
  8
0
  6
CONTINUOUS
 62
     7
 10
135.491794335
 20
205.4068571429
 30
0.0
 40
0.9000000000000341
  0
CIRCLE
  5
59
  8
0
  6
CONTINUOUS
 62
     7
 10
135.491794335
 20
147.4068571429
 30
0.0
 40
0.9000000000000057
  0
CIRCLE
  5
5A
  8
0
  6
CONTINUOUS
 62
     7
 10
120.091794335
 20
141.6068571429
 30
0.0
 40
0.8999999999999915
  0
CIRCLE
  5
5B
  8
0
  6
CONTINUOUS
 62
     7
 10
72.491794335
 20
141.6068571429
 30
0.0
 40
0.9000000000000057
  0
CIRCLE
  5
5C
  8
0
  6
CONTINUOUS
 62
     7
 10
57.091794335
 20
176.4068571429
 30
0.0
 40
0.9000000000000057
  0
CIRCLE
  5
5D
  8
0
  6
CONTINUOUS
 62
     7
 10
57.091794335
 20
147.4068571429
 30
0.0
 40
0.9000000000000057
  0
CIRCLE
  5
5E
  8
0
  6
CONTINUOUS
 62
     7
 10
135.491794335
 20
176.4068571429
 30
0.0
 40
0.9000000000000057
  0
LINE
  5
5F
  8
0
  6
CONTINUOUS
 62
     7
 10
61.491794335
 20
143.6068571429
 30
0.0
 11
131.091794335
 21
143.6068571429
 31
0.0
  0
LINE
  5
60
  8
0
  6
CONTINUOUS
 62
     7
 10
133.091794335
 20
145.6068571429
 30
0.0
 11
133.091794335
 21
226.4068571429
 31
0.0
  0
ARC
  5
61
  8
0
  6
CONTINUOUS
 62
     7
 10
61.491794335
 20
226.4068571429
 30
0.0
 40
2.000000000000028
 50
90.0
 51
180.0
  0
LINE
  5
62
  8
0
  6
CONTINUOUS
 62
     7
 10
51.8536745503
 20
235.9449769275
 30
0.0
 11
51.1608542273
 21
236.6377972505
 31
0.0
  0
LINE
  5
63
  8
0
  6
CONTINUOUS
 62
     7
 10
46.8884622353
 20
240.9101892425
 30
0.0
 11
51.1608542273
 21
236.6377972505
 31
0.0
  0
LINE
  5
64
  8
0
  6
CONTINUOUS
 62
     7
 10
145.6951264347
 20
240.9101892425
 30
0.0
 11
141.4227344427
 21
236.6377972505
 31
0.0
  0
LINE
  5
65
  8
0
  6
CONTINUOUS
 62
     7
 10
145.6951264347
 20
131.1035250432
 30
0.0
 11
141.4227344427
 21
135.3759170352
 31
0.0
  0
LINE
  5
66
  8
0
  6
CONTINUOUS
 62
     7
 10
46.8884622353
 20
131.1035250432
 30
0.0
 11
51.1608542273
 21
135.3759170352
 31
0.0
  0
LINE
  5
67
  8
0
  6
CONTINUOUS
 62
     7
 10
145.6951264347
 20
240.9101892425
 30
0.0
 11
145.8023061116
 21
241.0173689195
 31
0.0
  0
LINE
  5
68
  8
0
  6
CONTINUOUS
 62
     7
 10
145.6951264347
 20
131.1035250432
 30
0.0
 11
145.8023061116
 21
130.9963453662
 31
0.0
  0
LINE
  5
69
  8
0
  6
CONTINUOUS
 62
     7
 10
46.7812825583
 20
241.0173689195
 30
0.0
 11
46.8884622353
 21
240.9101892425
 31
0.0
  0
LINE
  5
6A
  8
0
  6
CONTINUOUS
 62
     7
 10
46.7812825583
 20
130.9963453662
 30
0.0
 11
46.8884622353
 21
131.1035250432
 31
0.0
  0
LINE
  5
6B
  8
0
  6
HIDDEN
 62
     7
 10
50.591794335
 20
238.2068571429
 30
0.0
 11
65.391794335
 21
238.2068571429
 31
0.0
  0
ARC
  5
6C
  8
0
  6
HIDDEN
 62
     7
 10
50.591794335
 20
237.2068571429
 30
0.0
 40
1.0
 50
90.0
 51
180.0
  0
LINE
  5
6D
  8
0
  6
HIDDEN
 62
     7
 10
49.591794335
 20
223.0068571429
 30
0.0
 11
49.591794335
 21
237.2068571429
 31
0.0
  0
LINE
  5
6E
  8
0
  6
HIDDEN
 62
     7
 10
50.991794335
 20
223.0068571429
 30
0.0
 11
49.591794335
 21
223.0068571429
 31
0.0
  0
ARC
  5
6F
  8
0
  6
HIDDEN
 62
     7
 10
50.991794335
 20
222.0068571429
 30
0.0
 40
1.0
 50
0.0
 51
90.0
  0
LINE
  5
70
  8
0
  6
HIDDEN
 62
     7
 10
51.991794335
 20
150.0068571429
 30
0.0
 11
51.991794335
 21
222.0068571429
 31
0.0
  0
ARC
  5
71
  8
0
  6
HIDDEN
 62
     7
 10
50.991794335
 20
150.0068571429
 30
0.0
 40
1.0
 50
270.0
 51
0.0
  0
LINE
  5
72
  8
0
  6
HIDDEN
 62
     7
 10
49.591794335
 20
149.0068571429
 30
0.0
 11
50.991794335
 21
149.0068571429
 31
0.0
  0
LINE
  5
73
  8
0
  6
HIDDEN
 62
     7
 10
49.591794335
 20
134.8068571429
 30
0.0
 11
49.591794335
 21
149.0068571429
 31
0.0
  0
ARC
  5
74
  8
0
  6
HIDDEN
 62
     7
 10
50.591794335
 20
134.8068571429
 30
0.0
 40
1.000000000000007
 50
180.0
 51
270.0
  0
LINE
  5
75
  8
0
  6
HIDDEN
 62
     7
 10
65.391794335
 20
133.8068571429
 30
0.0
 11
50.591794335
 21
133.8068571429
 31
0.0
  0
LINE
  5
76
  8
0
  6
HIDDEN
 62
     7
 10
65.391794335
 20
135.2068571429
 30
0.0
 11
65.391794335
 21
133.8068571429
 31
0.0
  0
ARC
  5
77
  8
0
  6
HIDDEN
 62
     7
 10
66.391794335
 20
135.2068571429
 30
0.0
 40
1.0
 50
90.0
 51
180.0
  0
LINE
  5
78
  8
0
  6
HIDDEN
 62
     7
 10
126.191794335
 20
136.2068571429
 30
0.0
 11
66.391794335
 21
136.2068571429
 31
0.0
  0
ARC
  5
79
  8
0
  6
HIDDEN
 62
     7
 10
126.191794335
 20
135.2068571429
 30
0.0
 40
1.0
 50
0.0
 51
90.0
  0
LINE
  5
7A
  8
0
  6
HIDDEN
 62
     7
 10
127.191794335
 20
133.8068571429
 30
0.0
 11
127.191794335
 21
135.2068571429
 31
0.0
  0
LINE
  5
7B
  8
0
  6
HIDDEN
 62
     7
 10
141.991794335
 20
133.8068571429
 30
0.0
 11
127.191794335
 21
133.8068571429
 31
0.0
  0
ARC
  5
7C
  8
0
  6
HIDDEN
 62
     7
 10
141.991794335
 20
134.8068571429
 30
0.0
 40
1.0
 50
270.0
 51
0.0
  0
LINE
  5
7D
  8
0
  6
HIDDEN
 62
     7
 10
142.991794335
 20
149.0068571429
 30
0.0
 11
142.991794335
 21
134.8068571429
 31
0.0
  0
LINE
  5
7E
  8
0
  6
HIDDEN
 62
     7
 10
141.591794335
 20
149.0068571429
 30
0.0
 11
142.991794335
 21
149.0068571429
 31
0.0
  0
ARC
  5
7F
  8
0
  6
HIDDEN
 62
     7
 10
141.591794335
 20
150.0068571429
 30
0.0
 40
1.0
 50
180.0
 51
270.0
  0
LINE
  5
80
  8
0
  6
HIDDEN
 62
     7
 10
140.591794335
 20
222.0068571429
 30
0.0
 11
140.591794335
 21
150.0068571429
 31
0.0
  0
ARC
  5
81
  8
0
  6
HIDDEN
 62
     7
 10
141.591794335
 20
222.0068571429
 30
0.0
 40
1.0
 50
90.0
 51
180.0
  0
LINE
  5
82
  8
0
  6
HIDDEN
 62
     7
 10
142.991794335
 20
223.0068571429
 30
0.0
 11
141.591794335
 21
223.0068571429
 31
0.0
  0
LINE
  5
83
  8
0
  6
HIDDEN
 62
     7
 10
142.991794335
 20
237.2068571429
 30
0.0
 11
142.991794335
 21
223.0068571429
 31
0.0
  0
ARC
  5
84
  8
0
  6
HIDDEN
 62
     7
 10
141.991794335
 20
237.2068571429
 30
0.0
 40
1.0
 50
0.0
 51
90.0
  0
LINE
  5
85
  8
0
  6
HIDDEN
 62
     7
 10
127.191794335
 20
238.2068571429
 30
0.0
 11
141.991794335
 21
238.2068571429
 31
0.0
  0
ARC
  5
86
  8
0
  6
HIDDEN
 62
     7
 10
126.191794335
 20
236.8068571429
 30
0.0
 40
1.0
 50
270.0
 51
0.0
  0
ARC
  5
87
  8
0
  6
HIDDEN
 62
     7
 10
66.391794335
 20
236.8068571429
 30
0.0
 40
1.000000000000014
 50
180.0
 51
270.0
  0
LINE
  5
88
  8
0
  6
HIDDEN
 62
     7
 10
65.391794335
 20
238.2068571429
 30
0.0
 11
65.391794335
 21
236.8068571429
 31
0.0
  0
CIRCLE
  5
89
  8
0
  6
HIDDEN
 62
     7
 10
120.091794335
 20
237.6068571429
 30
0.0
 40
0.700000000000017
  0
CIRCLE
  5
8A
  8
0
  6
HIDDEN
 62
     7
 10
142.291794335
 20
216.0068571429
 30
0.0
 40
0.700000000000017
  0
CIRCLE
  5
8B
  8
0
  6
HIDDEN
 62
     7
 10
72.491794335
 20
237.6068571429
 30
0.0
 40
0.6999999999999886
  0
CIRCLE
  5
8C
  8
0
  6
HIDDEN
 62
     7
 10
50.291794335
 20
216.0068571429
 30
0.0
 40
0.70000000000001
  0
CIRCLE
  5
8D
  8
0
  6
HIDDEN
 62
     7
 10
50.291794335
 20
156.0068571429
 30
0.0
 40
0.70000000000001
  0
CIRCLE
  5
8E
  8
0
  6
HIDDEN
 62
     7
 10
72.491794335
 20
134.4068571429
 30
0.0
 40
0.6999999999999886
  0
CIRCLE
  5
8F
  8
0
  6
HIDDEN
 62
     7
 10
142.291794335
 20
156.0068571429
 30
0.0
 40
0.7000000000000455
  0
CIRCLE
  5
90
  8
0
  6
HIDDEN
 62
     7
 10
120.091794335
 20
134.4068571429
 30
0.0
 40
0.7000000000000028
  0
CIRCLE
  5
91
  8
0
  6
HIDDEN
 62
     7
 10
96.291794335
 20
237.6068571429
 30
0.0
 40
0.7000000000000028
  0
CIRCLE
  5
92
  8
0
  6
HIDDEN
 62
     7
 10
142.291794335
 20
186.0068571429
 30
0.0
 40
0.700000000000017
  0
CIRCLE
  5
93
  8
0
  6
HIDDEN
 62
     7
 10
50.291794335
 20
186.0068571429
 30
0.0
 40
0.70000000000001
  0
CIRCLE
  5
94
  8
0
  6
HIDDEN
 62
     7
 10
96.291794335
 20
134.4068571429
 30
0.0
 40
0.7000000000000028
  0
LINE
  5
95
  8
0
  6
HIDDEN
 62
     7
 10
66.391794335
 20
235.8068571429
 30
0.0
 11
126.191794335
 21
235.8068571429
 31
0.0
  0
LINE
  5
96
  8
0
  6
HIDDEN
 62
     7
 10
127.191794335
 20
236.8068571429
 30
0.0
 11
127.191794335
 21
238.2068571429
 31
0.0
  0
LINE
  5
97
  8
0
  6
HIDDEN
 62
     7
 10
47.1812825583
 20
240.6173689195
 30
0.0
 11
47.1812825583
 21
131.3963453662
 31
0.0
  0
LINE
  5
98
  8
0
  6
HIDDEN
 62
     7
 10
145.4023061116
 20
240.6173689195
 30
0.0
 11
47.1812825583
 21
240.6173689195
 31
0.0
  0
LINE
  5
99
  8
0
  6
HIDDEN
 62
     7
 10
145.4023061116
 20
131.3963453662
 30
0.0
 11
145.4023061116
 21
240.6173689195
 31
0.0
  0
LINE
  5
9A
  8
0
  6
HIDDEN
 62
     7
 10
47.1812825583
 20
131.3963453662
 30
0.0
 11
145.4023061116
 21
131.3963453662
 31
0.0
  0
LINE
  5
9B
  8
0
  6
CONTINUOUS
 62
     7
 10
227.3935086207
 20
131.7963453662
 30
0.0
 11
227.3935086207
 21
240.2173689195
 31
0.0
  0
ARC
  5
9C
  8
0
  6
CONTINUOUS
 62
     7
 10
228.1935086207
 20
131.7963453662
 30
0.0
 40
0.8000000000000114
 50
180.0
 51
300.0
  0
ARC
  5
9D
  8
0
  6
CONTINUOUS
 62
     7
 10
228.1935086207
 20
240.2173689195
 30
0.0
 40
0.8000000000000114
 50
60.0
 51
180.0
  0
LINE
  5
9E
  8
0
  6
CONTINUOUS
 62
     7
 10
228.5935086207
 20
131.1035250432
 30
0.0
 11
235.9935086207
 21
135.3759170352
 31
0.0
  0
LINE
  5
9F
  8
0
  6
CONTINUOUS
 62
     7
 10
228.5935086207
 20
240.9101892425
 30
0.0
 11
235.9935086207
 21
236.6377972505
 31
0.0
  0
LINE
  5
A0
  8
0
  6
CONTINUOUS
 62
     7
 10
236.3935086207
 20
235.9449769275
 30
0.0
 11
236.3935086207
 21
136.0687373582
 31
0.0
  0
ARC
  5
A1
  8
0
  6
CONTINUOUS
 62
     7
 10
235.5935086207
 20
235.9449769275
 30
0.0
 40
0.7999999999999545
 50
360.0
 51
60.0
  0
ARC
  5
A2
  8
0
  6
CONTINUOUS
 62
     7
 10
235.5935086207
 20
136.0687373582
 30
0.0
 40
0.7999999999999545
 50
300.0
 51
0.0
  0
ARC
  5
A3
  8
0
  6
HIDDEN
 62
     7
 10
228.1935086207
 20
240.2173689195
 30
0.0
 40
0.3999999999999773
 50
60.0
 51
180.0
  0
LINE
  5
A4
  8
0
  6
HIDDEN
 62
     7
 10
227.7935086207
 20
131.7963453662
 30
0.0
 11
227.7935086207
 21
240.2173689195
 31
0.0
  0
ARC
  5
A5
  8
0
  6
HIDDEN
 62
     7
 10
228.1935086207
 20
131.7963453662
 30
0.0
 40
0.4000000000000173
 50
180.0
 51
300.0
  0
LINE
  5
A6
  8
0
  6
HIDDEN
 62
     7
 10
228.3935086207
 20
240.563779081
 30
0.0
 11
235.7935086207
 21
236.291387089
 31
0.0
  0
LINE
  5
A7
  8
0
  6
HIDDEN
 62
     7
 10
228.3935086207
 20
131.4499352047
 30
0.0
 11
235.7935086207
 21
135.7223271967
 31
0.0
  0
LINE
  5
A8
  8
0
  6
HIDDEN
 62
     7
 10
227.7935086207
 20
149.0068571429
 30
0.0
 11
227.3935086207
 21
149.0068571429
 31
0.0
  0
LINE
  5
A9
  8
0
  6
HIDDEN
 62
     7
 10
227.7935086207
 20
238.2068571429
 30
0.0
 11
227.3935086207
 21
238.2068571429
 31
0.0
  0
LINE
  5
AA
  8
0
  6
HIDDEN
 62
     7
 10
227.7935086207
 20
223.0068571429
 30
0.0
 11
227.3935086207
 21
223.0068571429
 31
0.0
  0
LINE
  5
AB
  8
0
  6
HIDDEN
 62
     7
 10
227.3935086207
 20
133.8068571429
 30
0.0
 11
227.7935086207
 21
133.8068571429
 31
0.0
  0
LINE
  5
AC
  8
0
  6
HIDDEN
 62
     7
 10
235.9935086207
 20
235.9449769275
 30
0.0
 11
235.9935086207
 21
136.0687373582
 31
0.0
  0
ARC
  5
AD
  8
0
  6
HIDDEN
 62
     7
 10
235.5935086207
 20
235.9449769275
 30
0.0
 40
0.3999999999997417
 50
360.0
 51
60.0
  0
ARC
  5
AE
  8
0
  6
HIDDEN
 62
     7
 10
235.5935086207
 20
136.0687373582
 30
0.0
 40
0.3999999999997417
 50
300.0
 51
0.0
  0
LINE
  5
AF
  8
0
  6
HIDDEN
 62
     7
 10
235.9935086207
 20
143.6068571429
 30
0.0
 11
236.3935086207
 21
143.6068571429
 31
0.0
  0
LINE
  5
B0
  8
0
  6
HIDDEN
 62
     7
 10
236.3935086207
 20
228.4068571429
 30
0.0
 11
235.9935086207
 21
228.4068571429
 31
0.0
  0
LINE
  5
B1
  8
0
  6
HIDDEN
 62
     7
 10
227.3935086207
 20
136.2068571429
 30
0.0
 11
227.7935086207
 21
136.2068571429
 31
0.0
  0
LINE
  5
B2
  8
0
  6
HIDDEN
 62
     7
 10
227.7935086207
 20
235.8068571429
 30
0.0
 11
227.3935086207
 21
235.8068571429
 31
0.0
  0
LINE
  5
B3
  8
0
  6
HIDDEN
 62
     7
 10
227.3935086207
 20
155.3068571429
 30
0.0
 11
227.7935086207
 21
155.3068571429
 31
0.0
  0
LINE
  5
B4
  8
0
  6
HIDDEN
 62
     7
 10
227.7935086207
 20
156.7068571429
 30
0.0
 11
227.3935086207
 21
156.7068571429
 31
0.0
  0
LINE
  5
B5
  8
0
  6
HIDDEN
 62
     7
 10
227.3935086207
 20
185.3068571429
 30
0.0
 11
227.7935086207
 21
185.3068571429
 31
0.0
  0
LINE
  5
B6
  8
0
  6
HIDDEN
 62
     7
 10
227.7935086207
 20
186.7068571429
 30
0.0
 11
227.3935086207
 21
186.7068571429
 31
0.0
  0
LINE
  5
B7
  8
0
  6
HIDDEN
 62
     7
 10
227.3935086207
 20
215.3068571429
 30
0.0
 11
227.7935086207
 21
215.3068571429
 31
0.0
  0
LINE
  5
B8
  8
0
  6
HIDDEN
 62
     7
 10
227.7935086207
 20
216.7068571429
 30
0.0
 11
227.3935086207
 21
216.7068571429
 31
0.0
  0
LINE
  5
B9
  8
0
  6
HIDDEN
 62
     7
 10
236.3935086207
 20
206.3068571429
 30
0.0
 11
235.9935086207
 21
206.3068571429
 31
0.0
  0
LINE
  5
BA
  8
0
  6
HIDDEN
 62
     7
 10
235.9935086207
 20
204.5068571429
 30
0.0
 11
236.3935086207
 21
204.5068571429
 31
0.0
  0
LINE
  5
BB
  8
0
  6
HIDDEN
 62
     7
 10
236.3935086207
 20
177.3068571429
 30
0.0
 11
235.9935086207
 21
177.3068571429
 31
0.0
  0
LINE
  5
BC
  8
0
  6
HIDDEN
 62
     7
 10
235.9935086207
 20
175.5068571429
 30
0.0
 11
236.3935086207
 21
175.5068571429
 31
0.0
  0
LINE
  5
BD
  8
0
  6
HIDDEN
 62
     7
 10
236.3935086207
 20
148.3068571429
 30
0.0
 11
235.9935086207
 21
148.3068571429
 31
0.0
  0
LINE
  5
BE
  8
0
  6
HIDDEN
 62
     7
 10
235.9935086207
 20
146.5068571429
 30
0.0
 11
236.3935086207
 21
146.5068571429
 31
0.0
  0
LINE
  5
BF
  8
0
  6
HIDDEN
 62
     7
 10
236.3935086207
 20
231.3068571429
 30
0.0
 11
235.9935086207
 21
231.3068571429
 31
0.0
  0
LINE
  5
C0
  8
0
  6
HIDDEN
 62
     7
 10
235.9935086207
 20
229.5068571429
 30
0.0
 11
236.3935086207
 21
229.5068571429
 31
0.0
  0
LINE
  5
C1
  8
0
  6
HIDDEN
 62
     7
 10
236.3935086207
 20
142.5068571429
 30
0.0
 11
235.9935086207
 21
142.5068571429
 31
0.0
  0
LINE
  5
C2
  8
0
  6
HIDDEN
 62
     7
 10
235.9935086207
 20
140.7068571429
 30
0.0
 11
236.3935086207
 21
140.7068571429
 31
0.0
  0
LINE
  5
C3
  8
0
  6
HIDDEN
 62
     7
 10
227.3935086207
 20
133.7068571429
 30
0.0
 11
227.7935086207
 21
133.7068571429
 31
0.0
  0
LINE
  5
C4
  8
0
  6
HIDDEN
 62
     7
 10
227.7935086207
 20
135.1068571429
 30
0.0
 11
227.3935086207
 21
135.1068571429
 31
0.0
  0
LINE
  5
C5
  8
0
  6
HIDDEN
 62
     7
 10
227.3935086207
 20
236.9068571429
 30
0.0
 11
227.7935086207
 21
236.9068571429
 31
0.0
  0
LINE
  5
C6
  8
0
  6
HIDDEN
 62
     7
 10
227.7935086207
 20
238.3068571429
 30
0.0
 11
227.3935086207
 21
238.3068571429
 31
0.0
  0
LINE
  5
C7
  8
0
  6
CONTINUOUS
 62
     7
 10
47.5812825583
 20
62.8392857143
 30
0.0
 11
145.0023061116
 21
62.8392857143
 31
0.0
  0
ARC
  5
C8
  8
0
  6
CONTINUOUS
 62
     7
 10
47.5812825583
 20
62.0392857143
 30
0.0
 40
0.8000000000000119
 50
90.0
 51
210.0
  0
ARC
  5
C9
  8
0
  6
CONTINUOUS
 62
     7
 10
145.0023061116
 20
62.0392857143
 30
0.0
 40
0.8000000000000347
 50
330.0
 51
90.0
  0
LINE
  5
CA
  8
0
  6
CONTINUOUS
 62
     7
 10
145.6951264347
 20
61.6392857143
 30
0.0
 11
141.4227344427
 21
54.2392857143
 31
0.0
  0
LINE
  5
CB
  8
0
  6
CONTINUOUS
 62
     7
 10
46.8884622353
 20
61.6392857143
 30
0.0
 11
51.1608542273
 21
54.2392857143
 31
0.0
  0
LINE
  5
CC
  8
0
  6
CONTINUOUS
 62
     7
 10
140.7299141196
 20
53.8392857143
 30
0.0
 11
51.8536745503
 21
53.8392857143
 31
0.0
  0
ARC
  5
CD
  8
0
  6
CONTINUOUS
 62
     7
 10
140.7299141196
 20
54.6392857143
 30
0.0
 40
0.7999999999999048
 50
270.0
 51
330.0
  0
ARC
  5
CE
  8
0
  6
CONTINUOUS
 62
     7
 10
51.8536745503
 20
54.6392857143
 30
0.0
 40
0.8000000000000327
 50
210.0
 51
270.0
  0
LINE
  5
CF
  8
0
  6
HIDDEN
 62
     7
 10
47.5812825583
 20
62.4392857143
 30
0.0
 11
145.0023061116
 21
62.4392857143
 31
0.0
  0
ARC
  5
D0
  8
0
  6
HIDDEN
 62
     7
 10
47.5812825583
 20
62.0392857143
 30
0.0
 40
0.3999999999999986
 50
90.0
 51
210.0
  0
ARC
  5
D1
  8
0
  6
HIDDEN
 62
     7
 10
145.0023061116
 20
62.0392857143
 30
0.0
 40
0.3999999999999986
 50
330.0
 51
90.0
  0
LINE
  5
D2
  8
0
  6
HIDDEN
 62
     7
 10
145.3487162731
 20
61.8392857143
 30
0.0
 11
141.0763242811
 21
54.4392857143
 31
0.0
  0
LINE
  5
D3
  8
0
  6
HIDDEN
 62
     7
 10
47.2348723968
 20
61.8392857143
 30
0.0
 11
51.5072643888
 21
54.4392857143
 31
0.0
  0
LINE
  5
D4
  8
0
  6
HIDDEN
 62
     7
 10
65.391794335
 20
62.4392857143
 30
0.0
 11
65.391794335
 21
62.8392857143
 31
0.0
  0
LINE
  5
D5
  8
0
  6
HIDDEN
 62
     7
 10
127.191794335
 20
62.4392857143
 30
0.0
 11
127.191794335
 21
62.8392857143
 31
0.0
  0
LINE
  5
D6
  8
0
  6
HIDDEN
 62
     7
 10
142.991794335
 20
62.4392857143
 30
0.0
 11
142.991794335
 21
62.8392857143
 31
0.0
  0
LINE
  5
D7
  8
0
  6
HIDDEN
 62
     7
 10
49.591794335
 20
62.8392857143
 30
0.0
 11
49.591794335
 21
62.4392857143
 31
0.0
  0
ARC
  5
D8
  8
0
  6
HIDDEN
 62
     7
 10
51.8536745503
 20
54.6392857143
 30
0.0
 40
0.4000000000000483
 50
210.0
 51
270.0
  0
LINE
  5
D9
  8
0
  6
HIDDEN
 62
     7
 10
140.7299141196
 20
54.2392857143
 30
0.0
 11
51.8536745503
 21
54.2392857143
 31
0.0
  0
ARC
  5
DA
  8
0
  6
HIDDEN
 62
     7
 10
140.7299141196
 20
54.6392857143
 30
0.0
 40
0.400000000000162
 50
270.0
 51
330.0
  0
LINE
  5
DB
  8
0
  6
HIDDEN
 62
     7
 10
59.491794335
 20
54.2392857143
 30
0.0
 11
59.491794335
 21
53.8392857143
 31
0.0
  0
LINE
  5
DC
  8
0
  6
HIDDEN
 62
     7
 10
133.091794335
 20
53.8392857143
 30
0.0
 11
133.091794335
 21
54.2392857143
 31
0.0
  0
LINE
  5
DD
  8
0
  6
HIDDEN
 62
     7
 10
51.991794335
 20
62.8392857143
 30
0.0
 11
51.991794335
 21
62.4392857143
 31
0.0
  0
LINE
  5
DE
  8
0
  6
HIDDEN
 62
     7
 10
140.591794335
 20
62.4392857143
 30
0.0
 11
140.591794335
 21
62.8392857143
 31
0.0
  0
LINE
  5
DF
  8
0
  6
HIDDEN
 62
     7
 10
119.391794335
 20
62.8392857143
 30
0.0
 11
119.391794335
 21
62.4392857143
 31
0.0
  0
LINE
  5
E0
  8
0
  6
HIDDEN
 62
     7
 10
120.791794335
 20
62.4392857143
 30
0.0
 11
120.791794335
 21
62.8392857143
 31
0.0
  0
LINE
  5
E1
  8
0
  6
HIDDEN
 62
     7
 10
95.591794335
 20
62.8392857143
 30
0.0
 11
95.591794335
 21
62.4392857143
 31
0.0
  0
LINE
  5
E2
  8
0
  6
HIDDEN
 62
     7
 10
96.991794335
 20
62.4392857143
 30
0.0
 11
96.991794335
 21
62.8392857143
 31
0.0
  0
LINE
  5
E3
  8
0
  6
HIDDEN
 62
     7
 10
71.791794335
 20
62.8392857143
 30
0.0
 11
71.791794335
 21
62.4392857143
 31
0.0
  0
LINE
  5
E4
  8
0
  6
HIDDEN
 62
     7
 10
73.191794335
 20
62.4392857143
 30
0.0
 11
73.191794335
 21
62.8392857143
 31
0.0
  0
LINE
  5
E5
  8
0
  6
HIDDEN
 62
     7
 10
120.991794335
 20
53.8392857143
 30
0.0
 11
120.991794335
 21
54.2392857143
 31
0.0
  0
LINE
  5
E6
  8
0
  6
HIDDEN
 62
     7
 10
119.191794335
 20
54.2392857143
 30
0.0
 11
119.191794335
 21
53.8392857143
 31
0.0
  0
LINE
  5
E7
  8
0
  6
HIDDEN
 62
     7
 10
73.391794335
 20
53.8392857143
 30
0.0
 11
73.391794335
 21
54.2392857143
 31
0.0
  0
LINE
  5
E8
  8
0
  6
HIDDEN
 62
     7
 10
71.591794335
 20
54.2392857143
 30
0.0
 11
71.591794335
 21
53.8392857143
 31
0.0
  0
LINE
  5
E9
  8
0
  6
HIDDEN
 62
     7
 10
141.591794335
 20
62.8392857143
 30
0.0
 11
141.591794335
 21
62.4392857143
 31
0.0
  0
LINE
  5
EA
  8
0
  6
HIDDEN
 62
     7
 10
50.991794335
 20
62.4392857143
 30
0.0
 11
50.991794335
 21
62.8392857143
 31
0.0
  0
LINE
  5
EB
  8
0
  6
HIDDEN
 62
     7
 10
136.391794335
 20
53.8392857143
 30
0.0
 11
136.391794335
 21
54.2392857143
 31
0.0
  0
LINE
  5
EC
  8
0
  6
HIDDEN
 62
     7
 10
134.591794335
 20
54.2392857143
 30
0.0
 11
134.591794335
 21
53.8392857143
 31
0.0
  0
LINE
  5
ED
  8
0
  6
HIDDEN
 62
     7
 10
57.991794335
 20
53.8392857143
 30
0.0
 11
57.991794335
 21
54.2392857143
 31
0.0
  0
LINE
  5
EE
  8
0
  6
HIDDEN
 62
     7
 10
56.191794335
 20
54.2392857143
 30
0.0
 11
56.191794335
 21
53.8392857143
 31
0.0
  0
ENDSEC
  0
EOF
