  0
SECTION
  2
HEADER
  9
$ACADVER
  1
AC1009
  9
$DWGCODEPAGE
  3
ansi_1252
  9
$INSBASE
 10
0.0
 20
0.0
 30
0.0
  9
$EXTMIN
 10
0.0
 20
0.0
 30
0.0
  9
$EXTMAX
 10
420.0
 20
297.0
 30
0.0
  9
$LIMMIN
 10
0.0
 20
0.0
  9
$LIMMAX
 10
420.0
 20
297.0
  9
$ORTHOMODE
 70
     0
  9
$REGENMODE
 70
     1
  9
$FILLMODE
 70
     1
  9
$QTEXTMODE
 70
     0
  9
$MIRRTEXT
 70
     1
  9
$DRAGMODE
 70
     2
  9
$LTSCALE
 40
1.0
  9
$OSMODE
 70
    37
  9
$ATTMODE
 70
     1
  9
$TEXTSIZE
 40
3.5
  9
$TRACEWID
 40
1.0
  9
$TEXTSTYLE
  7
STANDARD
  9
$CLAYER
  8
0
  9
$CELTYPE
  6
BYLAYER
  9
$CECOLOR
 62
   256
  9
$DIMSCALE
 40
1.0
  9
$DIMASZ
 40
4.0
  9
$DIMEXO
 40
0.0
  9
$DIMDLI
 40
3.75
  9
$DIMRND
 40
0.0
  9
$DIMDLE
 40
0.0
  9
$DIMEXE
 40
2.0
  9
$DIMTP
 40
0.0
  9
$DIMTM
 40
0.0
  9
$DIMTXT
 40
3.5
  9
$DIMCEN
 40
2.5
  9
$DIMTSZ
 40
0.0
  9
$DIMTOL
 70
     0
  9
$DIMLIM
 70
     0
  9
$DIMTIH
 70
     1
  9
$DIMTOH
 70
     1
  9
$DIMSE1
 70
     0
  9
$DIMSE2
 70
     0
  9
$DIMTAD
 70
     1
  9
$DIMZIN
 70
     0
  9
$DIMBLK
  1

  9
$DIMASO
 70
     1
  9
$DIMSHO
 70
     1
  9
$DIMPOST
  1

  9
$DIMAPOST
  1

  9
$DIMALT
 70
     0
  9
$DIMALTD
 70
     3
  9
$DIMALTF
 40
0.0393700787
  9
$DIMLFAC
 40
10.0
  9
$DIMTOFL
 70
     1
  9
$DIMTVP
 40
0.0
  9
$DIMTIX
 70
     0
  9
$DIMSOXD
 70
     0
  9
$DIMSAH
 70
     0
  9
$DIMBLK1
  1

  9
$DIMBLK2
  1

  9
$DIMSTYLE
  2
ISO-25
  9
$DIMCLRD
 70
     0
  9
$DIMCLRE
 70
     0
  9
$DIMCLRT
 70
     0
  9
$DIMTFAC
 40
1.0
  9
$DIMGAP
 40
1.524
  9
$LUNITS
 70
     2
  9
$LUPREC
 70
     2
  9
$SKETCHINC
 40
1.0
  9
$FILLETRAD
 40
10.0
  9
$AUNITS
 70
     0
  9
$AUPREC
 70
     2
  9
$MENU
  1
.
  9
$ELEVATION
 40
0.0
  9
$PELEVATION
 40
0.0
  9
$THICKNESS
 40
0.0
  9
$LIMCHECK
 70
     0
  9
$CHAMFERA
 40
10.0
  9
$CHAMFERB
 40
10.0
  9
$SKPOLY
 70
     0
  9
$TDCREATE
 40
2457801.34538096
  9
$TDUPDATE
 40
2457801.345381088
  9
$TDINDWG
 40
0.0000000116
  9
$TDUSRTIMER
 40
0.0000000116
  9
$USRTIMER
 70
     1
  9
$ANGBASE
 50
0.0
  9
$ANGDIR
 70
     0
  9
$PDMODE
 70
     0
  9
$PDSIZE
 40
-1.0
  9
$PLINEWID
 40
0.0
  9
$COORDS
 70
     1
  9
$SPLFRAME
 70
     0
  9
$SPLINETYPE
 70
     6
  9
$SPLINESEGS
 70
     8
  9
$ATTDIA
 70
     0
  9
$ATTREQ
 70
     1
  9
$HANDLING
 70
     1
  9
$HANDSEED
  5
E9
  9
$SURFTAB1
 70
     6
  9
$SURFTAB2
 70
     6
  9
$SURFTYPE
 70
     6
  9
$SURFU
 70
     6
  9
$SURFV
 70
     6
  9
$UCSNAME
  2

  9
$UCSORG
 10
0.0
 20
0.0
 30
0.0
  9
$UCSXDIR
 10
1.0
 20
0.0
 30
0.0
  9
$UCSYDIR
 10
0.0
 20
1.0
 30
0.0
  9
$PUCSNAME
  2

  9
$PUCSORG
 10
0.0
 20
0.0
 30
0.0
  9
$PUCSXDIR
 10
1.0
 20
0.0
 30
0.0
  9
$PUCSYDIR
 10
0.0
 20
1.0
 30
0.0
  9
$USERI1
 70
     0
  9
$USERI2
 70
     0
  9
$USERI3
 70
     0
  9
$USERI4
 70
     0
  9
$USERI5
 70
     0
  9
$USERR1
 40
0.0
  9
$USERR2
 40
0.0
  9
$USERR3
 40
0.0
  9
$USERR4
 40
0.0
  9
$USERR5
 40
0.0
  9
$WORLDVIEW
 70
     1
  9
$SHADEDGE
 70
     3
  9
$SHADEDIF
 70
    70
  9
$TILEMODE
 70
     1
  9
$MAXACTVP
 70
    64
  9
$PLIMCHECK
 70
     0
  9
$PEXTMIN
 10
1.0000000000E+20
 20
1.0000000000E+20
 30
1.0000000000E+20
  9
$PEXTMAX
 10
-1.0000000000E+20
 20
-1.0000000000E+20
 30
-1.0000000000E+20
  9
$PLIMMIN
 10
0.0
 20
0.0
  9
$PLIMMAX
 10
420.0
 20
297.0
  9
$UNITMODE
 70
     0
  9
$VISRETAIN
 70
     1
  9
$PLINEGEN
 70
     0
  9
$PSLTSCALE
 70
     1
  0
ENDSEC
  0
SECTION
  2
TABLES
  0
TABLE
  2
VPORT
 70
     1
  0
VPORT
  2
*ACTIVE
 70
     0
 10
0.0
 20
0.0
 11
1.0
 21
1.0
 12
210.0
 22
148.5
 13
0.0
 23
0.0
 14
10.0
 24
10.0
 15
10.0
 25
10.0
 16
0.0
 26
0.0
 36
1.0
 17
0.0
 27
0.0
 37
0.0
 40
297.0
 41
1.4141414141
 42
50.0
 43
0.0
 44
0.0
 50
0.0
 51
0.0
 71
     0
 72
  2000
 73
     1
 74
     3
 75
     0
 76
     0
 77
     0
 78
     0
  0
ENDTAB
  0
TABLE
  2
LTYPE
 70
     6
  0
LTYPE
  2
CONTINUOUS
 70
     0
  3
Solid line
 72
    65
 73
     0
 40
0.0
  0
LTYPE
  2
HIDDEN
 70
     0
  3
Hidden __ __ __ __ __ __ __ __ __ __ __ __ __ __
 72
    65
 73
     2
 40
1.905
 49
1.27
 49
-0.635
  0
LTYPE
  2
PHANTOM
 70
     0
  3
Phantom ______  __  __  ______  __  __  ______
 72
    65
 73
     6
 40
12.7
 49
6.35
 49
-1.27
 49
1.27
 49
-1.27
 49
1.27
 49
-1.27
  0
LTYPE
  2
CENTER
 70
     0
  3
Center ____ _ ____ _ ____ _ ____ _ ____ _ ____
 72
    65
 73
     4
 40
10.16
 49
6.35
 49
-1.27
 49
1.27
 49
-1.27
  0
LTYPE
  2
CENTERX2
 70
     0
  3
Center (2x) ________  __  ________  __  _____
 72
    65
 73
     4
 40
20.32
 49
12.7
 49
-2.54
 49
2.54
 49
-2.54
  0
LTYPE
  2
DOT2
 70
     0
  3
Dot (.5x) ........................................
 72
    65
 73
     2
 40
0.635
 49
0.0
 49
-0.635
  0
ENDTAB
  0
TABLE
  2
LAYER
 70
     2
  0
LAYER
  2
0
 70
     0
 62
     7
  6
CONTINUOUS
  0
LAYER
  2
FORMAT
 70
     0
 62
     7
  6
CONTINUOUS
  0
ENDTAB
  0
TABLE
  2
STYLE
 70
     1
  0
STYLE
  2
STANDARD
 70
     0
 40
0.0
 41
1.0
 50
0.0
 71
     0
 42
3.5
  3
txt
  4

  0
ENDTAB
  0
TABLE
  2
VIEW
 70
     0
  0
ENDTAB
  0
TABLE
  2
UCS
 70
     0
  0
ENDTAB
  0
TABLE
  2
APPID
 70
     1
  0
APPID
  2
ACAD
 70
     0
  0
ENDTAB
  0
TABLE
  2
DIMSTYLE
 70
     1
  0
DIMSTYLE
  2
ISO-25
 70
     0
  3

  4

  5

  6

  7

 40
1.0
 41
2.5
 42
0.625
 43
3.75
 44
1.25
 45
0.0
 46
0.0
 47
0.0
 48
0.0
140
2.5
141
2.5
142
0.0
143
0.0393700787
144
1.0
145
0.0
146
1.0
147
0.625
 71
     0
 72
     0
 73
     0
 74
     0
 75
     0
 76
     0
 77
     1
 78
     8
170
     0
171
     3
172
     1
173
     0
174
     0
175
     0
176
     0
177
     0
178
     0
  0
ENDTAB
  0
ENDSEC
  0
SECTION
  2
BLOCKS
  0
BLOCK
  8
0
  2
$MODEL_SPACE
 70
     0
 10
0.0
 20
0.0
 30
0.0
  3
$MODEL_SPACE
  1

  0
ENDBLK
  5
21
  8
0
  0
BLOCK
 67
     1
  8
0
  2
$PAPER_SPACE
 70
     0
 10
0.0
 20
0.0
 30
0.0
  3
$PAPER_SPACE
  1

  0
ENDBLK
  5
1D
 67
     1
  8
0
  0
ENDSEC
  0
SECTION
  2
ENTITIES
  0
LINE
  5
45
  8
0
  6
CONTINUOUS
 62
     7
 10
414.85
 20
5.15
 30
0.0
 11
5.15
 21
5.15
 31
0.0
  0
LINE
  5
46
  8
0
  6
CONTINUOUS
 62
     7
 10
415.0
 20
5.0
 30
0.0
 11
415.0
 21
277.0
 31
0.0
  0
LINE
  5
47
  8
0
  6
CONTINUOUS
 62
     7
 10
415.0
 20
277.0
 30
0.0
 11
5.0
 21
277.0
 31
0.0
  0
LINE
  5
48
  8
0
  6
CONTINUOUS
 62
     7
 10
5.15
 20
276.85
 30
0.0
 11
5.15
 21
5.15
 31
0.0
  0
ARC
  5
49
  8
0
  6
CONTINUOUS
 62
     7
 10
133.578442459
 20
249.9269358993
 30
0.0
 40
0.4000000000000057
 50
0.0
 51
90.0
  0
ARC
  5
4A
  8
0
  6
CONTINUOUS
 62
     7
 10
78.378442459
 20
249.9269358993
 30
0.0
 40
0.4000000000000057
 50
90.0
 51
180.0
  0
LINE
  5
4B
  8
0
  6
CONTINUOUS
 62
     7
 10
133.578442459
 20
250.3269358993
 30
0.0
 11
78.378442459
 21
250.3269358993
 31
0.0
  0
ARC
  5
4C
  8
0
  6
CONTINUOUS
 62
     7
 10
83.478442459
 20
240.4706579127
 30
0.0
 40
0.5
 50
90.0
 51
180.0
  0
LINE
  5
4D
  8
0
  6
CONTINUOUS
 62
     7
 10
82.978442459
 20
240.4706579127
 30
0.0
 11
82.978442459
 21
197.0706579127
 31
0.0
  0
ARC
  5
4E
  8
0
  6
CONTINUOUS
 62
     7
 10
83.478442459
 20
197.0706579127
 30
0.0
 40
0.5
 50
180.0
 51
270.0
  0
LINE
  5
4F
  8
0
  6
CONTINUOUS
 62
     7
 10
83.478442459
 20
196.5706579127
 30
0.0
 11
128.478442459
 21
196.5706579127
 31
0.0
  0
ARC
  5
50
  8
0
  6
CONTINUOUS
 62
     7
 10
128.478442459
 20
197.0706579127
 30
0.0
 40
0.5
 50
270.0
 51
0.0
  0
LINE
  5
51
  8
0
  6
CONTINUOUS
 62
     7
 10
128.978442459
 20
197.0706579127
 30
0.0
 11
128.978442459
 21
240.4706579127
 31
0.0
  0
ARC
  5
52
  8
0
  6
CONTINUOUS
 62
     7
 10
128.478442459
 20
240.4706579127
 30
0.0
 40
0.5
 50
0.0
 51
90.0
  0
LINE
  5
53
  8
0
  6
CONTINUOUS
 62
     7
 10
128.478442459
 20
240.9706579127
 30
0.0
 11
83.478442459
 21
240.9706579127
 31
0.0
  0
LINE
  5
54
  8
0
  6
CONTINUOUS
 62
     7
 10
80.853442459
 20
203.1956579127
 30
0.0
 11
80.853442459
 21
201.9456579127
 31
0.0
  0
LINE
  5
55
  8
0
  6
CONTINUOUS
 62
     7
 10
80.853442459
 20
201.9456579127
 30
0.0
 11
82.103442459
 21
201.9456579127
 31
0.0
  0
LINE
  5
56
  8
0
  6
CONTINUOUS
 62
     7
 10
82.103442459
 20
201.9456579127
 30
0.0
 11
82.103442459
 21
203.1956579127
 31
0.0
  0
LINE
  5
57
  8
0
  6
CONTINUOUS
 62
     7
 10
82.103442459
 20
203.1956579127
 30
0.0
 11
80.853442459
 21
203.1956579127
 31
0.0
  0
LINE
  5
58
  8
0
  6
CONTINUOUS
 62
     7
 10
88.853442459
 20
195.1956579127
 30
0.0
 11
88.853442459
 21
193.9456579127
 31
0.0
  0
LINE
  5
59
  8
0
  6
CONTINUOUS
 62
     7
 10
88.853442459
 20
193.9456579127
 30
0.0
 11
90.103442459
 21
193.9456579127
 31
0.0
  0
LINE
  5
5A
  8
0
  6
CONTINUOUS
 62
     7
 10
90.103442459
 20
193.9456579127
 30
0.0
 11
90.103442459
 21
195.1956579127
 31
0.0
  0
LINE
  5
5B
  8
0
  6
CONTINUOUS
 62
     7
 10
90.103442459
 20
195.1956579127
 30
0.0
 11
88.853442459
 21
195.1956579127
 31
0.0
  0
LINE
  5
5C
  8
0
  6
CONTINUOUS
 62
     7
 10
123.103442459
 20
195.1956579127
 30
0.0
 11
121.853442459
 21
195.1956579127
 31
0.0
  0
LINE
  5
5D
  8
0
  6
CONTINUOUS
 62
     7
 10
121.853442459
 20
195.1956579127
 30
0.0
 11
121.853442459
 21
193.9456579127
 31
0.0
  0
LINE
  5
5E
  8
0
  6
CONTINUOUS
 62
     7
 10
121.853442459
 20
193.9456579127
 30
0.0
 11
123.103442459
 21
193.9456579127
 31
0.0
  0
LINE
  5
5F
  8
0
  6
CONTINUOUS
 62
     7
 10
123.103442459
 20
193.9456579127
 30
0.0
 11
123.103442459
 21
195.1956579127
 31
0.0
  0
LINE
  5
60
  8
0
  6
CONTINUOUS
 62
     7
 10
129.853442459
 20
203.1956579127
 30
0.0
 11
129.853442459
 21
201.9456579127
 31
0.0
  0
LINE
  5
61
  8
0
  6
CONTINUOUS
 62
     7
 10
129.853442459
 20
201.9456579127
 30
0.0
 11
131.103442459
 21
201.9456579127
 31
0.0
  0
LINE
  5
62
  8
0
  6
CONTINUOUS
 62
     7
 10
131.103442459
 20
201.9456579127
 30
0.0
 11
131.103442459
 21
203.1956579127
 31
0.0
  0
LINE
  5
63
  8
0
  6
CONTINUOUS
 62
     7
 10
131.103442459
 20
203.1956579127
 30
0.0
 11
129.853442459
 21
203.1956579127
 31
0.0
  0
LINE
  5
64
  8
0
  6
CONTINUOUS
 62
     7
 10
129.853442459
 20
234.3456579127
 30
0.0
 11
131.103442459
 21
234.3456579127
 31
0.0
  0
LINE
  5
65
  8
0
  6
CONTINUOUS
 62
     7
 10
131.103442459
 20
234.3456579127
 30
0.0
 11
131.103442459
 21
235.5956579127
 31
0.0
  0
LINE
  5
66
  8
0
  6
CONTINUOUS
 62
     7
 10
131.103442459
 20
235.5956579127
 30
0.0
 11
129.853442459
 21
235.5956579127
 31
0.0
  0
LINE
  5
67
  8
0
  6
CONTINUOUS
 62
     7
 10
129.853442459
 20
235.5956579127
 30
0.0
 11
129.853442459
 21
234.3456579127
 31
0.0
  0
LINE
  5
68
  8
0
  6
CONTINUOUS
 62
     7
 10
121.853442459
 20
242.3456579127
 30
0.0
 11
123.103442459
 21
242.3456579127
 31
0.0
  0
LINE
  5
69
  8
0
  6
CONTINUOUS
 62
     7
 10
123.103442459
 20
242.3456579127
 30
0.0
 11
123.103442459
 21
243.5956579127
 31
0.0
  0
LINE
  5
6A
  8
0
  6
CONTINUOUS
 62
     7
 10
123.103442459
 20
243.5956579127
 30
0.0
 11
121.853442459
 21
243.5956579127
 31
0.0
  0
LINE
  5
6B
  8
0
  6
CONTINUOUS
 62
     7
 10
88.853442459
 20
242.3456579127
 30
0.0
 11
90.103442459
 21
242.3456579127
 31
0.0
  0
LINE
  5
6C
  8
0
  6
CONTINUOUS
 62
     7
 10
90.103442459
 20
242.3456579127
 30
0.0
 11
90.103442459
 21
243.5956579127
 31
0.0
  0
LINE
  5
6D
  8
0
  6
CONTINUOUS
 62
     7
 10
90.103442459
 20
243.5956579127
 30
0.0
 11
88.853442459
 21
243.5956579127
 31
0.0
  0
LINE
  5
6E
  8
0
  6
CONTINUOUS
 62
     7
 10
88.853442459
 20
243.5956579127
 30
0.0
 11
88.853442459
 21
242.3456579127
 31
0.0
  0
LINE
  5
6F
  8
0
  6
CONTINUOUS
 62
     7
 10
82.103442459
 20
234.3456579127
 30
0.0
 11
82.103442459
 21
235.5956579127
 31
0.0
  0
LINE
  5
70
  8
0
  6
CONTINUOUS
 62
     7
 10
82.103442459
 20
235.5956579127
 30
0.0
 11
80.853442459
 21
235.5956579127
 31
0.0
  0
LINE
  5
71
  8
0
  6
CONTINUOUS
 62
     7
 10
80.853442459
 20
235.5956579127
 30
0.0
 11
80.853442459
 21
234.3456579127
 31
0.0
  0
LINE
  5
72
  8
0
  6
CONTINUOUS
 62
     7
 10
80.853442459
 20
234.3456579127
 30
0.0
 11
82.103442459
 21
234.3456579127
 31
0.0
  0
LINE
  5
73
  8
0
  6
CONTINUOUS
 62
     7
 10
121.853442459
 20
243.5956579127
 30
0.0
 11
121.853442459
 21
242.3456579127
 31
0.0
  0
LINE
  5
74
  8
0
  6
CONTINUOUS
 62
     7
 10
77.978442459
 20
163.5706579127
 30
0.0
 11
77.978442459
 21
247.8637271176
 31
0.0
  0
LINE
  5
75
  8
0
  6
CONTINUOUS
 62
     7
 10
133.978442459
 20
247.8637271176
 30
0.0
 11
133.978442459
 21
163.5706579127
 31
0.0
  0
ARC
  5
76
  8
0
  6
CONTINUOUS
 62
     7
 10
133.578442459
 20
163.5706579127
 30
0.0
 40
0.4000000000000057
 50
270.0
 51
0.0
  0
ARC
  5
77
  8
0
  6
CONTINUOUS
 62
     7
 10
78.378442459
 20
163.5706579127
 30
0.0
 40
0.4000000000000057
 50
180.0
 51
270.0
  0
LINE
  5
78
  8
0
  6
CONTINUOUS
 62
     7
 10
133.578442459
 20
163.1706579127
 30
0.0
 11
78.378442459
 21
163.1706579127
 31
0.0
  0
LINE
  5
79
  8
0
  6
CONTINUOUS
 62
     7
 10
133.978442459
 20
249.9269358993
 30
0.0
 11
133.978442459
 21
247.8637271176
 31
0.0
  0
LINE
  5
7A
  8
0
  6
CONTINUOUS
 62
     7
 10
77.978442459
 20
247.8637271176
 30
0.0
 11
77.978442459
 21
249.9269358993
 31
0.0
  0
LINE
  5
7B
  8
0
  6
CONTINUOUS
 62
     7
 10
81.978442459
 20
235.5956579127
 30
0.0
 11
81.978442459
 21
234.3456579127
 31
0.0
  0
LINE
  5
7C
  8
0
  6
CONTINUOUS
 62
     7
 10
81.978442459
 20
203.1956579127
 30
0.0
 11
81.978442459
 21
201.9456579127
 31
0.0
  0
LINE
  5
7D
  8
0
  6
CONTINUOUS
 62
     7
 10
129.978442459
 20
201.9456579127
 30
0.0
 11
129.978442459
 21
203.1956579127
 31
0.0
  0
LINE
  5
7E
  8
0
  6
CONTINUOUS
 62
     7
 10
129.978442459
 20
234.3456579127
 30
0.0
 11
129.978442459
 21
235.5956579127
 31
0.0
  0
ARC
  5
7F
  8
0
  6
CONTINUOUS
 62
     7
 10
131.478442459
 20
203.1706579127
 30
0.0
 40
0.5000000000000167
 50
177.1340160174
 51
221.4096221093
  0
LINE
  5
80
  8
0
  6
CONTINUOUS
 62
     7
 10
80.978442459
 20
203.1706579127
 30
0.0
 11
80.9778170679
 21
203.1956579127
 31
0.0
  0
ARC
  5
81
  8
0
  6
CONTINUOUS
 62
     7
 10
80.478442459
 20
203.1706579127
 30
0.0
 40
0.5
 50
318.5903778907
 51
0.0
  0
LINE
  5
82
  8
0
  6
HIDDEN
 62
     7
 10
133.778442459
 20
248.0171925152
 30
0.0
 11
78.178442459
 21
248.0171925152
 31
0.0
  0
LINE
  5
83
  8
0
  6
HIDDEN
 62
     7
 10
133.778442459
 20
250.1875809738
 30
0.0
 11
133.778442459
 21
248.0171925152
 31
0.0
  0
LINE
  5
84
  8
0
  6
HIDDEN
 62
     7
 10
133.778442459
 20
248.0171925152
 30
0.0
 11
133.778442459
 21
163.3706579127
 31
0.0
  0
LINE
  5
85
  8
0
  6
HIDDEN
 62
     7
 10
78.178442459
 20
250.1875809738
 30
0.0
 11
78.178442459
 21
248.0171925152
 31
0.0
  0
LINE
  5
86
  8
0
  6
HIDDEN
 62
     7
 10
78.178442459
 20
248.0171925152
 30
0.0
 11
78.178442459
 21
163.3706579127
 31
0.0
  0
LINE
  5
87
  8
0
  6
HIDDEN
 62
     7
 10
133.778442459
 20
163.3706579127
 30
0.0
 11
78.178442459
 21
163.3706579127
 31
0.0
  0
LINE
  5
88
  8
0
  6
HIDDEN
 62
     7
 10
129.978442459
 20
246.4482260484
 30
0.0
 11
81.978442459
 21
246.4482260484
 31
0.0
  0
LINE
  5
89
  8
0
  6
HIDDEN
 62
     7
 10
81.978442459
 20
246.4482260484
 30
0.0
 11
81.978442459
 21
235.5956579127
 31
0.0
  0
LINE
  5
8A
  8
0
  6
HIDDEN
 62
     7
 10
81.978442459
 20
234.3456579127
 30
0.0
 11
81.978442459
 21
203.1956579127
 31
0.0
  0
LINE
  5
8B
  8
0
  6
HIDDEN
 62
     7
 10
81.978442459
 20
201.9456579127
 30
0.0
 11
81.978442459
 21
167.1706579127
 31
0.0
  0
LINE
  5
8C
  8
0
  6
HIDDEN
 62
     7
 10
81.978442459
 20
167.1706579127
 30
0.0
 11
129.978442459
 21
167.1706579127
 31
0.0
  0
LINE
  5
8D
  8
0
  6
HIDDEN
 62
     7
 10
129.978442459
 20
167.1706579127
 30
0.0
 11
129.978442459
 21
201.9456579127
 31
0.0
  0
LINE
  5
8E
  8
0
  6
HIDDEN
 62
     7
 10
129.978442459
 20
203.1956579127
 30
0.0
 11
129.978442459
 21
234.3456579127
 31
0.0
  0
LINE
  5
8F
  8
0
  6
HIDDEN
 62
     7
 10
129.978442459
 20
235.5956579127
 30
0.0
 11
129.978442459
 21
246.4482260484
 31
0.0
  0
CIRCLE
  5
90
  8
0
  6
HIDDEN
 62
     7
 10
105.978442459
 20
247.6706579127
 30
0.0
 40
0.5
  0
CIRCLE
  5
91
  8
0
  6
HIDDEN
 62
     7
 10
131.478442459
 20
243.1706579127
 30
0.0
 40
0.5
  0
CIRCLE
  5
92
  8
0
  6
HIDDEN
 62
     7
 10
80.478442459
 20
243.1706579127
 30
0.0
 40
0.5
  0
CIRCLE
  5
93
  8
0
  6
HIDDEN
 62
     7
 10
125.978442459
 20
247.6706579127
 30
0.0
 40
0.5
  0
CIRCLE
  5
94
  8
0
  6
HIDDEN
 62
     7
 10
131.478442459
 20
223.1706579127
 30
0.0
 40
0.5
  0
CIRCLE
  5
95
  8
0
  6
HIDDEN
 62
     7
 10
80.478442459
 20
223.1706579127
 30
0.0
 40
0.5
  0
ARC
  5
96
  8
0
  6
HIDDEN
 62
     7
 10
131.478442459
 20
203.1706579127
 30
0.0
 40
0.5000000000000167
 50
0.0
 51
177.1340160174
  0
ARC
  5
97
  8
0
  6
HIDDEN
 62
     7
 10
131.478442459
 20
203.1706579127
 30
0.0
 40
0.5000000000000102
 50
221.4096221093
 51
0.0
  0
ARC
  5
98
  8
0
  6
HIDDEN
 62
     7
 10
80.478442459
 20
203.1706579127
 30
0.0
 40
0.5000000000000024
 50
2.8659839826
 51
318.5903778907
  0
CIRCLE
  5
99
  8
0
  6
HIDDEN
 62
     7
 10
131.478442459
 20
183.1706579127
 30
0.0
 40
0.5
  0
CIRCLE
  5
9A
  8
0
  6
HIDDEN
 62
     7
 10
80.478442459
 20
183.1706579127
 30
0.0
 40
0.5
  0
CIRCLE
  5
9B
  8
0
  6
HIDDEN
 62
     7
 10
85.978442459
 20
247.6706579127
 30
0.0
 40
0.5
  0
LINE
  5
9C
  8
0
  6
HIDDEN
 62
     7
 10
133.778442459
 20
250.1875809738
 30
0.0
 11
78.178442459
 21
250.1875809738
 31
0.0
  0
LINE
  5
9D
  8
0
  6
HIDDEN
 62
     7
 10
80.578442459
 20
163.1706579127
 30
0.0
 11
80.578442459
 21
163.3706579127
 31
0.0
  0
LINE
  5
9E
  8
0
  6
HIDDEN
 62
     7
 10
79.378442459
 20
163.3706579127
 30
0.0
 11
79.378442459
 21
163.1706579127
 31
0.0
  0
LINE
  5
9F
  8
0
  6
HIDDEN
 62
     7
 10
132.578442459
 20
163.1706579127
 30
0.0
 11
132.578442459
 21
163.3706579127
 31
0.0
  0
LINE
  5
A0
  8
0
  6
HIDDEN
 62
     7
 10
131.378442459
 20
163.3706579127
 30
0.0
 11
131.378442459
 21
163.1706579127
 31
0.0
  0
LINE
  5
A1
  8
0
  6
CONTINUOUS
 62
     7
 10
208.168794335
 20
163.5706579127
 30
0.0
 11
208.168794335
 21
249.9269358993
 31
0.0
  0
ARC
  5
A2
  8
0
  6
CONTINUOUS
 62
     7
 10
208.568794335
 20
163.5706579127
 30
0.0
 40
0.4000000000000057
 50
180.0
 51
270.0
  0
ARC
  5
A3
  8
0
  6
CONTINUOUS
 62
     7
 10
208.568794335
 20
249.9269358993
 30
0.0
 40
0.4000000000000096
 50
75.0
 51
180.0
  0
LINE
  5
A4
  8
0
  6
CONTINUOUS
 62
     7
 10
216.268794335
 20
163.1706579127
 30
0.0
 11
208.568794335
 21
163.1706579127
 31
0.0
  0
LINE
  5
A5
  8
0
  6
CONTINUOUS
 62
     7
 10
208.672321953
 20
250.3133062298
 30
0.0
 11
216.372321953
 21
248.2500974481
 31
0.0
  0
LINE
  5
A6
  8
0
  6
CONTINUOUS
 62
     7
 10
216.668794335
 20
247.8637271176
 30
0.0
 11
216.668794335
 21
163.5706579127
 31
0.0
  0
ARC
  5
A7
  8
0
  6
CONTINUOUS
 62
     7
 10
216.268794335
 20
247.8637271176
 30
0.0
 40
0.4000000000000057
 50
0.0
 51
75.0
  0
ARC
  5
A8
  8
0
  6
CONTINUOUS
 62
     7
 10
216.268794335
 20
163.5706579127
 30
0.0
 40
0.4000000000000341
 50
270.0
 51
0.0
  0
LINE
  5
A9
  8
0
  6
HIDDEN
 62
     7
 10
208.368794335
 20
163.3706579127
 30
0.0
 11
208.368794335
 21
250.1875809738
 31
0.0
  0
LINE
  5
AA
  8
0
  6
HIDDEN
 62
     7
 10
208.368794335
 20
250.1875809738
 30
0.0
 11
216.468794335
 21
248.0171925152
 31
0.0
  0
LINE
  5
AB
  8
0
  6
HIDDEN
 62
     7
 10
216.468794335
 20
163.3706579127
 30
0.0
 11
208.368794335
 21
163.3706579127
 31
0.0
  0
LINE
  5
AC
  8
0
  6
HIDDEN
 62
     7
 10
216.468794335
 20
248.0171925152
 30
0.0
 11
216.468794335
 21
163.3706579127
 31
0.0
  0
LINE
  5
AD
  8
0
  6
HIDDEN
 62
     7
 10
216.468794335
 20
203.1956579127
 30
0.0
 11
216.668794335
 21
203.1956579127
 31
0.0
  0
LINE
  5
AE
  8
0
  6
HIDDEN
 62
     7
 10
216.468794335
 20
201.9456579127
 30
0.0
 11
216.668794335
 21
201.9456579127
 31
0.0
  0
LINE
  5
AF
  8
0
  6
HIDDEN
 62
     7
 10
216.468794335
 20
235.5956579127
 30
0.0
 11
216.668794335
 21
235.5956579127
 31
0.0
  0
LINE
  5
B0
  8
0
  6
HIDDEN
 62
     7
 10
216.468794335
 20
234.3456579127
 30
0.0
 11
216.668794335
 21
234.3456579127
 31
0.0
  0
LINE
  5
B1
  8
0
  6
HIDDEN
 62
     7
 10
208.368794335
 20
167.1706579127
 30
0.0
 11
208.168794335
 21
167.1706579127
 31
0.0
  0
LINE
  5
B2
  8
0
  6
HIDDEN
 62
     7
 10
208.368794335
 20
246.4482260484
 30
0.0
 11
208.168794335
 21
246.4482260484
 31
0.0
  0
LINE
  5
B3
  8
0
  6
HIDDEN
 62
     7
 10
216.668794335
 20
240.9706579127
 30
0.0
 11
216.468794335
 21
240.9706579127
 31
0.0
  0
LINE
  5
B4
  8
0
  6
HIDDEN
 62
     7
 10
216.468794335
 20
196.5706579127
 30
0.0
 11
216.668794335
 21
196.5706579127
 31
0.0
  0
LINE
  5
B5
  8
0
  6
HIDDEN
 62
     7
 10
216.468794335
 20
195.1956579127
 30
0.0
 11
216.668794335
 21
195.1956579127
 31
0.0
  0
LINE
  5
B6
  8
0
  6
HIDDEN
 62
     7
 10
216.468794335
 20
193.9456579127
 30
0.0
 11
216.668794335
 21
193.9456579127
 31
0.0
  0
LINE
  5
B7
  8
0
  6
HIDDEN
 62
     7
 10
216.468794335
 20
242.3456579127
 30
0.0
 11
216.668794335
 21
242.3456579127
 31
0.0
  0
LINE
  5
B8
  8
0
  6
HIDDEN
 62
     7
 10
216.468794335
 20
243.5956579127
 30
0.0
 11
216.668794335
 21
243.5956579127
 31
0.0
  0
LINE
  5
B9
  8
0
  6
HIDDEN
 62
     7
 10
210.768794335
 20
163.1706579127
 30
0.0
 11
210.768794335
 21
163.3706579127
 31
0.0
  0
LINE
  5
BA
  8
0
  6
HIDDEN
 62
     7
 10
209.568794335
 20
163.3706579127
 30
0.0
 11
209.568794335
 21
163.1706579127
 31
0.0
  0
LINE
  5
BB
  8
0
  6
HIDDEN
 62
     7
 10
208.168794335
 20
182.6706579127
 30
0.0
 11
208.368794335
 21
182.6706579127
 31
0.0
  0
LINE
  5
BC
  8
0
  6
HIDDEN
 62
     7
 10
208.368794335
 20
183.6706579127
 30
0.0
 11
208.168794335
 21
183.6706579127
 31
0.0
  0
LINE
  5
BD
  8
0
  6
HIDDEN
 62
     7
 10
208.168794335
 20
202.6706579127
 30
0.0
 11
208.368794335
 21
202.6706579127
 31
0.0
  0
LINE
  5
BE
  8
0
  6
HIDDEN
 62
     7
 10
208.368794335
 20
203.6706579127
 30
0.0
 11
208.168794335
 21
203.6706579127
 31
0.0
  0
LINE
  5
BF
  8
0
  6
HIDDEN
 62
     7
 10
208.168794335
 20
242.6706579127
 30
0.0
 11
208.368794335
 21
242.6706579127
 31
0.0
  0
LINE
  5
C0
  8
0
  6
HIDDEN
 62
     7
 10
208.368794335
 20
243.6706579127
 30
0.0
 11
208.168794335
 21
243.6706579127
 31
0.0
  0
LINE
  5
C1
  8
0
  6
HIDDEN
 62
     7
 10
208.168794335
 20
222.6706579127
 30
0.0
 11
208.368794335
 21
222.6706579127
 31
0.0
  0
LINE
  5
C2
  8
0
  6
HIDDEN
 62
     7
 10
208.368794335
 20
223.6706579127
 30
0.0
 11
208.168794335
 21
223.6706579127
 31
0.0
  0
LINE
  5
C3
  8
0
  6
HIDDEN
 62
     7
 10
208.168794335
 20
247.1706579127
 30
0.0
 11
208.368794335
 21
247.1706579127
 31
0.0
  0
LINE
  5
C4
  8
0
  6
HIDDEN
 62
     7
 10
208.368794335
 20
248.1706579127
 30
0.0
 11
208.168794335
 21
248.1706579127
 31
0.0
  0
ARC
  5
C5
  8
0
  6
CONTINUOUS
 62
     7
 10
133.578442459
 20
92.1226428571
 30
0.0
 40
0.4000000000000057
 50
0.0
 51
90.0
  0
LINE
  5
C6
  8
0
  6
CONTINUOUS
 62
     7
 10
78.378442459
 20
92.5226428571
 30
0.0
 11
133.578442459
 21
92.5226428571
 31
0.0
  0
ARC
  5
C7
  8
0
  6
CONTINUOUS
 62
     7
 10
78.378442459
 20
92.1226428571
 30
0.0
 40
0.3999999999999915
 50
90.0
 51
180.0
  0
LINE
  5
C8
  8
0
  6
CONTINUOUS
 62
     7
 10
133.978442459
 20
92.1226428571
 30
0.0
 11
133.978442459
 21
84.4226428571
 31
0.0
  0
LINE
  5
C9
  8
0
  6
CONTINUOUS
 62
     7
 10
77.978442459
 20
84.4226428571
 30
0.0
 11
77.978442459
 21
92.1226428571
 31
0.0
  0
ARC
  5
CA
  8
0
  6
CONTINUOUS
 62
     7
 10
133.578442459
 20
84.4226428571
 30
0.0
 40
0.4000000000000057
 50
270.0
 51
0.0
  0
LINE
  5
CB
  8
0
  6
CONTINUOUS
 62
     7
 10
133.578442459
 20
84.0226428571
 30
0.0
 11
78.378442459
 21
84.0226428571
 31
0.0
  0
ARC
  5
CC
  8
0
  6
CONTINUOUS
 62
     7
 10
78.378442459
 20
84.4226428571
 30
0.0
 40
0.3999999999999915
 50
180.0
 51
270.0
  0
LINE
  5
CD
  8
0
  6
HIDDEN
 62
     7
 10
133.778442459
 20
92.3226428571
 30
0.0
 11
78.178442459
 21
92.3226428571
 31
0.0
  0
LINE
  5
CE
  8
0
  6
HIDDEN
 62
     7
 10
133.778442459
 20
92.3226428571
 30
0.0
 11
133.778442459
 21
84.2226428571
 31
0.0
  0
LINE
  5
CF
  8
0
  6
HIDDEN
 62
     7
 10
78.178442459
 20
92.3226428571
 30
0.0
 11
78.178442459
 21
84.2226428571
 31
0.0
  0
LINE
  5
D0
  8
0
  6
HIDDEN
 62
     7
 10
133.778442459
 20
84.2226428571
 30
0.0
 11
78.178442459
 21
84.2226428571
 31
0.0
  0
LINE
  5
D1
  8
0
  6
HIDDEN
 62
     7
 10
81.978442459
 20
92.3226428571
 30
0.0
 11
81.978442459
 21
92.5226428571
 31
0.0
  0
LINE
  5
D2
  8
0
  6
HIDDEN
 62
     7
 10
129.978442459
 20
92.3226428571
 30
0.0
 11
129.978442459
 21
92.5226428571
 31
0.0
  0
LINE
  5
D3
  8
0
  6
HIDDEN
 62
     7
 10
123.103442459
 20
84.2226428571
 30
0.0
 11
123.103442459
 21
84.0226428571
 31
0.0
  0
LINE
  5
D4
  8
0
  6
HIDDEN
 62
     7
 10
121.853442459
 20
84.2226428571
 30
0.0
 11
121.853442459
 21
84.0226428571
 31
0.0
  0
LINE
  5
D5
  8
0
  6
HIDDEN
 62
     7
 10
88.853442459
 20
84.2226428571
 30
0.0
 11
88.853442459
 21
84.0226428571
 31
0.0
  0
LINE
  5
D6
  8
0
  6
HIDDEN
 62
     7
 10
90.103442459
 20
84.2226428571
 30
0.0
 11
90.103442459
 21
84.0226428571
 31
0.0
  0
LINE
  5
D7
  8
0
  6
HIDDEN
 62
     7
 10
128.978442459
 20
84.0226428571
 30
0.0
 11
128.978442459
 21
84.2226428571
 31
0.0
  0
LINE
  5
D8
  8
0
  6
HIDDEN
 62
     7
 10
82.978442459
 20
84.2226428571
 30
0.0
 11
82.978442459
 21
84.0226428571
 31
0.0
  0
LINE
  5
D9
  8
0
  6
HIDDEN
 62
     7
 10
80.853442459
 20
84.2226428571
 30
0.0
 11
80.853442459
 21
84.0226428571
 31
0.0
  0
LINE
  5
DA
  8
0
  6
HIDDEN
 62
     7
 10
82.103442459
 20
84.2226428571
 30
0.0
 11
82.103442459
 21
84.0226428571
 31
0.0
  0
LINE
  5
DB
  8
0
  6
HIDDEN
 62
     7
 10
129.853442459
 20
84.2226428571
 30
0.0
 11
129.853442459
 21
84.0226428571
 31
0.0
  0
LINE
  5
DC
  8
0
  6
HIDDEN
 62
     7
 10
131.103442459
 20
84.2226428571
 30
0.0
 11
131.103442459
 21
84.0226428571
 31
0.0
  0
CIRCLE
  5
DD
  8
0
  6
HIDDEN
 62
     7
 10
79.978442459
 20
90.5226428571
 30
0.0
 40
0.5999999999999943
  0
CIRCLE
  5
DE
  8
0
  6
HIDDEN
 62
     7
 10
131.978442459
 20
90.5226428571
 30
0.0
 40
0.5999999999999943
  0
LINE
  5
DF
  8
0
  6
HIDDEN
 62
     7
 10
85.478442459
 20
92.5226428571
 30
0.0
 11
85.478442459
 21
92.3226428571
 31
0.0
  0
LINE
  5
E0
  8
0
  6
HIDDEN
 62
     7
 10
86.478442459
 20
92.3226428571
 30
0.0
 11
86.478442459
 21
92.5226428571
 31
0.0
  0
LINE
  5
E1
  8
0
  6
HIDDEN
 62
     7
 10
105.478442459
 20
92.5226428571
 30
0.0
 11
105.478442459
 21
92.3226428571
 31
0.0
  0
LINE
  5
E2
  8
0
  6
HIDDEN
 62
     7
 10
106.478442459
 20
92.3226428571
 30
0.0
 11
106.478442459
 21
92.5226428571
 31
0.0
  0
LINE
  5
E3
  8
0
  6
HIDDEN
 62
     7
 10
125.478442459
 20
92.5226428571
 30
0.0
 11
125.478442459
 21
92.3226428571
 31
0.0
  0
LINE
  5
E4
  8
0
  6
HIDDEN
 62
     7
 10
126.478442459
 20
92.3226428571
 30
0.0
 11
126.478442459
 21
92.5226428571
 31
0.0
  0
LINE
  5
E5
  8
0
  6
HIDDEN
 62
     7
 10
79.978442459
 20
92.5226428571
 30
0.0
 11
79.978442459
 21
92.3226428571
 31
0.0
  0
LINE
  5
E6
  8
0
  6
HIDDEN
 62
     7
 10
80.978442459
 20
92.3226428571
 30
0.0
 11
80.978442459
 21
92.5226428571
 31
0.0
  0
LINE
  5
E7
  8
0
  6
HIDDEN
 62
     7
 10
130.978442459
 20
92.5226428571
 30
0.0
 11
130.978442459
 21
92.3226428571
 31
0.0
  0
LINE
  5
E8
  8
0
  6
HIDDEN
 62
     7
 10
131.978442459
 20
92.3226428571
 30
0.0
 11
131.978442459
 21
92.5226428571
 31
0.0
  0
ENDSEC
  0
EOF
