  0
SECTION
  2
HEADER
  9
$ACADVER
  1
AC1009
  9
$DWGCODEPAGE
  3
ansi_1252
  9
$INSBASE
 10
0.0
 20
0.0
 30
0.0
  9
$EXTMIN
 10
0.0
 20
0.0
 30
0.0
  9
$EXTMAX
 10
420.0
 20
297.0
 30
0.0
  9
$LIMMIN
 10
0.0
 20
0.0
  9
$LIMMAX
 10
420.0
 20
297.0
  9
$ORTHOMODE
 70
     0
  9
$REGENMODE
 70
     1
  9
$FILLMODE
 70
     1
  9
$QTEXTMODE
 70
     0
  9
$MIRRTEXT
 70
     1
  9
$DRAGMODE
 70
     2
  9
$LTSCALE
 40
1.0
  9
$OSMODE
 70
    37
  9
$ATTMODE
 70
     1
  9
$TEXTSIZE
 40
3.5
  9
$TRACEWID
 40
1.0
  9
$TEXTSTYLE
  7
STANDARD
  9
$CLAYER
  8
0
  9
$CELTYPE
  6
BYLAYER
  9
$CECOLOR
 62
   256
  9
$DIMSCALE
 40
1.0
  9
$DIMASZ
 40
4.0
  9
$DIMEXO
 40
0.0
  9
$DIMDLI
 40
3.75
  9
$DIMRND
 40
0.0
  9
$DIMDLE
 40
0.0
  9
$DIMEXE
 40
2.0
  9
$DIMTP
 40
0.0
  9
$DIMTM
 40
0.0
  9
$DIMTXT
 40
3.5
  9
$DIMCEN
 40
2.5
  9
$DIMTSZ
 40
0.0
  9
$DIMTOL
 70
     0
  9
$DIMLIM
 70
     0
  9
$DIMTIH
 70
     1
  9
$DIMTOH
 70
     1
  9
$DIMSE1
 70
     0
  9
$DIMSE2
 70
     0
  9
$DIMTAD
 70
     1
  9
$DIMZIN
 70
     0
  9
$DIMBLK
  1

  9
$DIMASO
 70
     1
  9
$DIMSHO
 70
     1
  9
$DIMPOST
  1

  9
$DIMAPOST
  1

  9
$DIMALT
 70
     0
  9
$DIMALTD
 70
     3
  9
$DIMALTF
 40
0.0393700787
  9
$DIMLFAC
 40
5.0
  9
$DIMTOFL
 70
     1
  9
$DIMTVP
 40
0.0
  9
$DIMTIX
 70
     0
  9
$DIMSOXD
 70
     0
  9
$DIMSAH
 70
     0
  9
$DIMBLK1
  1

  9
$DIMBLK2
  1

  9
$DIMSTYLE
  2
ISO-25
  9
$DIMCLRD
 70
     0
  9
$DIMCLRE
 70
     0
  9
$DIMCLRT
 70
     0
  9
$DIMTFAC
 40
1.0
  9
$DIMGAP
 40
1.524
  9
$LUNITS
 70
     2
  9
$LUPREC
 70
     2
  9
$SKETCHINC
 40
1.0
  9
$FILLETRAD
 40
10.0
  9
$AUNITS
 70
     0
  9
$AUPREC
 70
     2
  9
$MENU
  1
.
  9
$ELEVATION
 40
0.0
  9
$PELEVATION
 40
0.0
  9
$THICKNESS
 40
0.0
  9
$LIMCHECK
 70
     0
  9
$CHAMFERA
 40
10.0
  9
$CHAMFERB
 40
10.0
  9
$SKPOLY
 70
     0
  9
$TDCREATE
 40
2457802.649375764
  9
$TDUPDATE
 40
2457802.649376042
  9
$TDINDWG
 40
0.0000000116
  9
$TDUSRTIMER
 40
0.0000000116
  9
$USRTIMER
 70
     1
  9
$ANGBASE
 50
0.0
  9
$ANGDIR
 70
     0
  9
$PDMODE
 70
     0
  9
$PDSIZE
 40
-1.0
  9
$PLINEWID
 40
0.0
  9
$COORDS
 70
     1
  9
$SPLFRAME
 70
     0
  9
$SPLINETYPE
 70
     6
  9
$SPLINESEGS
 70
     8
  9
$ATTDIA
 70
     0
  9
$ATTREQ
 70
     1
  9
$HANDLING
 70
     1
  9
$HANDSEED
  5
7AA
  9
$SURFTAB1
 70
     6
  9
$SURFTAB2
 70
     6
  9
$SURFTYPE
 70
     6
  9
$SURFU
 70
     6
  9
$SURFV
 70
     6
  9
$UCSNAME
  2

  9
$UCSORG
 10
0.0
 20
0.0
 30
0.0
  9
$UCSXDIR
 10
1.0
 20
0.0
 30
0.0
  9
$UCSYDIR
 10
0.0
 20
1.0
 30
0.0
  9
$PUCSNAME
  2

  9
$PUCSORG
 10
0.0
 20
0.0
 30
0.0
  9
$PUCSXDIR
 10
1.0
 20
0.0
 30
0.0
  9
$PUCSYDIR
 10
0.0
 20
1.0
 30
0.0
  9
$USERI1
 70
     0
  9
$USERI2
 70
     0
  9
$USERI3
 70
     0
  9
$USERI4
 70
     0
  9
$USERI5
 70
     0
  9
$USERR1
 40
0.0
  9
$USERR2
 40
0.0
  9
$USERR3
 40
0.0
  9
$USERR4
 40
0.0
  9
$USERR5
 40
0.0
  9
$WORLDVIEW
 70
     1
  9
$SHADEDGE
 70
     3
  9
$SHADEDIF
 70
    70
  9
$TILEMODE
 70
     1
  9
$MAXACTVP
 70
    64
  9
$PLIMCHECK
 70
     0
  9
$PEXTMIN
 10
1.0000000000E+20
 20
1.0000000000E+20
 30
1.0000000000E+20
  9
$PEXTMAX
 10
-1.0000000000E+20
 20
-1.0000000000E+20
 30
-1.0000000000E+20
  9
$PLIMMIN
 10
0.0
 20
0.0
  9
$PLIMMAX
 10
420.0
 20
297.0
  9
$UNITMODE
 70
     0
  9
$VISRETAIN
 70
     1
  9
$PLINEGEN
 70
     0
  9
$PSLTSCALE
 70
     1
  0
ENDSEC
  0
SECTION
  2
TABLES
  0
TABLE
  2
VPORT
 70
     1
  0
VPORT
  2
*ACTIVE
 70
     0
 10
0.0
 20
0.0
 11
1.0
 21
1.0
 12
210.0
 22
148.5
 13
0.0
 23
0.0
 14
10.0
 24
10.0
 15
10.0
 25
10.0
 16
0.0
 26
0.0
 36
1.0
 17
0.0
 27
0.0
 37
0.0
 40
297.0
 41
1.4141414141
 42
50.0
 43
0.0
 44
0.0
 50
0.0
 51
0.0
 71
     0
 72
  2000
 73
     1
 74
     3
 75
     0
 76
     0
 77
     0
 78
     0
  0
ENDTAB
  0
TABLE
  2
LTYPE
 70
     6
  0
LTYPE
  2
CONTINUOUS
 70
     0
  3
Solid line
 72
    65
 73
     0
 40
0.0
  0
LTYPE
  2
HIDDEN
 70
     0
  3
Hidden __ __ __ __ __ __ __ __ __ __ __ __ __ __
 72
    65
 73
     2
 40
1.905
 49
1.27
 49
-0.635
  0
LTYPE
  2
PHANTOM
 70
     0
  3
Phantom ______  __  __  ______  __  __  ______
 72
    65
 73
     6
 40
12.7
 49
6.35
 49
-1.27
 49
1.27
 49
-1.27
 49
1.27
 49
-1.27
  0
LTYPE
  2
CENTER
 70
     0
  3
Center ____ _ ____ _ ____ _ ____ _ ____ _ ____
 72
    65
 73
     4
 40
10.16
 49
6.35
 49
-1.27
 49
1.27
 49
-1.27
  0
LTYPE
  2
CENTERX2
 70
     0
  3
Center (2x) ________  __  ________  __  _____
 72
    65
 73
     4
 40
20.32
 49
12.7
 49
-2.54
 49
2.54
 49
-2.54
  0
LTYPE
  2
DOT2
 70
     0
  3
Dot (.5x) ........................................
 72
    65
 73
     2
 40
0.635
 49
0.0
 49
-0.635
  0
ENDTAB
  0
TABLE
  2
LAYER
 70
     2
  0
LAYER
  2
0
 70
     0
 62
     7
  6
CONTINUOUS
  0
LAYER
  2
FORMAT
 70
     0
 62
     7
  6
CONTINUOUS
  0
ENDTAB
  0
TABLE
  2
STYLE
 70
     1
  0
STYLE
  2
STANDARD
 70
     0
 40
0.0
 41
1.0
 50
0.0
 71
     0
 42
3.5
  3
txt
  4

  0
ENDTAB
  0
TABLE
  2
VIEW
 70
     0
  0
ENDTAB
  0
TABLE
  2
UCS
 70
     0
  0
ENDTAB
  0
TABLE
  2
APPID
 70
     1
  0
APPID
  2
ACAD
 70
     0
  0
ENDTAB
  0
TABLE
  2
DIMSTYLE
 70
     1
  0
DIMSTYLE
  2
ISO-25
 70
     0
  3

  4

  5

  6

  7

 40
1.0
 41
2.5
 42
0.625
 43
3.75
 44
1.25
 45
0.0
 46
0.0
 47
0.0
 48
0.0
140
2.5
141
2.5
142
0.0
143
0.0393700787
144
1.0
145
0.0
146
1.0
147
0.625
 71
     0
 72
     0
 73
     0
 74
     0
 75
     0
 76
     0
 77
     1
 78
     8
170
     0
171
     3
172
     1
173
     0
174
     0
175
     0
176
     0
177
     0
178
     0
  0
ENDTAB
  0
ENDSEC
  0
SECTION
  2
BLOCKS
  0
BLOCK
  8
0
  2
$MODEL_SPACE
 70
     0
 10
0.0
 20
0.0
 30
0.0
  3
$MODEL_SPACE
  1

  0
ENDBLK
  5
21
  8
0
  0
BLOCK
 67
     1
  8
0
  2
$PAPER_SPACE
 70
     0
 10
0.0
 20
0.0
 30
0.0
  3
$PAPER_SPACE
  1

  0
ENDBLK
  5
1D
 67
     1
  8
0
  0
ENDSEC
  0
SECTION
  2
ENTITIES
  0
POLYLINE
  5
45
  8
0
  6
CONTINUOUS
 62
     7
 66
     1
 10
0.0
 20
0.0
 30
0.0
  0
VERTEX
  5
38B
  8
0
  6
CONTINUOUS
 62
     7
 10
245.995769616
 20
250.1220612781
 30
0.0
  0
VERTEX
  5
38C
  8
0
  6
CONTINUOUS
 62
     7
 10
244.7209097108
 20
249.951848294
 30
0.0
  0
VERTEX
  5
38D
  8
0
  6
CONTINUOUS
 62
     7
 10
243.6280674895
 20
249.8107819812
 30
0.0
  0
VERTEX
  5
38E
  8
0
  6
CONTINUOUS
 62
     7
 10
242.7175409755
 20
249.6966510074
 30
0.0
  0
VERTEX
  5
38F
  8
0
  6
CONTINUOUS
 62
     7
 10
241.989565607
 20
249.6076195495
 30
0.0
  0
VERTEX
  5
390
  8
0
  6
CONTINUOUS
 62
     7
 10
241.3911737164
 20
249.5359032409
 30
0.0
  0
VERTEX
  5
391
  8
0
  6
CONTINUOUS
 62
     7
 10
240.9701265057
 20
249.4863121765
 30
0.0
  0
VERTEX
  5
392
  8
0
  6
CONTINUOUS
 62
     7
 10
240.5339456757
 20
249.4360833423
 30
0.0
  0
VERTEX
  5
393
  8
0
  6
CONTINUOUS
 62
     7
 10
240.0645978412
 20
249.3832795875
 30
0.0
  0
VERTEX
  5
394
  8
0
  6
CONTINUOUS
 62
     7
 10
239.5620651206
 20
249.3280976074
 30
0.0
  0
VERTEX
  5
395
  8
0
  6
CONTINUOUS
 62
     7
 10
239.0263296326
 20
249.2707281368
 30
0.0
  0
VERTEX
  5
396
  8
0
  6
CONTINUOUS
 62
     7
 10
237.6320249995
 20
249.1281121032
 30
0.0
  0
VERTEX
  5
397
  8
0
  6
CONTINUOUS
 62
     7
 10
236.0528565606
 20
248.9776163356
 30
0.0
  0
VERTEX
  5
398
  8
0
  6
CONTINUOUS
 62
     7
 10
234.733296152
 20
248.8604932086
 30
0.0
  0
VERTEX
  5
399
  8
0
  6
CONTINUOUS
 62
     7
 10
233.4065876564
 20
248.7513153808
 30
0.0
  0
VERTEX
  5
39A
  8
0
  6
CONTINUOUS
 62
     7
 10
232.1730233392
 20
248.6586480396
 30
0.0
  0
VERTEX
  5
39B
  8
0
  6
CONTINUOUS
 62
     7
 10
231.0327760538
 20
248.5813706176
 30
0.0
  0
VERTEX
  5
39C
  8
0
  6
CONTINUOUS
 62
     7
 10
229.9860007724
 20
248.5185413616
 30
0.0
  0
VERTEX
  5
39D
  8
0
  6
CONTINUOUS
 62
     7
 10
229.0328450164
 20
248.4694211738
 30
0.0
  0
VERTEX
  5
39E
  8
0
  6
CONTINUOUS
 62
     7
 10
228.1734473666
 20
248.4334736125
 30
0.0
  0
VERTEX
  5
39F
  8
0
  6
CONTINUOUS
 62
     7
 10
227.4072385987
 20
248.4102099197
 30
0.0
  0
VERTEX
  5
3A0
  8
0
  6
CONTINUOUS
 62
     7
 10
227.0466260275
 20
248.4007625835
 30
0.0
  0
VERTEX
  5
3A1
  8
0
  6
CONTINUOUS
 62
     7
 10
226.6929573974
 20
248.3900099056
 30
0.0
  0
VERTEX
  5
3A2
  8
0
  6
CONTINUOUS
 62
     7
 10
226.3462163171
 20
248.3775525348
 30
0.0
  0
VERTEX
  5
3A3
  8
0
  6
CONTINUOUS
 62
     7
 10
226.0064087471
 20
248.364004399
 30
0.0
  0
VERTEX
  5
3A4
  8
0
  6
CONTINUOUS
 62
     7
 10
225.4507444462
 20
248.3409672038
 30
0.0
  0
VERTEX
  5
3A5
  8
0
  6
CONTINUOUS
 62
     7
 10
224.8355798086
 20
248.3160822647
 30
0.0
  0
VERTEX
  5
3A6
  8
0
  6
CONTINUOUS
 62
     7
 10
224.1027049383
 20
248.2878177421
 30
0.0
  0
VERTEX
  5
3A7
  8
0
  6
CONTINUOUS
 62
     7
 10
223.2520945033
 20
248.2568650501
 30
0.0
  0
VERTEX
  5
3A8
  8
0
  6
CONTINUOUS
 62
     7
 10
222.2346730193
 20
248.2223778026
 30
0.0
  0
VERTEX
  5
3A9
  8
0
  6
CONTINUOUS
 62
     7
 10
221.0879809817
 20
248.1867580669
 30
0.0
  0
VERTEX
  5
3AA
  8
0
  6
CONTINUOUS
 62
     7
 10
219.8121770879
 20
248.1511025684
 30
0.0
  0
VERTEX
  5
3AB
  8
0
  6
CONTINUOUS
 62
     7
 10
213.7646227738
 20
248.0364470737
 30
0.0
  0
VERTEX
  5
3AC
  8
0
  6
CONTINUOUS
 62
     7
 10
207.7475710435
 20
248.0069427745
 30
0.0
  0
VERTEX
  5
3AD
  8
0
  6
CONTINUOUS
 62
     7
 10
205.3730301222
 20
248.0178861873
 30
0.0
  0
VERTEX
  5
3AE
  8
0
  6
CONTINUOUS
 62
     7
 10
203.137977015
 20
248.039916064
 30
0.0
  0
VERTEX
  5
3AF
  8
0
  6
CONTINUOUS
 62
     7
 10
201.0567448696
 20
248.0707435863
 30
0.0
  0
VERTEX
  5
3B0
  8
0
  6
CONTINUOUS
 62
     7
 10
199.1293579003
 20
248.108300473
 30
0.0
  0
VERTEX
  5
3B1
  8
0
  6
CONTINUOUS
 62
     7
 10
197.3460919818
 20
248.1509356754
 30
0.0
  0
VERTEX
  5
3B2
  8
0
  6
CONTINUOUS
 62
     7
 10
196.4366688987
 20
248.175659682
 30
0.0
  0
VERTEX
  5
3B3
  8
0
  6
CONTINUOUS
 62
     7
 10
195.4845271667
 20
248.203775193
 30
0.0
  0
VERTEX
  5
3B4
  8
0
  6
CONTINUOUS
 62
     7
 10
194.4896898826
 20
248.2356696384
 30
0.0
  0
VERTEX
  5
3B5
  8
0
  6
CONTINUOUS
 62
     7
 10
193.4521786531
 20
248.2717721717
 30
0.0
  0
VERTEX
  5
3B6
  8
0
  6
CONTINUOUS
 62
     7
 10
192.4278236588
 20
248.3103602188
 30
0.0
  0
VERTEX
  5
3B7
  8
0
  6
CONTINUOUS
 62
     7
 10
191.7595021089
 20
248.337158467
 30
0.0
  0
VERTEX
  5
3B8
  8
0
  6
CONTINUOUS
 62
     7
 10
191.2788323721
 20
248.3572392719
 30
0.0
  0
VERTEX
  5
3B9
  8
0
  6
CONTINUOUS
 62
     7
 10
190.9647933802
 20
248.3707158821
 30
0.0
  0
VERTEX
  5
3BA
  8
0
  6
CONTINUOUS
 62
     7
 10
190.4839120468
 20
248.3915238635
 30
0.0
  0
VERTEX
  5
3BB
  8
0
  6
CONTINUOUS
 62
     7
 10
189.9280003866
 20
248.4145908611
 30
0.0
  0
VERTEX
  5
3BC
  8
0
  6
CONTINUOUS
 62
     7
 10
189.2971194943
 20
248.4387188213
 30
0.0
  0
VERTEX
  5
3BD
  8
0
  6
CONTINUOUS
 62
     7
 10
188.5912723502
 20
248.4661250369
 30
0.0
  0
VERTEX
  5
3BE
  8
0
  6
CONTINUOUS
 62
     7
 10
187.8095425328
 20
248.5003440635
 30
0.0
  0
VERTEX
  5
3BF
  8
0
  6
CONTINUOUS
 62
     7
 10
186.9473911485
 20
248.5451786773
 30
0.0
  0
VERTEX
  5
3C0
  8
0
  6
CONTINUOUS
 62
     7
 10
186.0042459926
 20
248.6015289085
 30
0.0
  0
VERTEX
  5
3C1
  8
0
  6
CONTINUOUS
 62
     7
 10
184.980221804
 20
248.6699550407
 30
0.0
  0
VERTEX
  5
3C2
  8
0
  6
CONTINUOUS
 62
     7
 10
183.8754407724
 20
248.7511544483
 30
0.0
  0
VERTEX
  5
3C3
  8
0
  6
CONTINUOUS
 62
     7
 10
182.6900340279
 20
248.8459437148
 30
0.0
  0
VERTEX
  5
3C4
  8
0
  6
CONTINUOUS
 62
     7
 10
180.6260503491
 20
249.028310086
 30
0.0
  0
VERTEX
  5
3C5
  8
0
  6
CONTINUOUS
 62
     7
 10
178.3707894048
 20
249.2510049598
 30
0.0
  0
VERTEX
  5
3C6
  8
0
  6
CONTINUOUS
 62
     7
 10
176.0249472817
 20
249.5074002998
 30
0.0
  0
VERTEX
  5
3C7
  8
0
  6
CONTINUOUS
 62
     7
 10
173.6085153779
 20
249.7972517269
 30
0.0
  0
VERTEX
  5
3C8
  8
0
  6
CONTINUOUS
 62
     7
 10
171.1218692025
 20
250.1220612781
 30
0.0
  0
SEQEND
  5
7A9
  8
0
  6
CONTINUOUS
 62
     7
  0
POLYLINE
  5
46
  8
0
  6
CONTINUOUS
 62
     7
 66
     1
 10
0.0
 20
0.0
 30
0.0
  0
VERTEX
  5
3C9
  8
0
  6
CONTINUOUS
 62
     7
 10
246.1588836869
 20
249.5383053081
 30
0.0
  0
VERTEX
  5
3CA
  8
0
  6
CONTINUOUS
 62
     7
 10
246.0766680201
 20
249.8993008392
 30
0.0
  0
VERTEX
  5
3CB
  8
0
  6
CONTINUOUS
 62
     7
 10
245.9426529368
 20
250.4882841365
 30
0.0
  0
SEQEND
  5
7A8
  8
0
  6
CONTINUOUS
 62
     7
  0
POLYLINE
  5
47
  8
0
  6
CONTINUOUS
 62
     7
 66
     1
 10
0.0
 20
0.0
 30
0.0
  0
VERTEX
  5
3CC
  8
0
  6
CONTINUOUS
 62
     7
 10
171.1749858817
 20
250.4882841365
 30
0.0
  0
VERTEX
  5
3CD
  8
0
  6
CONTINUOUS
 62
     7
 10
171.0422970017
 20
249.9051361339
 30
0.0
  0
VERTEX
  5
3CE
  8
0
  6
CONTINUOUS
 62
     7
 10
170.9565467795
 20
249.5286135929
 30
0.0
  0
SEQEND
  5
7A7
  8
0
  6
CONTINUOUS
 62
     7
  0
POLYLINE
  5
48
  8
0
  6
CONTINUOUS
 62
     7
 66
     1
 10
0.0
 20
0.0
 30
0.0
  0
VERTEX
  5
3CF
  8
0
  6
CONTINUOUS
 62
     7
 10
365.9957743844
 20
250.1220612781
 30
0.0
  0
VERTEX
  5
3D0
  8
0
  6
CONTINUOUS
 62
     7
 10
364.7209144791
 20
249.951848294
 30
0.0
  0
VERTEX
  5
3D1
  8
0
  6
CONTINUOUS
 62
     7
 10
363.6280633172
 20
249.8107819812
 30
0.0
  0
VERTEX
  5
3D2
  8
0
  6
CONTINUOUS
 62
     7
 10
362.7175427636
 20
249.6966510074
 30
0.0
  0
VERTEX
  5
3D3
  8
0
  6
CONTINUOUS
 62
     7
 10
361.9895673951
 20
249.6076195495
 30
0.0
  0
VERTEX
  5
3D4
  8
0
  6
CONTINUOUS
 62
     7
 10
361.3911725243
 20
249.5359032409
 30
0.0
  0
VERTEX
  5
3D5
  8
0
  6
CONTINUOUS
 62
     7
 10
360.9701253136
 20
249.4863121765
 30
0.0
  0
VERTEX
  5
3D6
  8
0
  6
CONTINUOUS
 62
     7
 10
360.5339504441
 20
249.4360833423
 30
0.0
  0
VERTEX
  5
3D7
  8
0
  6
CONTINUOUS
 62
     7
 10
360.0645996293
 20
249.3832795875
 30
0.0
  0
VERTEX
  5
3D8
  8
0
  6
CONTINUOUS
 62
     7
 10
359.5620609483
 20
249.3280976074
 30
0.0
  0
VERTEX
  5
3D9
  8
0
  6
CONTINUOUS
 62
     7
 10
359.026334401
 20
249.2707281368
 30
0.0
  0
VERTEX
  5
3DA
  8
0
  6
CONTINUOUS
 62
     7
 10
357.6320267876
 20
249.1281121032
 30
0.0
  0
VERTEX
  5
3DB
  8
0
  6
CONTINUOUS
 62
     7
 10
356.052861329
 20
248.9776163356
 30
0.0
  0
VERTEX
  5
3DC
  8
0
  6
CONTINUOUS
 62
     7
 10
354.7332979401
 20
248.8604932086
 30
0.0
  0
VERTEX
  5
3DD
  8
0
  6
CONTINUOUS
 62
     7
 10
353.4065819939
 20
248.7513153808
 30
0.0
  0
VERTEX
  5
3DE
  8
0
  6
CONTINUOUS
 62
     7
 10
352.1730281075
 20
248.6586480396
 30
0.0
  0
VERTEX
  5
3DF
  8
0
  6
CONTINUOUS
 62
     7
 10
351.0327793321
 20
248.5813706176
 30
0.0
  0
VERTEX
  5
3E0
  8
0
  6
CONTINUOUS
 62
     7
 10
349.9860025605
 20
248.5185413616
 30
0.0
  0
VERTEX
  5
3E1
  8
0
  6
CONTINUOUS
 62
     7
 10
349.032840844
 20
248.4694211738
 30
0.0
  0
VERTEX
  5
3E2
  8
0
  6
CONTINUOUS
 62
     7
 10
348.1734491547
 20
248.4334736125
 30
0.0
  0
VERTEX
  5
3E3
  8
0
  6
CONTINUOUS
 62
     7
 10
347.4072433671
 20
248.4102099197
 30
0.0
  0
VERTEX
  5
3E4
  8
0
  6
CONTINUOUS
 62
     7
 10
347.0466233453
 20
248.4007625835
 30
0.0
  0
VERTEX
  5
3E5
  8
0
  6
CONTINUOUS
 62
     7
 10
346.692953225
 20
248.3900099056
 30
0.0
  0
VERTEX
  5
3E6
  8
0
  6
CONTINUOUS
 62
     7
 10
346.3462210854
 20
248.3775525348
 30
0.0
  0
VERTEX
  5
3E7
  8
0
  6
CONTINUOUS
 62
     7
 10
346.0064030846
 20
248.364004399
 30
0.0
  0
VERTEX
  5
3E8
  8
0
  6
CONTINUOUS
 62
     7
 10
345.4507447442
 20
248.3409672038
 30
0.0
  0
VERTEX
  5
3E9
  8
0
  6
CONTINUOUS
 62
     7
 10
344.8355771264
 20
248.3160822647
 30
0.0
  0
VERTEX
  5
3EA
  8
0
  6
CONTINUOUS
 62
     7
 10
344.1027022561
 20
248.2878177421
 30
0.0
  0
VERTEX
  5
3EB
  8
0
  6
CONTINUOUS
 62
     7
 10
343.2520962914
 20
248.2568650501
 30
0.0
  0
VERTEX
  5
3EC
  8
0
  6
CONTINUOUS
 62
     7
 10
342.234668847
 20
248.2223778026
 30
0.0
  0
VERTEX
  5
3ED
  8
0
  6
CONTINUOUS
 62
     7
 10
341.0879827699
 20
248.1867580669
 30
0.0
  0
VERTEX
  5
3EE
  8
0
  6
CONTINUOUS
 62
     7
 10
339.8121811112
 20
248.1511025684
 30
0.0
  0
VERTEX
  5
3EF
  8
0
  6
CONTINUOUS
 62
     7
 10
333.7646223267
 20
248.0364470737
 30
0.0
  0
VERTEX
  5
3F0
  8
0
  6
CONTINUOUS
 62
     7
 10
327.7475691995
 20
248.0069427745
 30
0.0
  0
VERTEX
  5
3F1
  8
0
  6
CONTINUOUS
 62
     7
 10
325.37302744
 20
248.0178861873
 30
0.0
  0
VERTEX
  5
3F2
  8
0
  6
CONTINUOUS
 62
     7
 10
323.1379724702
 20
248.039916064
 30
0.0
  0
VERTEX
  5
3F3
  8
0
  6
CONTINUOUS
 62
     7
 10
321.0567451676
 20
248.0707435863
 30
0.0
  0
VERTEX
  5
3F4
  8
0
  6
CONTINUOUS
 62
     7
 10
319.1293574532
 20
248.108300473
 30
0.0
  0
VERTEX
  5
3F5
  8
0
  6
CONTINUOUS
 62
     7
 10
317.3460937699
 20
248.1509356754
 30
0.0
  0
VERTEX
  5
3F6
  8
0
  6
CONTINUOUS
 62
     7
 10
316.4366699418
 20
248.175659682
 30
0.0
  0
VERTEX
  5
3F7
  8
0
  6
CONTINUOUS
 62
     7
 10
315.4845334252
 20
248.203775193
 30
0.0
  0
VERTEX
  5
3F8
  8
0
  6
CONTINUOUS
 62
     7
 10
314.4896842202
 20
248.2356696384
 30
0.0
  0
VERTEX
  5
3F9
  8
0
  6
CONTINUOUS
 62
     7
 10
313.4521819314
 20
248.2717721717
 30
0.0
  0
VERTEX
  5
3FA
  8
0
  6
CONTINUOUS
 62
     7
 10
312.4278284272
 20
248.3103602188
 30
0.0
  0
VERTEX
  5
3FB
  8
0
  6
CONTINUOUS
 62
     7
 10
311.7595053872
 20
248.337158467
 30
0.0
  0
VERTEX
  5
3FC
  8
0
  6
CONTINUOUS
 62
     7
 10
311.2788296899
 20
248.3572392719
 30
0.0
  0
VERTEX
  5
3FD
  8
0
  6
CONTINUOUS
 62
     7
 10
310.9647966584
 20
248.3707158821
 30
0.0
  0
VERTEX
  5
3FE
  8
0
  6
CONTINUOUS
 62
     7
 10
310.4839063844
 20
248.3915238635
 30
0.0
  0
VERTEX
  5
3FF
  8
0
  6
CONTINUOUS
 62
     7
 10
309.9279977044
 20
248.4145908611
 30
0.0
  0
VERTEX
  5
400
  8
0
  6
CONTINUOUS
 62
     7
 10
309.2971183022
 20
248.4387188213
 30
0.0
  0
VERTEX
  5
401
  8
0
  6
CONTINUOUS
 62
     7
 10
308.5912681779
 20
248.4661250369
 30
0.0
  0
VERTEX
  5
402
  8
0
  6
CONTINUOUS
 62
     7
 10
307.8095413407
 20
248.5003440635
 30
0.0
  0
VERTEX
  5
403
  8
0
  6
CONTINUOUS
 62
     7
 10
306.9473899564
 20
248.5451786773
 30
0.0
  0
VERTEX
  5
404
  8
0
  6
CONTINUOUS
 62
     7
 10
306.0042477807
 20
248.6015289085
 30
0.0
  0
VERTEX
  5
405
  8
0
  6
CONTINUOUS
 62
     7
 10
304.9802221021
 20
248.6699550407
 30
0.0
  0
VERTEX
  5
406
  8
0
  6
CONTINUOUS
 62
     7
 10
303.8754380902
 20
248.7511544483
 30
0.0
  0
VERTEX
  5
407
  8
0
  6
CONTINUOUS
 62
     7
 10
302.6900328359
 20
248.8459437148
 30
0.0
  0
VERTEX
  5
408
  8
0
  6
CONTINUOUS
 62
     7
 10
300.626049157
 20
249.028310086
 30
0.0
  0
VERTEX
  5
409
  8
0
  6
CONTINUOUS
 62
     7
 10
298.3707882127
 20
249.2510049598
 30
0.0
  0
VERTEX
  5
40A
  8
0
  6
CONTINUOUS
 62
     7
 10
296.0249460896
 20
249.5074002998
 30
0.0
  0
VERTEX
  5
40B
  8
0
  6
CONTINUOUS
 62
     7
 10
293.6085141858
 20
249.7972517269
 30
0.0
  0
VERTEX
  5
40C
  8
0
  6
CONTINUOUS
 62
     7
 10
291.1218680104
 20
250.1220612781
 30
0.0
  0
SEQEND
  5
7A6
  8
0
  6
CONTINUOUS
 62
     7
  0
POLYLINE
  5
49
  8
0
  6
CONTINUOUS
 62
     7
 66
     1
 10
0.0
 20
0.0
 30
0.0
  0
VERTEX
  5
40D
  8
0
  6
CONTINUOUS
 62
     7
 10
366.1588884553
 20
249.5383053081
 30
0.0
  0
VERTEX
  5
40E
  8
0
  6
CONTINUOUS
 62
     7
 10
366.0766698083
 20
249.8993008392
 30
0.0
  0
VERTEX
  5
40F
  8
0
  6
CONTINUOUS
 62
     7
 10
365.942654725
 20
250.4882841365
 30
0.0
  0
SEQEND
  5
7A5
  8
0
  6
CONTINUOUS
 62
     7
  0
POLYLINE
  5
4A
  8
0
  6
CONTINUOUS
 62
     7
 66
     1
 10
0.0
 20
0.0
 30
0.0
  0
VERTEX
  5
410
  8
0
  6
CONTINUOUS
 62
     7
 10
291.1749876698
 20
250.4882841365
 30
0.0
  0
VERTEX
  5
411
  8
0
  6
CONTINUOUS
 62
     7
 10
291.0422958096
 20
249.9051361339
 30
0.0
  0
VERTEX
  5
412
  8
0
  6
CONTINUOUS
 62
     7
 10
290.9565485677
 20
249.5286135929
 30
0.0
  0
SEQEND
  5
7A4
  8
0
  6
CONTINUOUS
 62
     7
  0
POLYLINE
  5
4B
  8
0
  6
CONTINUOUS
 62
     7
 66
     1
 10
0.0
 20
0.0
 30
0.0
  0
VERTEX
  5
413
  8
0
  6
CONTINUOUS
 62
     7
 10
125.9957708081
 20
250.1220612781
 30
0.0
  0
VERTEX
  5
414
  8
0
  6
CONTINUOUS
 62
     7
 10
124.7209109029
 20
249.951848294
 30
0.0
  0
VERTEX
  5
415
  8
0
  6
CONTINUOUS
 62
     7
 10
123.6280716618
 20
249.8107819812
 30
0.0
  0
VERTEX
  5
416
  8
0
  6
CONTINUOUS
 62
     7
 10
122.7175451478
 20
249.6966510074
 30
0.0
  0
VERTEX
  5
417
  8
0
  6
CONTINUOUS
 62
     7
 10
121.9895638188
 20
249.6076195495
 30
0.0
  0
VERTEX
  5
418
  8
0
  6
CONTINUOUS
 62
     7
 10
121.3911749085
 20
249.5359032409
 30
0.0
  0
VERTEX
  5
419
  8
0
  6
CONTINUOUS
 62
     7
 10
120.9701276978
 20
249.4863121765
 30
0.0
  0
VERTEX
  5
41A
  8
0
  6
CONTINUOUS
 62
     7
 10
120.5339468678
 20
249.4360833423
 30
0.0
  0
VERTEX
  5
41B
  8
0
  6
CONTINUOUS
 62
     7
 10
120.064596053
 20
249.3832795875
 30
0.0
  0
VERTEX
  5
41C
  8
0
  6
CONTINUOUS
 62
     7
 10
119.5620633324
 20
249.3280976074
 30
0.0
  0
VERTEX
  5
41D
  8
0
  6
CONTINUOUS
 62
     7
 10
119.0263308247
 20
249.2707281368
 30
0.0
  0
VERTEX
  5
41E
  8
0
  6
CONTINUOUS
 62
     7
 10
117.6320232114
 20
249.1281121032
 30
0.0
  0
VERTEX
  5
41F
  8
0
  6
CONTINUOUS
 62
     7
 10
116.0528577527
 20
248.9776163356
 30
0.0
  0
VERTEX
  5
420
  8
0
  6
CONTINUOUS
 62
     7
 10
114.7332943639
 20
248.8604932086
 30
0.0
  0
VERTEX
  5
421
  8
0
  6
CONTINUOUS
 62
     7
 10
113.4065843781
 20
248.7513153808
 30
0.0
  0
VERTEX
  5
422
  8
0
  6
CONTINUOUS
 62
     7
 10
112.1730245313
 20
248.6586480396
 30
0.0
  0
VERTEX
  5
423
  8
0
  6
CONTINUOUS
 62
     7
 10
111.0327757558
 20
248.5813706176
 30
0.0
  0
VERTEX
  5
424
  8
0
  6
CONTINUOUS
 62
     7
 10
109.9859989842
 20
248.5185413616
 30
0.0
  0
VERTEX
  5
425
  8
0
  6
CONTINUOUS
 62
     7
 10
109.0328432282
 20
248.4694211738
 30
0.0
  0
VERTEX
  5
426
  8
0
  6
CONTINUOUS
 62
     7
 10
108.1734515389
 20
248.4334736125
 30
0.0
  0
VERTEX
  5
427
  8
0
  6
CONTINUOUS
 62
     7
 10
107.4072338303
 20
248.4102099197
 30
0.0
  0
VERTEX
  5
428
  8
0
  6
CONTINUOUS
 62
     7
 10
107.0466257295
 20
248.4007625835
 30
0.0
  0
VERTEX
  5
429
  8
0
  6
CONTINUOUS
 62
     7
 10
106.6929556092
 20
248.3900099056
 30
0.0
  0
VERTEX
  5
42A
  8
0
  6
CONTINUOUS
 62
     7
 10
106.3462115487
 20
248.3775525348
 30
0.0
  0
VERTEX
  5
42B
  8
0
  6
CONTINUOUS
 62
     7
 10
106.0064054688
 20
248.364004399
 30
0.0
  0
VERTEX
  5
42C
  8
0
  6
CONTINUOUS
 62
     7
 10
105.4507471284
 20
248.3409672038
 30
0.0
  0
VERTEX
  5
42D
  8
0
  6
CONTINUOUS
 62
     7
 10
104.8355795106
 20
248.3160822647
 30
0.0
  0
VERTEX
  5
42E
  8
0
  6
CONTINUOUS
 62
     7
 10
104.1027046403
 20
248.2878177421
 30
0.0
  0
VERTEX
  5
42F
  8
0
  6
CONTINUOUS
 62
     7
 10
103.2520986756
 20
248.2568650501
 30
0.0
  0
VERTEX
  5
430
  8
0
  6
CONTINUOUS
 62
     7
 10
102.2346712312
 20
248.2223778026
 30
0.0
  0
VERTEX
  5
431
  8
0
  6
CONTINUOUS
 62
     7
 10
101.087985154
 20
248.1867580669
 30
0.0
  0
VERTEX
  5
432
  8
0
  6
CONTINUOUS
 62
     7
 10
99.8121715745
 20
248.1511025684
 30
0.0
  0
VERTEX
  5
433
  8
0
  6
CONTINUOUS
 62
     7
 10
93.7646247109
 20
248.0364470737
 30
0.0
  0
VERTEX
  5
434
  8
0
  6
CONTINUOUS
 62
     7
 10
87.7475715836
 20
248.0069427745
 30
0.0
  0
VERTEX
  5
435
  8
0
  6
CONTINUOUS
 62
     7
 10
85.3730298241
 20
248.0178861873
 30
0.0
  0
VERTEX
  5
436
  8
0
  6
CONTINUOUS
 62
     7
 10
83.1379748544
 20
248.039916064
 30
0.0
  0
VERTEX
  5
437
  8
0
  6
CONTINUOUS
 62
     7
 10
81.0567475518
 20
248.0707435863
 30
0.0
  0
VERTEX
  5
438
  8
0
  6
CONTINUOUS
 62
     7
 10
79.1293598374
 20
248.108300473
 30
0.0
  0
VERTEX
  5
439
  8
0
  6
CONTINUOUS
 62
     7
 10
77.3460961541
 20
248.1509356754
 30
0.0
  0
VERTEX
  5
43A
  8
0
  6
CONTINUOUS
 62
     7
 10
76.436672326
 20
248.175659682
 30
0.0
  0
VERTEX
  5
43B
  8
0
  6
CONTINUOUS
 62
     7
 10
75.4845238885
 20
248.203775193
 30
0.0
  0
VERTEX
  5
43C
  8
0
  6
CONTINUOUS
 62
     7
 10
74.4896866044
 20
248.2356696384
 30
0.0
  0
VERTEX
  5
43D
  8
0
  6
CONTINUOUS
 62
     7
 10
73.4521843156
 20
248.2717721717
 30
0.0
  0
VERTEX
  5
43E
  8
0
  6
CONTINUOUS
 62
     7
 10
72.4278188905
 20
248.3103602188
 30
0.0
  0
VERTEX
  5
43F
  8
0
  6
CONTINUOUS
 62
     7
 10
71.7595077714
 20
248.337158467
 30
0.0
  0
VERTEX
  5
440
  8
0
  6
CONTINUOUS
 62
     7
 10
71.2788320741
 20
248.3572392719
 30
0.0
  0
VERTEX
  5
441
  8
0
  6
CONTINUOUS
 62
     7
 10
70.9647871217
 20
248.3707158821
 30
0.0
  0
VERTEX
  5
442
  8
0
  6
CONTINUOUS
 62
     7
 10
70.4839087685
 20
248.3915238635
 30
0.0
  0
VERTEX
  5
443
  8
0
  6
CONTINUOUS
 62
     7
 10
69.9280000886
 20
248.4145908611
 30
0.0
  0
VERTEX
  5
444
  8
0
  6
CONTINUOUS
 62
     7
 10
69.2971206864
 20
248.4387188213
 30
0.0
  0
VERTEX
  5
445
  8
0
  6
CONTINUOUS
 62
     7
 10
68.5912705621
 20
248.4661250369
 30
0.0
  0
VERTEX
  5
446
  8
0
  6
CONTINUOUS
 62
     7
 10
67.8095437249
 20
248.5003440635
 30
0.0
  0
VERTEX
  5
447
  8
0
  6
CONTINUOUS
 62
     7
 10
66.9473863801
 20
248.5451786773
 30
0.0
  0
VERTEX
  5
448
  8
0
  6
CONTINUOUS
 62
     7
 10
66.0042501649
 20
248.6015289085
 30
0.0
  0
VERTEX
  5
449
  8
0
  6
CONTINUOUS
 62
     7
 10
64.9802185258
 20
248.6699550407
 30
0.0
  0
VERTEX
  5
44A
  8
0
  6
CONTINUOUS
 62
     7
 10
63.8754345139
 20
248.7511544483
 30
0.0
  0
VERTEX
  5
44B
  8
0
  6
CONTINUOUS
 62
     7
 10
62.6900292596
 20
248.8459437148
 30
0.0
  0
VERTEX
  5
44C
  8
0
  6
CONTINUOUS
 62
     7
 10
60.6260515412
 20
249.028310086
 30
0.0
  0
VERTEX
  5
44D
  8
0
  6
CONTINUOUS
 62
     7
 10
58.3707905969
 20
249.2510049598
 30
0.0
  0
VERTEX
  5
44E
  8
0
  6
CONTINUOUS
 62
     7
 10
56.0249425134
 20
249.5074002998
 30
0.0
  0
VERTEX
  5
44F
  8
0
  6
CONTINUOUS
 62
     7
 10
53.6085225304
 20
249.7972517269
 30
0.0
  0
VERTEX
  5
450
  8
0
  6
CONTINUOUS
 62
     7
 10
51.1218644341
 20
250.1220612781
 30
0.0
  0
SEQEND
  5
7A3
  8
0
  6
CONTINUOUS
 62
     7
  0
POLYLINE
  5
4C
  8
0
  6
CONTINUOUS
 62
     7
 66
     1
 10
0.0
 20
0.0
 30
0.0
  0
VERTEX
  5
451
  8
0
  6
CONTINUOUS
 62
     7
 10
126.158884879
 20
249.5383053081
 30
0.0
  0
VERTEX
  5
452
  8
0
  6
CONTINUOUS
 62
     7
 10
126.076666232
 20
249.8993008392
 30
0.0
  0
VERTEX
  5
453
  8
0
  6
CONTINUOUS
 62
     7
 10
125.9426511487
 20
250.4882841365
 30
0.0
  0
SEQEND
  5
7A2
  8
0
  6
CONTINUOUS
 62
     7
  0
POLYLINE
  5
4D
  8
0
  6
CONTINUOUS
 62
     7
 66
     1
 10
0.0
 20
0.0
 30
0.0
  0
VERTEX
  5
454
  8
0
  6
CONTINUOUS
 62
     7
 10
51.1749840936
 20
250.4882841365
 30
0.0
  0
VERTEX
  5
455
  8
0
  6
CONTINUOUS
 62
     7
 10
51.0423041543
 20
249.9051361339
 30
0.0
  0
VERTEX
  5
456
  8
0
  6
CONTINUOUS
 62
     7
 10
50.9565449914
 20
249.5286135929
 30
0.0
  0
SEQEND
  5
7A1
  8
0
  6
CONTINUOUS
 62
     7
  0
LINE
  5
4E
  8
0
  6
CONTINUOUS
 62
     7
 10
31.2588192185
 20
241.3340060966
 30
0.0
 11
31.2588192185
 21
257.9340069549
 31
0.0
  0
LINE
  5
4F
  8
0
  6
CONTINUOUS
 62
     7
 10
25.8588172158
 20
257.9340069549
 30
0.0
 11
25.8588172158
 21
241.3340060966
 31
0.0
  0
LINE
  5
50
  8
0
  6
CONTINUOUS
 62
     7
 10
25.8588172158
 20
272.9340045707
 30
0.0
 11
25.8588172158
 21
257.9340069549
 31
0.0
  0
LINE
  5
51
  8
0
  6
CONTINUOUS
 62
     7
 10
31.2588192185
 20
257.9340069549
 30
0.0
 11
31.2588192185
 21
272.9340045707
 31
0.0
  0
LINE
  5
52
  8
0
  6
CONTINUOUS
 62
     7
 10
25.8588172158
 20
241.3340060966
 30
0.0
 11
25.8588172158
 21
226.3340084808
 31
0.0
  0
LINE
  5
53
  8
0
  6
CONTINUOUS
 62
     7
 10
31.2588192185
 20
226.3340084808
 30
0.0
 11
31.2588192185
 21
241.3340060966
 31
0.0
  0
LINE
  5
54
  8
0
  6
CONTINUOUS
 62
     7
 10
391.2588216027
 20
241.3340060966
 30
0.0
 11
391.2588216027
 21
257.9340069549
 31
0.0
  0
LINE
  5
55
  8
0
  6
CONTINUOUS
 62
     7
 10
385.8588196
 20
257.9340069549
 30
0.0
 11
385.8588196
 21
241.3340060966
 31
0.0
  0
LINE
  5
56
  8
0
  6
CONTINUOUS
 62
     7
 10
385.8588196
 20
272.9340045707
 30
0.0
 11
385.8588196
 21
257.9340069549
 31
0.0
  0
LINE
  5
57
  8
0
  6
CONTINUOUS
 62
     7
 10
391.2588216027
 20
257.9340069549
 30
0.0
 11
391.2588216027
 21
272.9340045707
 31
0.0
  0
LINE
  5
58
  8
0
  6
CONTINUOUS
 62
     7
 10
385.8588196
 20
241.3340060966
 30
0.0
 11
385.8588196
 21
226.3340084808
 31
0.0
  0
LINE
  5
59
  8
0
  6
CONTINUOUS
 62
     7
 10
391.2588216027
 20
226.3340084808
 30
0.0
 11
391.2588216027
 21
241.3340060966
 31
0.0
  0
LINE
  5
5A
  8
0
  6
CONTINUOUS
 62
     7
 10
151.2588180264
 20
241.3340060966
 30
0.0
 11
151.2588180264
 21
257.9340069549
 31
0.0
  0
LINE
  5
5B
  8
0
  6
CONTINUOUS
 62
     7
 10
145.8588219842
 20
257.9340069549
 30
0.0
 11
145.8588219842
 21
241.3340060966
 31
0.0
  0
LINE
  5
5C
  8
0
  6
CONTINUOUS
 62
     7
 10
145.8588219842
 20
272.9340045707
 30
0.0
 11
145.8588219842
 21
257.9340069549
 31
0.0
  0
LINE
  5
5D
  8
0
  6
CONTINUOUS
 62
     7
 10
151.2588180264
 20
257.9340069549
 30
0.0
 11
151.2588180264
 21
272.9340045707
 31
0.0
  0
LINE
  5
5E
  8
0
  6
CONTINUOUS
 62
     7
 10
145.8588219842
 20
241.3340060966
 30
0.0
 11
145.8588219842
 21
226.3340084808
 31
0.0
  0
LINE
  5
5F
  8
0
  6
CONTINUOUS
 62
     7
 10
151.2588180264
 20
226.3340084808
 30
0.0
 11
151.2588180264
 21
241.3340060966
 31
0.0
  0
LINE
  5
60
  8
0
  6
CONTINUOUS
 62
     7
 10
271.2588168343
 20
241.3340060966
 30
0.0
 11
271.2588168343
 21
257.9340069549
 31
0.0
  0
LINE
  5
61
  8
0
  6
CONTINUOUS
 62
     7
 10
265.8588207921
 20
257.9340069549
 30
0.0
 11
265.8588207921
 21
241.3340060966
 31
0.0
  0
LINE
  5
62
  8
0
  6
CONTINUOUS
 62
     7
 10
265.8588207921
 20
272.9340045707
 30
0.0
 11
265.8588207921
 21
257.9340069549
 31
0.0
  0
LINE
  5
63
  8
0
  6
CONTINUOUS
 62
     7
 10
271.2588168343
 20
257.9340069549
 30
0.0
 11
271.2588168343
 21
272.9340045707
 31
0.0
  0
LINE
  5
64
  8
0
  6
CONTINUOUS
 62
     7
 10
265.8588207921
 20
241.3340060966
 30
0.0
 11
265.8588207921
 21
226.3340084808
 31
0.0
  0
LINE
  5
65
  8
0
  6
CONTINUOUS
 62
     7
 10
271.2588168343
 20
226.3340084808
 30
0.0
 11
271.2588168343
 21
241.3340060966
 31
0.0
  0
POLYLINE
  5
66
  8
0
  6
CONTINUOUS
 62
     7
 66
     1
 10
0.0
 20
0.0
 30
0.0
  0
VERTEX
  5
457
  8
0
  6
CONTINUOUS
 62
     7
 10
246.1588896474
 20
248.4647064464
 30
0.0
  0
VERTEX
  5
458
  8
0
  6
CONTINUOUS
 62
     7
 10
246.0710174998
 20
248.2106178062
 30
0.0
  0
VERTEX
  5
459
  8
0
  6
CONTINUOUS
 62
     7
 10
245.8057023248
 20
247.8556065814
 30
0.0
  0
VERTEX
  5
45A
  8
0
  6
CONTINUOUS
 62
     7
 10
245.396704193
 20
247.423860337
 30
0.0
  0
VERTEX
  5
45B
  8
0
  6
CONTINUOUS
 62
     7
 10
244.8382891377
 20
246.9219236629
 30
0.0
  0
VERTEX
  5
45C
  8
0
  6
CONTINUOUS
 62
     7
 10
244.1023267468
 20
246.3664441364
 30
0.0
  0
VERTEX
  5
45D
  8
0
  6
CONTINUOUS
 62
     7
 10
243.2002491912
 20
245.818242337
 30
0.0
  0
VERTEX
  5
45E
  8
0
  6
CONTINUOUS
 62
     7
 10
242.3338688573
 20
245.4104154365
 30
0.0
  0
VERTEX
  5
45F
  8
0
  6
CONTINUOUS
 62
     7
 10
241.3501955232
 20
245.0729339378
 30
0.0
  0
VERTEX
  5
460
  8
0
  6
CONTINUOUS
 62
     7
 10
240.7251275739
 20
244.9226646678
 30
0.0
  0
VERTEX
  5
461
  8
0
  6
CONTINUOUS
 62
     7
 10
240.0713212451
 20
244.8162107723
 30
0.0
  0
SEQEND
  5
7A0
  8
0
  6
CONTINUOUS
 62
     7
  0
POLYLINE
  5
67
  8
0
  6
CONTINUOUS
 62
     7
 66
     1
 10
0.0
 20
0.0
 30
0.0
  0
VERTEX
  5
462
  8
0
  6
CONTINUOUS
 62
     7
 10
246.1588896474
 20
248.4647064464
 30
0.0
  0
VERTEX
  5
463
  8
0
  6
CONTINUOUS
 62
     7
 10
246.1588896474
 20
248.5194950359
 30
0.0
  0
VERTEX
  5
464
  8
0
  6
CONTINUOUS
 62
     7
 10
246.1586750707
 20
248.8121896045
 30
0.0
  0
VERTEX
  5
465
  8
0
  6
CONTINUOUS
 62
     7
 10
246.1581982335
 20
248.9348976867
 30
0.0
  0
VERTEX
  5
466
  8
0
  6
CONTINUOUS
 62
     7
 10
246.1578465661
 20
248.948529269
 30
0.0
  0
VERTEX
  5
467
  8
0
  6
CONTINUOUS
 62
     7
 10
246.1580939254
 20
248.9356725471
 30
0.0
  0
SEQEND
  5
79F
  8
0
  6
CONTINUOUS
 62
     7
  0
POLYLINE
  5
68
  8
0
  6
CONTINUOUS
 62
     7
 66
     1
 10
0.0
 20
0.0
 30
0.0
  0
VERTEX
  5
468
  8
0
  6
CONTINUOUS
 62
     7
 10
246.1588181218
 20
249.232104327
 30
0.0
  0
VERTEX
  5
469
  8
0
  6
CONTINUOUS
 62
     7
 10
246.1441106757
 20
249.1843431251
 30
0.0
  0
VERTEX
  5
46A
  8
0
  6
CONTINUOUS
 62
     7
 10
246.1588240823
 20
249.0575461643
 30
0.0
  0
SEQEND
  5
79E
  8
0
  6
CONTINUOUS
 62
     7
  0
POLYLINE
  5
69
  8
0
  6
CONTINUOUS
 62
     7
 66
     1
 10
0.0
 20
0.0
 30
0.0
  0
VERTEX
  5
46B
  8
0
  6
CONTINUOUS
 62
     7
 10
170.9588147363
 20
249.0575461643
 30
0.0
  0
VERTEX
  5
46C
  8
0
  6
CONTINUOUS
 62
     7
 10
170.9735281428
 20
249.1843431251
 30
0.0
  0
VERTEX
  5
46D
  8
0
  6
CONTINUOUS
 62
     7
 10
170.9588206967
 20
249.232104327
 30
0.0
  0
SEQEND
  5
79D
  8
0
  6
CONTINUOUS
 62
     7
  0
POLYLINE
  5
6A
  8
0
  6
CONTINUOUS
 62
     7
 66
     1
 10
0.0
 20
0.0
 30
0.0
  0
VERTEX
  5
46E
  8
0
  6
CONTINUOUS
 62
     7
 10
170.9587491711
 20
248.4648852603
 30
0.0
  0
VERTEX
  5
46F
  8
0
  6
CONTINUOUS
 62
     7
 10
170.9587491711
 20
248.4695821063
 30
0.0
  0
VERTEX
  5
470
  8
0
  6
CONTINUOUS
 62
     7
 10
170.9589190444
 20
248.7880795257
 30
0.0
  0
VERTEX
  5
471
  8
0
  6
CONTINUOUS
 62
     7
 10
170.9593839606
 20
248.9273219364
 30
0.0
  0
VERTEX
  5
472
  8
0
  6
CONTINUOUS
 62
     7
 10
170.9597684106
 20
248.9506869571
 30
0.0
  0
VERTEX
  5
473
  8
0
  6
CONTINUOUS
 62
     7
 10
170.9597177466
 20
248.9332764404
 30
0.0
  0
SEQEND
  5
79C
  8
0
  6
CONTINUOUS
 62
     7
  0
POLYLINE
  5
6B
  8
0
  6
CONTINUOUS
 62
     7
 66
     1
 10
0.0
 20
0.0
 30
0.0
  0
VERTEX
  5
474
  8
0
  6
CONTINUOUS
 62
     7
 10
177.0463175734
 20
244.8162107723
 30
0.0
  0
VERTEX
  5
475
  8
0
  6
CONTINUOUS
 62
     7
 10
176.0322697123
 20
245.0033753173
 30
0.0
  0
VERTEX
  5
476
  8
0
  6
CONTINUOUS
 62
     7
 10
175.046963211
 20
245.307555701
 30
0.0
  0
VERTEX
  5
477
  8
0
  6
CONTINUOUS
 62
     7
 10
174.1781241855
 20
245.6839471118
 30
0.0
  0
VERTEX
  5
478
  8
0
  6
CONTINUOUS
 62
     7
 10
173.3848549088
 20
246.1255162017
 30
0.0
  0
VERTEX
  5
479
  8
0
  6
CONTINUOUS
 62
     7
 10
172.6273841819
 20
246.645882632
 30
0.0
  0
VERTEX
  5
47A
  8
0
  6
CONTINUOUS
 62
     7
 10
171.986088868
 20
247.1754400985
 30
0.0
  0
VERTEX
  5
47B
  8
0
  6
CONTINUOUS
 62
     7
 10
171.4398540219
 20
247.7124481456
 30
0.0
  0
VERTEX
  5
47C
  8
0
  6
CONTINUOUS
 62
     7
 10
171.2317116221
 20
247.9510693805
 30
0.0
  0
VERTEX
  5
47D
  8
0
  6
CONTINUOUS
 62
     7
 10
171.0795975884
 20
248.1570987956
 30
0.0
  0
VERTEX
  5
47E
  8
0
  6
CONTINUOUS
 62
     7
 10
170.9587491711
 20
248.4648852603
 30
0.0
  0
SEQEND
  5
79B
  8
0
  6
CONTINUOUS
 62
     7
  0
POLYLINE
  5
6C
  8
0
  6
CONTINUOUS
 62
     7
 66
     1
 10
0.0
 20
0.0
 30
0.0
  0
VERTEX
  5
47F
  8
0
  6
CONTINUOUS
 62
     7
 10
240.0713212451
 20
244.8162107723
 30
0.0
  0
VERTEX
  5
480
  8
0
  6
CONTINUOUS
 62
     7
 10
232.9819909891
 20
244.0152972
 30
0.0
  0
VERTEX
  5
481
  8
0
  6
CONTINUOUS
 62
     7
 10
225.8649252018
 20
243.3878569858
 30
0.0
  0
VERTEX
  5
482
  8
0
  6
CONTINUOUS
 62
     7
 10
218.6920173129
 20
242.961290385
 30
0.0
  0
VERTEX
  5
483
  8
0
  6
CONTINUOUS
 62
     7
 10
211.5050932055
 20
242.7540748374
 30
0.0
  0
VERTEX
  5
484
  8
0
  6
CONTINUOUS
 62
     7
 10
206.4420565626
 20
242.7448778407
 30
0.0
  0
VERTEX
  5
485
  8
0
  6
CONTINUOUS
 62
     7
 10
201.380529966
 20
242.8485481994
 30
0.0
  0
VERTEX
  5
486
  8
0
  6
CONTINUOUS
 62
     7
 10
196.3098644873
 20
243.0644839065
 30
0.0
  0
VERTEX
  5
487
  8
0
  6
CONTINUOUS
 62
     7
 10
191.2475876173
 20
243.3882384555
 30
0.0
  0
VERTEX
  5
488
  8
0
  6
CONTINUOUS
 62
     7
 10
184.136707302
 20
244.0147905605
 30
0.0
  0
VERTEX
  5
489
  8
0
  6
CONTINUOUS
 62
     7
 10
177.0463175734
 20
244.8162107723
 30
0.0
  0
SEQEND
  5
79A
  8
0
  6
CONTINUOUS
 62
     7
  0
POLYLINE
  5
6D
  8
0
  6
CONTINUOUS
 62
     7
 66
     1
 10
0.0
 20
0.0
 30
0.0
  0
VERTEX
  5
48A
  8
0
  6
CONTINUOUS
 62
     7
 10
177.2262192925
 20
250.1487820403
 30
0.0
  0
VERTEX
  5
48B
  8
0
  6
CONTINUOUS
 62
     7
 10
176.2197442016
 20
250.3664284007
 30
0.0
  0
VERTEX
  5
48C
  8
0
  6
CONTINUOUS
 62
     7
 10
175.2951509913
 20
250.556239392
 30
0.0
  0
VERTEX
  5
48D
  8
0
  6
CONTINUOUS
 62
     7
 10
174.5276607236
 20
250.6942122238
 30
0.0
  0
VERTEX
  5
48E
  8
0
  6
CONTINUOUS
 62
     7
 10
173.8921768626
 20
250.7781355636
 30
0.0
  0
VERTEX
  5
48F
  8
0
  6
CONTINUOUS
 62
     7
 10
173.5904492101
 20
250.7988899009
 30
0.0
  0
VERTEX
  5
490
  8
0
  6
CONTINUOUS
 62
     7
 10
173.3524568042
 20
250.7974653499
 30
0.0
  0
SEQEND
  5
799
  8
0
  6
CONTINUOUS
 62
     7
  0
ARC
  5
6E
  8
0
  6
CONTINUOUS
 62
     7
 10
208.4424392976
 20
389.380739271
 30
0.0
 40
142.6884378836338
 50
257.3630892534
 51
260.3830757402
  0
ARC
  5
6F
  8
0
  6
CONTINUOUS
 62
     7
 10
207.9572708271
 20
393.0104507539
 30
0.0
 40
146.3873158464863
 50
279.6013439636
 51
282.6002988363
  0
POLYLINE
  5
70
  8
0
  6
CONTINUOUS
 62
     7
 66
     1
 10
0.0
 20
0.0
 30
0.0
  0
VERTEX
  5
491
  8
0
  6
CONTINUOUS
 62
     7
 10
243.7651820144
 20
250.7974653499
 30
0.0
  0
VERTEX
  5
492
  8
0
  6
CONTINUOUS
 62
     7
 10
243.3460928162
 20
250.7885544555
 30
0.0
  0
VERTEX
  5
493
  8
0
  6
CONTINUOUS
 62
     7
 10
242.7364624699
 20
250.7168381469
 30
0.0
  0
VERTEX
  5
494
  8
0
  6
CONTINUOUS
 62
     7
 10
241.9852174481
 20
250.5875795143
 30
0.0
  0
VERTEX
  5
495
  8
0
  6
CONTINUOUS
 62
     7
 10
241.0678423604
 20
250.4023878829
 30
0.0
  0
VERTEX
  5
496
  8
0
  6
CONTINUOUS
 62
     7
 10
239.891419526
 20
250.1487820403
 30
0.0
  0
SEQEND
  5
798
  8
0
  6
CONTINUOUS
 62
     7
  0
POLYLINE
  5
71
  8
0
  6
CONTINUOUS
 62
     7
 66
     1
 10
0.0
 20
0.0
 30
0.0
  0
VERTEX
  5
497
  8
0
  6
CONTINUOUS
 62
     7
 10
243.765164133
 20
250.7975428359
 30
0.0
  0
VERTEX
  5
498
  8
0
  6
CONTINUOUS
 62
     7
 10
244.6822292765
 20
250.7427304046
 30
0.0
  0
VERTEX
  5
499
  8
0
  6
CONTINUOUS
 62
     7
 10
245.283404704
 20
250.6881921546
 30
0.0
  0
VERTEX
  5
49A
  8
0
  6
CONTINUOUS
 62
     7
 10
245.6409252843
 20
250.6324618118
 30
0.0
  0
VERTEX
  5
49B
  8
0
  6
CONTINUOUS
 62
     7
 10
245.8556837996
 20
250.5758493202
 30
0.0
  0
VERTEX
  5
49C
  8
0
  6
CONTINUOUS
 62
     7
 10
245.9374315699
 20
250.5174188869
 30
0.0
  0
VERTEX
  5
49D
  8
0
  6
CONTINUOUS
 62
     7
 10
245.9342665633
 20
250.4598646419
 30
0.0
  0
VERTEX
  5
49E
  8
0
  6
CONTINUOUS
 62
     7
 10
245.9071643313
 20
250.4070132034
 30
0.0
  0
VERTEX
  5
49F
  8
0
  6
CONTINUOUS
 62
     7
 10
245.9050066432
 20
250.3601520316
 30
0.0
  0
VERTEX
  5
4A0
  8
0
  6
CONTINUOUS
 62
     7
 10
245.9519423207
 20
250.2518563526
 30
0.0
  0
VERTEX
  5
4A1
  8
0
  6
CONTINUOUS
 62
     7
 10
245.9611780604
 20
250.2102999942
 30
0.0
  0
SEQEND
  5
797
  8
0
  6
CONTINUOUS
 62
     7
  0
ARC
  5
72
  8
0
  6
CONTINUOUS
 62
     7
 10
241.1138002944
 20
249.3813288095
 30
0.0
 40
4.946513259051226
 50
3.5868728639
 51
8.4287436192
  0
POLYLINE
  5
73
  8
0
  6
CONTINUOUS
 62
     7
 66
     1
 10
0.0
 20
0.0
 30
0.0
  0
VERTEX
  5
4A2
  8
0
  6
CONTINUOUS
 62
     7
 10
239.9619824847
 20
246.3129608886
 30
0.0
  0
VERTEX
  5
4A3
  8
0
  6
CONTINUOUS
 62
     7
 10
240.9856773576
 20
246.4918880718
 30
0.0
  0
VERTEX
  5
4A4
  8
0
  6
CONTINUOUS
 62
     7
 10
241.9816590508
 20
246.7826693313
 30
0.0
  0
VERTEX
  5
4A5
  8
0
  6
CONTINUOUS
 62
     7
 10
242.8619093856
 20
247.1416144626
 30
0.0
  0
VERTEX
  5
4A6
  8
0
  6
CONTINUOUS
 62
     7
 10
243.6665393075
 20
247.5604205387
 30
0.0
  0
VERTEX
  5
4A7
  8
0
  6
CONTINUOUS
 62
     7
 10
244.4262601098
 20
248.0441241519
 30
0.0
  0
VERTEX
  5
4A8
  8
0
  6
CONTINUOUS
 62
     7
 10
245.067662712
 20
248.5307007091
 30
0.0
  0
VERTEX
  5
4A9
  8
0
  6
CONTINUOUS
 62
     7
 10
245.5953813752
 20
249.0039973514
 30
0.0
  0
VERTEX
  5
4AA
  8
0
  6
CONTINUOUS
 62
     7
 10
245.9386147221
 20
249.3971257465
 30
0.0
  0
VERTEX
  5
4AB
  8
0
  6
CONTINUOUS
 62
     7
 10
246.026695486
 20
249.5577900665
 30
0.0
  0
VERTEX
  5
4AC
  8
0
  6
CONTINUOUS
 62
     7
 10
246.0506237706
 20
249.6907859104
 30
0.0
  0
SEQEND
  5
796
  8
0
  6
CONTINUOUS
 62
     7
  0
POLYLINE
  5
74
  8
0
  6
CONTINUOUS
 62
     7
 66
     1
 10
0.0
 20
0.0
 30
0.0
  0
VERTEX
  5
4AD
  8
0
  6
CONTINUOUS
 62
     7
 10
239.9619824847
 20
246.3129608886
 30
0.0
  0
VERTEX
  5
4AE
  8
0
  6
CONTINUOUS
 62
     7
 10
234.6111572942
 20
245.7263677375
 30
0.0
  0
VERTEX
  5
4AF
  8
0
  6
CONTINUOUS
 62
     7
 10
229.2450002989
 20
245.22836497
 30
0.0
  0
VERTEX
  5
4B0
  8
0
  6
CONTINUOUS
 62
     7
 10
223.8527454099
 20
244.8312132614
 30
0.0
  0
VERTEX
  5
4B1
  8
0
  6
CONTINUOUS
 62
     7
 10
218.4496521613
 20
244.5462315338
 30
0.0
  0
VERTEX
  5
4B2
  8
0
  6
CONTINUOUS
 62
     7
 10
212.5481623819
 20
244.3725674407
 30
0.0
  0
VERTEX
  5
4B3
  8
0
  6
CONTINUOUS
 62
     7
 10
206.6430136224
 20
244.3462341087
 30
0.0
  0
VERTEX
  5
4B4
  8
0
  6
CONTINUOUS
 62
     7
 10
200.7178507408
 20
244.469508435
 30
0.0
  0
VERTEX
  5
4B5
  8
0
  6
CONTINUOUS
 62
     7
 10
194.7998053988
 20
244.7382776992
 30
0.0
  0
VERTEX
  5
4B6
  8
0
  6
CONTINUOUS
 62
     7
 10
190.3785191139
 20
245.0302927749
 30
0.0
  0
VERTEX
  5
4B7
  8
0
  6
CONTINUOUS
 62
     7
 10
185.9655759891
 20
245.3941910522
 30
0.0
  0
VERTEX
  5
4B8
  8
0
  6
CONTINUOUS
 62
     7
 10
181.5553344449
 20
245.8244114177
 30
0.0
  0
VERTEX
  5
4B9
  8
0
  6
CONTINUOUS
 62
     7
 10
177.1556563338
 20
246.3129608886
 30
0.0
  0
SEQEND
  5
795
  8
0
  6
CONTINUOUS
 62
     7
  0
POLYLINE
  5
75
  8
0
  6
CONTINUOUS
 62
     7
 66
     1
 10
0.0
 20
0.0
 30
0.0
  0
VERTEX
  5
4BA
  8
0
  6
CONTINUOUS
 62
     7
 10
171.0670150479
 20
249.6907859104
 30
0.0
  0
VERTEX
  5
4BB
  8
0
  6
CONTINUOUS
 62
     7
 10
171.1413569411
 20
249.4561283843
 30
0.0
  0
VERTEX
  5
4BC
  8
0
  6
CONTINUOUS
 62
     7
 10
171.3986016473
 20
249.1307227867
 30
0.0
  0
VERTEX
  5
4BD
  8
0
  6
CONTINUOUS
 62
     7
 10
171.8083537778
 20
248.7370937126
 30
0.0
  0
VERTEX
  5
4BE
  8
0
  6
CONTINUOUS
 62
     7
 10
172.3761148414
 20
248.2732742088
 30
0.0
  0
VERTEX
  5
4BF
  8
0
  6
CONTINUOUS
 62
     7
 10
173.1088407
 20
247.7670340793
 30
0.0
  0
VERTEX
  5
4C0
  8
0
  6
CONTINUOUS
 62
     7
 10
174.005032297
 20
247.2624330776
 30
0.0
  0
VERTEX
  5
4C1
  8
0
  6
CONTINUOUS
 62
     7
 10
174.8851455411
 20
246.8748896377
 30
0.0
  0
VERTEX
  5
4C2
  8
0
  6
CONTINUOUS
 62
     7
 10
175.8828825911
 20
246.5535669582
 30
0.0
  0
VERTEX
  5
4C3
  8
0
  6
CONTINUOUS
 62
     7
 10
176.5056915244
 20
246.4127986686
 30
0.0
  0
VERTEX
  5
4C4
  8
0
  6
CONTINUOUS
 62
     7
 10
177.1556563338
 20
246.3129608886
 30
0.0
  0
SEQEND
  5
794
  8
0
  6
CONTINUOUS
 62
     7
  0
POLYLINE
  5
76
  8
0
  6
CONTINUOUS
 62
     7
 66
     1
 10
0.0
 20
0.0
 30
0.0
  0
VERTEX
  5
4C5
  8
0
  6
CONTINUOUS
 62
     7
 10
171.0670150479
 20
249.6907918708
 30
0.0
  0
VERTEX
  5
4C6
  8
0
  6
CONTINUOUS
 62
     7
 10
171.0953332147
 20
249.9871282833
 30
0.0
  0
VERTEX
  5
4C7
  8
0
  6
CONTINUOUS
 62
     7
 10
171.1111612281
 20
250.1118033187
 30
0.0
  0
SEQEND
  5
793
  8
0
  6
CONTINUOUS
 62
     7
  0
POLYLINE
  5
77
  8
0
  6
CONTINUOUS
 62
     7
 66
     1
 10
0.0
 20
0.0
 30
0.0
  0
VERTEX
  5
4C8
  8
0
  6
CONTINUOUS
 62
     7
 10
171.1565293034
 20
250.2097933547
 30
0.0
  0
VERTEX
  5
4C9
  8
0
  6
CONTINUOUS
 62
     7
 10
171.1666412314
 20
250.2544372337
 30
0.0
  0
VERTEX
  5
4CA
  8
0
  6
CONTINUOUS
 62
     7
 10
171.2126321753
 20
250.3601520316
 30
0.0
  0
VERTEX
  5
4CB
  8
0
  6
CONTINUOUS
 62
     7
 10
171.2104744872
 20
250.4070132034
 30
0.0
  0
VERTEX
  5
4CC
  8
0
  6
CONTINUOUS
 62
     7
 10
171.1833722552
 20
250.4598646419
 30
0.0
  0
VERTEX
  5
4CD
  8
0
  6
CONTINUOUS
 62
     7
 10
171.1802072486
 20
250.5174188869
 30
0.0
  0
VERTEX
  5
4CE
  8
0
  6
CONTINUOUS
 62
     7
 10
171.2619550189
 20
250.5758493202
 30
0.0
  0
VERTEX
  5
4CF
  8
0
  6
CONTINUOUS
 62
     7
 10
171.4767135342
 20
250.6324618118
 30
0.0
  0
VERTEX
  5
4D0
  8
0
  6
CONTINUOUS
 62
     7
 10
171.8342341145
 20
250.6881921546
 30
0.0
  0
VERTEX
  5
4D1
  8
0
  6
CONTINUOUS
 62
     7
 10
172.435409542
 20
250.7427304046
 30
0.0
  0
VERTEX
  5
4D2
  8
0
  6
CONTINUOUS
 62
     7
 10
173.3524746856
 20
250.7975428359
 30
0.0
  0
SEQEND
  5
792
  8
0
  6
CONTINUOUS
 62
     7
  0
LINE
  5
78
  8
0
  6
CONTINUOUS
 62
     7
 10
246.1588181218
 20
249.232593085
 30
0.0
 11
246.1588181218
 21
249.5382933872
 31
0.0
  0
LINE
  5
79
  8
0
  6
CONTINUOUS
 62
     7
 10
170.9588206967
 20
249.0575461643
 30
0.0
 11
170.9588206967
 21
248.883083369
 31
0.0
  0
LINE
  5
7A
  8
0
  6
CONTINUOUS
 62
     7
 10
170.9588206967
 20
249.5281009929
 30
0.0
 11
170.9588206967
 21
249.232593085
 31
0.0
  0
POLYLINE
  5
7B
  8
0
  6
CONTINUOUS
 62
     7
 66
     1
 10
0.0
 20
0.0
 30
0.0
  0
VERTEX
  5
4D3
  8
0
  6
CONTINUOUS
 62
     7
 10
366.1588884553
 20
248.4647064464
 30
0.0
  0
VERTEX
  5
4D4
  8
0
  6
CONTINUOUS
 62
     7
 10
366.071019288
 20
248.2106178062
 30
0.0
  0
VERTEX
  5
4D5
  8
0
  6
CONTINUOUS
 62
     7
 10
365.8057070931
 20
247.8556065814
 30
0.0
  0
VERTEX
  5
4D6
  8
0
  6
CONTINUOUS
 62
     7
 10
365.3967000207
 20
247.423860337
 30
0.0
  0
VERTEX
  5
4D7
  8
0
  6
CONTINUOUS
 62
     7
 10
364.8382879456
 20
246.9219236629
 30
0.0
  0
VERTEX
  5
4D8
  8
0
  6
CONTINUOUS
 62
     7
 10
364.1023255547
 20
246.3664441364
 30
0.0
  0
VERTEX
  5
4D9
  8
0
  6
CONTINUOUS
 62
     7
 10
363.2002450188
 20
245.818242337
 30
0.0
  0
VERTEX
  5
4DA
  8
0
  6
CONTINUOUS
 62
     7
 10
362.3338676652
 20
245.4104154365
 30
0.0
  0
VERTEX
  5
4DB
  8
0
  6
CONTINUOUS
 62
     7
 10
361.3502002915
 20
245.0729339378
 30
0.0
  0
VERTEX
  5
4DC
  8
0
  6
CONTINUOUS
 62
     7
 10
360.7251263818
 20
244.9226646678
 30
0.0
  0
VERTEX
  5
4DD
  8
0
  6
CONTINUOUS
 62
     7
 10
360.0713230332
 20
244.8162107723
 30
0.0
  0
SEQEND
  5
791
  8
0
  6
CONTINUOUS
 62
     7
  0
POLYLINE
  5
7C
  8
0
  6
CONTINUOUS
 62
     7
 66
     1
 10
0.0
 20
0.0
 30
0.0
  0
VERTEX
  5
4DE
  8
0
  6
CONTINUOUS
 62
     7
 10
366.1588884553
 20
248.4647064464
 30
0.0
  0
VERTEX
  5
4DF
  8
0
  6
CONTINUOUS
 62
     7
 10
366.1588884553
 20
248.5194950359
 30
0.0
  0
VERTEX
  5
4E0
  8
0
  6
CONTINUOUS
 62
     7
 10
366.1586738786
 20
248.8121896045
 30
0.0
  0
VERTEX
  5
4E1
  8
0
  6
CONTINUOUS
 62
     7
 10
366.1581970414
 20
248.9348976867
 30
0.0
  0
VERTEX
  5
4E2
  8
0
  6
CONTINUOUS
 62
     7
 10
366.1578513345
 20
248.948529269
 30
0.0
  0
VERTEX
  5
4E3
  8
0
  6
CONTINUOUS
 62
     7
 10
366.158089753
 20
248.9356725471
 30
0.0
  0
SEQEND
  5
790
  8
0
  6
CONTINUOUS
 62
     7
  0
POLYLINE
  5
7D
  8
0
  6
CONTINUOUS
 62
     7
 66
     1
 10
0.0
 20
0.0
 30
0.0
  0
VERTEX
  5
4E4
  8
0
  6
CONTINUOUS
 62
     7
 10
366.1588169297
 20
249.232104327
 30
0.0
  0
VERTEX
  5
4E5
  8
0
  6
CONTINUOUS
 62
     7
 10
366.1441065034
 20
249.1843431251
 30
0.0
  0
VERTEX
  5
4E6
  8
0
  6
CONTINUOUS
 62
     7
 10
366.1588169297
 20
249.0575461643
 30
0.0
  0
SEQEND
  5
78F
  8
0
  6
CONTINUOUS
 62
     7
  0
POLYLINE
  5
7E
  8
0
  6
CONTINUOUS
 62
     7
 66
     1
 10
0.0
 20
0.0
 30
0.0
  0
VERTEX
  5
4E7
  8
0
  6
CONTINUOUS
 62
     7
 10
290.9588135442
 20
249.0575461643
 30
0.0
  0
VERTEX
  5
4E8
  8
0
  6
CONTINUOUS
 62
     7
 10
290.973529931
 20
249.1843431251
 30
0.0
  0
VERTEX
  5
4E9
  8
0
  6
CONTINUOUS
 62
     7
 10
290.9588195046
 20
249.232104327
 30
0.0
  0
SEQEND
  5
78E
  8
0
  6
CONTINUOUS
 62
     7
  0
POLYLINE
  5
7F
  8
0
  6
CONTINUOUS
 62
     7
 66
     1
 10
0.0
 20
0.0
 30
0.0
  0
VERTEX
  5
4EA
  8
0
  6
CONTINUOUS
 62
     7
 10
290.9587479791
 20
248.4648852603
 30
0.0
  0
VERTEX
  5
4EB
  8
0
  6
CONTINUOUS
 62
     7
 10
290.9587479791
 20
248.4695821063
 30
0.0
  0
VERTEX
  5
4EC
  8
0
  6
CONTINUOUS
 62
     7
 10
290.9589208325
 20
248.7880795257
 30
0.0
  0
VERTEX
  5
4ED
  8
0
  6
CONTINUOUS
 62
     7
 10
290.9593857488
 20
248.9273219364
 30
0.0
  0
VERTEX
  5
4EE
  8
0
  6
CONTINUOUS
 62
     7
 10
290.9597672185
 20
248.9506869571
 30
0.0
  0
VERTEX
  5
4EF
  8
0
  6
CONTINUOUS
 62
     7
 10
290.9597195348
 20
248.9332764404
 30
0.0
  0
SEQEND
  5
78D
  8
0
  6
CONTINUOUS
 62
     7
  0
POLYLINE
  5
80
  8
0
  6
CONTINUOUS
 62
     7
 66
     1
 10
0.0
 20
0.0
 30
0.0
  0
VERTEX
  5
4F0
  8
0
  6
CONTINUOUS
 62
     7
 10
297.0463193616
 20
244.8162107723
 30
0.0
  0
VERTEX
  5
4F1
  8
0
  6
CONTINUOUS
 62
     7
 10
296.0322715005
 20
245.0033753173
 30
0.0
  0
VERTEX
  5
4F2
  8
0
  6
CONTINUOUS
 62
     7
 10
295.0469649991
 20
245.307555701
 30
0.0
  0
VERTEX
  5
4F3
  8
0
  6
CONTINUOUS
 62
     7
 10
294.1781259736
 20
245.6839471118
 30
0.0
  0
VERTEX
  5
4F4
  8
0
  6
CONTINUOUS
 62
     7
 10
293.3848537167
 20
246.1255162017
 30
0.0
  0
VERTEX
  5
4F5
  8
0
  6
CONTINUOUS
 62
     7
 10
292.62738597
 20
246.645882632
 30
0.0
  0
VERTEX
  5
4F6
  8
0
  6
CONTINUOUS
 62
     7
 10
291.9860876759
 20
247.1754400985
 30
0.0
  0
VERTEX
  5
4F7
  8
0
  6
CONTINUOUS
 62
     7
 10
291.4398528298
 20
247.7124481456
 30
0.0
  0
VERTEX
  5
4F8
  8
0
  6
CONTINUOUS
 62
     7
 10
291.2317134103
 20
247.9510693805
 30
0.0
  0
VERTEX
  5
4F9
  8
0
  6
CONTINUOUS
 62
     7
 10
291.0795963963
 20
248.1570987956
 30
0.0
  0
VERTEX
  5
4FA
  8
0
  6
CONTINUOUS
 62
     7
 10
290.9587479791
 20
248.4648852603
 30
0.0
  0
SEQEND
  5
78C
  8
0
  6
CONTINUOUS
 62
     7
  0
POLYLINE
  5
81
  8
0
  6
CONTINUOUS
 62
     7
 66
     1
 10
0.0
 20
0.0
 30
0.0
  0
VERTEX
  5
4FB
  8
0
  6
CONTINUOUS
 62
     7
 10
360.0713230332
 20
244.8162107723
 30
0.0
  0
VERTEX
  5
4FC
  8
0
  6
CONTINUOUS
 62
     7
 10
352.9819942674
 20
244.0152972
 30
0.0
  0
VERTEX
  5
4FD
  8
0
  6
CONTINUOUS
 62
     7
 10
345.8649254998
 20
243.3878569858
 30
0.0
  0
VERTEX
  5
4FE
  8
0
  6
CONTINUOUS
 62
     7
 10
338.692019101
 20
242.961290385
 30
0.0
  0
VERTEX
  5
4FF
  8
0
  6
CONTINUOUS
 62
     7
 10
331.5050936898
 20
242.7540748374
 30
0.0
  0
VERTEX
  5
500
  8
0
  6
CONTINUOUS
 62
     7
 10
326.4420605859
 20
242.7448778407
 30
0.0
  0
VERTEX
  5
501
  8
0
  6
CONTINUOUS
 62
     7
 10
321.380529519
 20
242.8485481994
 30
0.0
  0
VERTEX
  5
502
  8
0
  6
CONTINUOUS
 62
     7
 10
316.3098670205
 20
243.0644839065
 30
0.0
  0
VERTEX
  5
503
  8
0
  6
CONTINUOUS
 62
     7
 10
311.2475849351
 20
243.3882384555
 30
0.0
  0
VERTEX
  5
504
  8
0
  6
CONTINUOUS
 62
     7
 10
304.1367090901
 20
244.0147905605
 30
0.0
  0
VERTEX
  5
505
  8
0
  6
CONTINUOUS
 62
     7
 10
297.0463193616
 20
244.8162107723
 30
0.0
  0
SEQEND
  5
78B
  8
0
  6
CONTINUOUS
 62
     7
  0
POLYLINE
  5
82
  8
0
  6
CONTINUOUS
 62
     7
 66
     1
 10
0.0
 20
0.0
 30
0.0
  0
VERTEX
  5
506
  8
0
  6
CONTINUOUS
 62
     7
 10
297.2262181004
 20
250.1487820403
 30
0.0
  0
VERTEX
  5
507
  8
0
  6
CONTINUOUS
 62
     7
 10
296.2197459897
 20
250.3664284007
 30
0.0
  0
VERTEX
  5
508
  8
0
  6
CONTINUOUS
 62
     7
 10
295.2951527795
 20
250.556239392
 30
0.0
  0
VERTEX
  5
509
  8
0
  6
CONTINUOUS
 62
     7
 10
294.5276595315
 20
250.6942122238
 30
0.0
  0
VERTEX
  5
50A
  8
0
  6
CONTINUOUS
 62
     7
 10
293.8921786507
 20
250.7781355636
 30
0.0
  0
VERTEX
  5
50B
  8
0
  6
CONTINUOUS
 62
     7
 10
293.590448018
 20
250.7988899009
 30
0.0
  0
VERTEX
  5
50C
  8
0
  6
CONTINUOUS
 62
     7
 10
293.3524585923
 20
250.7974653499
 30
0.0
  0
SEQEND
  5
78A
  8
0
  6
CONTINUOUS
 62
     7
  0
ARC
  5
83
  8
0
  6
CONTINUOUS
 62
     7
 10
328.4428724023
 20
389.3829474084
 30
0.0
 40
142.6906875431943
 50
257.3631130655
 51
260.3830519281
  0
ARC
  5
84
  8
0
  6
CONTINUOUS
 62
     7
 10
327.9568893932
 20
393.012419094
 30
0.0
 40
146.3893210297279
 50
279.6013645076
 51
282.6002782923
  0
POLYLINE
  5
85
  8
0
  6
CONTINUOUS
 62
     7
 66
     1
 10
0.0
 20
0.0
 30
0.0
  0
VERTEX
  5
50D
  8
0
  6
CONTINUOUS
 62
     7
 10
363.765177842
 20
250.7974653499
 30
0.0
  0
VERTEX
  5
50E
  8
0
  6
CONTINUOUS
 62
     7
 10
363.3460975846
 20
250.7885544555
 30
0.0
  0
VERTEX
  5
50F
  8
0
  6
CONTINUOUS
 62
     7
 10
362.7364612779
 20
250.7168381469
 30
0.0
  0
VERTEX
  5
510
  8
0
  6
CONTINUOUS
 62
     7
 10
361.985216256
 20
250.5875795143
 30
0.0
  0
VERTEX
  5
511
  8
0
  6
CONTINUOUS
 62
     7
 10
361.0678411683
 20
250.4023878829
 30
0.0
  0
VERTEX
  5
512
  8
0
  6
CONTINUOUS
 62
     7
 10
359.8914242944
 20
250.1487820403
 30
0.0
  0
SEQEND
  5
789
  8
0
  6
CONTINUOUS
 62
     7
  0
POLYLINE
  5
86
  8
0
  6
CONTINUOUS
 62
     7
 66
     1
 10
0.0
 20
0.0
 30
0.0
  0
VERTEX
  5
513
  8
0
  6
CONTINUOUS
 62
     7
 10
363.7651659211
 20
250.7975428359
 30
0.0
  0
VERTEX
  5
514
  8
0
  6
CONTINUOUS
 62
     7
 10
364.6822310647
 20
250.7427304046
 30
0.0
  0
VERTEX
  5
515
  8
0
  6
CONTINUOUS
 62
     7
 10
365.2834035119
 20
250.6881921546
 30
0.0
  0
VERTEX
  5
516
  8
0
  6
CONTINUOUS
 62
     7
 10
365.6409240922
 20
250.6324618118
 30
0.0
  0
VERTEX
  5
517
  8
0
  6
CONTINUOUS
 62
     7
 10
365.8556796273
 20
250.5758493202
 30
0.0
  0
VERTEX
  5
518
  8
0
  6
CONTINUOUS
 62
     7
 10
365.9374333581
 20
250.5174188869
 30
0.0
  0
VERTEX
  5
519
  8
0
  6
CONTINUOUS
 62
     7
 10
365.934262391
 20
250.4598646419
 30
0.0
  0
VERTEX
  5
51A
  8
0
  6
CONTINUOUS
 62
     7
 10
365.9071661195
 20
250.4070132034
 30
0.0
  0
VERTEX
  5
51B
  8
0
  6
CONTINUOUS
 62
     7
 10
365.9050084313
 20
250.3601520316
 30
0.0
  0
VERTEX
  5
51C
  8
0
  6
CONTINUOUS
 62
     7
 10
365.9519411286
 20
250.2518563526
 30
0.0
  0
VERTEX
  5
51D
  8
0
  6
CONTINUOUS
 62
     7
 10
365.9611798486
 20
250.2102999942
 30
0.0
  0
SEQEND
  5
788
  8
0
  6
CONTINUOUS
 62
     7
  0
ARC
  5
87
  8
0
  6
CONTINUOUS
 62
     7
 10
361.114782494
 20
249.3814323037
 30
0.0
 40
4.945525319113402
 50
3.5863889591
 51
8.429227524
  0
POLYLINE
  5
88
  8
0
  6
CONTINUOUS
 62
     7
 66
     1
 10
0.0
 20
0.0
 30
0.0
  0
VERTEX
  5
51E
  8
0
  6
CONTINUOUS
 62
     7
 10
359.9619842728
 20
246.3129608886
 30
0.0
  0
VERTEX
  5
51F
  8
0
  6
CONTINUOUS
 62
     7
 10
360.9856821259
 20
246.4918880718
 30
0.0
  0
VERTEX
  5
520
  8
0
  6
CONTINUOUS
 62
     7
 10
361.9816518983
 20
246.7826693313
 30
0.0
  0
VERTEX
  5
521
  8
0
  6
CONTINUOUS
 62
     7
 10
362.8619052132
 20
247.1416144626
 30
0.0
  0
VERTEX
  5
522
  8
0
  6
CONTINUOUS
 62
     7
 10
363.6665440759
 20
247.5604205387
 30
0.0
  0
VERTEX
  5
523
  8
0
  6
CONTINUOUS
 62
     7
 10
364.4262648782
 20
248.0441241519
 30
0.0
  0
VERTEX
  5
524
  8
0
  6
CONTINUOUS
 62
     7
 10
365.0676585397
 20
248.5307007091
 30
0.0
  0
VERTEX
  5
525
  8
0
  6
CONTINUOUS
 62
     7
 10
365.5953861436
 20
249.0039973514
 30
0.0
  0
VERTEX
  5
526
  8
0
  6
CONTINUOUS
 62
     7
 10
365.93861353
 20
249.3971257465
 30
0.0
  0
VERTEX
  5
527
  8
0
  6
CONTINUOUS
 62
     7
 10
366.0266972741
 20
249.5577900665
 30
0.0
  0
VERTEX
  5
528
  8
0
  6
CONTINUOUS
 62
     7
 10
366.0506225785
 20
249.6907859104
 30
0.0
  0
SEQEND
  5
787
  8
0
  6
CONTINUOUS
 62
     7
  0
POLYLINE
  5
89
  8
0
  6
CONTINUOUS
 62
     7
 66
     1
 10
0.0
 20
0.0
 30
0.0
  0
VERTEX
  5
529
  8
0
  6
CONTINUOUS
 62
     7
 10
359.9619842728
 20
246.3129608886
 30
0.0
  0
VERTEX
  5
52A
  8
0
  6
CONTINUOUS
 62
     7
 10
354.6111561021
 20
245.7263677375
 30
0.0
  0
VERTEX
  5
52B
  8
0
  6
CONTINUOUS
 62
     7
 10
349.2449976167
 20
245.22836497
 30
0.0
  0
VERTEX
  5
52C
  8
0
  6
CONTINUOUS
 62
     7
 10
343.8527442178
 20
244.8312132614
 30
0.0
  0
VERTEX
  5
52D
  8
0
  6
CONTINUOUS
 62
     7
 10
338.4496546944
 20
244.5462315338
 30
0.0
  0
VERTEX
  5
52E
  8
0
  6
CONTINUOUS
 62
     7
 10
332.5481630524
 20
244.3725674407
 30
0.0
  0
VERTEX
  5
52F
  8
0
  6
CONTINUOUS
 62
     7
 10
326.6430116853
 20
244.3462341087
 30
0.0
  0
VERTEX
  5
530
  8
0
  6
CONTINUOUS
 62
     7
 10
320.7178450784
 20
244.469508435
 30
0.0
  0
VERTEX
  5
531
  8
0
  6
CONTINUOUS
 62
     7
 10
314.799807187
 20
244.7382776992
 30
0.0
  0
VERTEX
  5
532
  8
0
  6
CONTINUOUS
 62
     7
 10
310.3785134515
 20
245.0302927749
 30
0.0
  0
VERTEX
  5
533
  8
0
  6
CONTINUOUS
 62
     7
 10
305.9655762872
 20
245.3941910522
 30
0.0
  0
VERTEX
  5
534
  8
0
  6
CONTINUOUS
 62
     7
 10
301.5553332528
 20
245.8244114177
 30
0.0
  0
VERTEX
  5
535
  8
0
  6
CONTINUOUS
 62
     7
 10
297.155658122
 20
246.3129608886
 30
0.0
  0
SEQEND
  5
786
  8
0
  6
CONTINUOUS
 62
     7
  0
POLYLINE
  5
8A
  8
0
  6
CONTINUOUS
 62
     7
 66
     1
 10
0.0
 20
0.0
 30
0.0
  0
VERTEX
  5
536
  8
0
  6
CONTINUOUS
 62
     7
 10
291.0670138558
 20
249.6907859104
 30
0.0
  0
VERTEX
  5
537
  8
0
  6
CONTINUOUS
 62
     7
 10
291.1413587293
 20
249.4561283843
 30
0.0
  0
VERTEX
  5
538
  8
0
  6
CONTINUOUS
 62
     7
 10
291.3986004552
 20
249.1307227867
 30
0.0
  0
VERTEX
  5
539
  8
0
  6
CONTINUOUS
 62
     7
 10
291.8083525857
 20
248.7370937126
 30
0.0
  0
VERTEX
  5
53A
  8
0
  6
CONTINUOUS
 62
     7
 10
292.3761166295
 20
248.2732742088
 30
0.0
  0
VERTEX
  5
53B
  8
0
  6
CONTINUOUS
 62
     7
 10
293.1088365277
 20
247.7670340793
 30
0.0
  0
VERTEX
  5
53C
  8
0
  6
CONTINUOUS
 62
     7
 10
294.0050340852
 20
247.2624330776
 30
0.0
  0
VERTEX
  5
53D
  8
0
  6
CONTINUOUS
 62
     7
 10
294.885144349
 20
246.8748896377
 30
0.0
  0
VERTEX
  5
53E
  8
0
  6
CONTINUOUS
 62
     7
 10
295.8828843793
 20
246.5535669582
 30
0.0
  0
VERTEX
  5
53F
  8
0
  6
CONTINUOUS
 62
     7
 10
296.5056933125
 20
246.4127986686
 30
0.0
  0
VERTEX
  5
540
  8
0
  6
CONTINUOUS
 62
     7
 10
297.155658122
 20
246.3129608886
 30
0.0
  0
SEQEND
  5
785
  8
0
  6
CONTINUOUS
 62
     7
  0
POLYLINE
  5
8B
  8
0
  6
CONTINUOUS
 62
     7
 66
     1
 10
0.0
 20
0.0
 30
0.0
  0
VERTEX
  5
541
  8
0
  6
CONTINUOUS
 62
     7
 10
291.0670138558
 20
249.6907918708
 30
0.0
  0
VERTEX
  5
542
  8
0
  6
CONTINUOUS
 62
     7
 10
291.0953320226
 20
249.9871282833
 30
0.0
  0
VERTEX
  5
543
  8
0
  6
CONTINUOUS
 62
     7
 10
291.1111630162
 20
250.1118033187
 30
0.0
  0
SEQEND
  5
784
  8
0
  6
CONTINUOUS
 62
     7
  0
POLYLINE
  5
8C
  8
0
  6
CONTINUOUS
 62
     7
 66
     1
 10
0.0
 20
0.0
 30
0.0
  0
VERTEX
  5
544
  8
0
  6
CONTINUOUS
 62
     7
 10
291.1565281113
 20
250.2097933547
 30
0.0
  0
VERTEX
  5
545
  8
0
  6
CONTINUOUS
 62
     7
 10
291.1666430196
 20
250.2544372337
 30
0.0
  0
VERTEX
  5
546
  8
0
  6
CONTINUOUS
 62
     7
 10
291.2126339635
 20
250.3601520316
 30
0.0
  0
VERTEX
  5
547
  8
0
  6
CONTINUOUS
 62
     7
 10
291.2104762753
 20
250.4070132034
 30
0.0
  0
VERTEX
  5
548
  8
0
  6
CONTINUOUS
 62
     7
 10
291.1833740434
 20
250.4598646419
 30
0.0
  0
VERTEX
  5
549
  8
0
  6
CONTINUOUS
 62
     7
 10
291.1802090367
 20
250.5174188869
 30
0.0
  0
VERTEX
  5
54A
  8
0
  6
CONTINUOUS
 62
     7
 10
291.261956807
 20
250.5758493202
 30
0.0
  0
VERTEX
  5
54B
  8
0
  6
CONTINUOUS
 62
     7
 10
291.4767123422
 20
250.6324618118
 30
0.0
  0
VERTEX
  5
54C
  8
0
  6
CONTINUOUS
 62
     7
 10
291.8342329224
 20
250.6881921546
 30
0.0
  0
VERTEX
  5
54D
  8
0
  6
CONTINUOUS
 62
     7
 10
292.4354113301
 20
250.7427304046
 30
0.0
  0
VERTEX
  5
54E
  8
0
  6
CONTINUOUS
 62
     7
 10
293.3524764737
 20
250.7975428359
 30
0.0
  0
SEQEND
  5
783
  8
0
  6
CONTINUOUS
 62
     7
  0
LINE
  5
8D
  8
0
  6
CONTINUOUS
 62
     7
 10
366.1588169297
 20
249.232593085
 30
0.0
 11
366.1588169297
 21
249.5382933872
 31
0.0
  0
LINE
  5
8E
  8
0
  6
CONTINUOUS
 62
     7
 10
290.9588195046
 20
249.0575461643
 30
0.0
 11
290.9588195046
 21
248.883083369
 31
0.0
  0
LINE
  5
8F
  8
0
  6
CONTINUOUS
 62
     7
 10
290.9588195046
 20
249.5281009929
 30
0.0
 11
290.9588195046
 21
249.232593085
 31
0.0
  0
POLYLINE
  5
90
  8
0
  6
CONTINUOUS
 62
     7
 66
     1
 10
0.0
 20
0.0
 30
0.0
  0
VERTEX
  5
54F
  8
0
  6
CONTINUOUS
 62
     7
 10
126.1588908395
 20
248.4647064464
 30
0.0
  0
VERTEX
  5
550
  8
0
  6
CONTINUOUS
 62
     7
 10
126.0710157117
 20
248.2106178062
 30
0.0
  0
VERTEX
  5
551
  8
0
  6
CONTINUOUS
 62
     7
 10
125.8057035169
 20
247.8556065814
 30
0.0
  0
VERTEX
  5
552
  8
0
  6
CONTINUOUS
 62
     7
 10
125.3967024049
 20
247.423860337
 30
0.0
  0
VERTEX
  5
553
  8
0
  6
CONTINUOUS
 62
     7
 10
124.8382903298
 20
246.9219236629
 30
0.0
  0
VERTEX
  5
554
  8
0
  6
CONTINUOUS
 62
     7
 10
124.1023279389
 20
246.3664441364
 30
0.0
  0
VERTEX
  5
555
  8
0
  6
CONTINUOUS
 62
     7
 10
123.200247403
 20
245.818242337
 30
0.0
  0
VERTEX
  5
556
  8
0
  6
CONTINUOUS
 62
     7
 10
122.3338700494
 20
245.4104154365
 30
0.0
  0
VERTEX
  5
557
  8
0
  6
CONTINUOUS
 62
     7
 10
121.3501967152
 20
245.0729339378
 30
0.0
  0
VERTEX
  5
558
  8
0
  6
CONTINUOUS
 62
     7
 10
120.725128766
 20
244.9226646678
 30
0.0
  0
VERTEX
  5
559
  8
0
  6
CONTINUOUS
 62
     7
 10
120.0713194569
 20
244.8162107723
 30
0.0
  0
SEQEND
  5
782
  8
0
  6
CONTINUOUS
 62
     7
  0
POLYLINE
  5
91
  8
0
  6
CONTINUOUS
 62
     7
 66
     1
 10
0.0
 20
0.0
 30
0.0
  0
VERTEX
  5
55A
  8
0
  6
CONTINUOUS
 62
     7
 10
126.1588908395
 20
248.4647064464
 30
0.0
  0
VERTEX
  5
55B
  8
0
  6
CONTINUOUS
 62
     7
 10
126.1588908395
 20
248.5194950359
 30
0.0
  0
VERTEX
  5
55C
  8
0
  6
CONTINUOUS
 62
     7
 10
126.1586762627
 20
248.8121896045
 30
0.0
  0
VERTEX
  5
55D
  8
0
  6
CONTINUOUS
 62
     7
 10
126.1581994256
 20
248.9348976867
 30
0.0
  0
VERTEX
  5
55E
  8
0
  6
CONTINUOUS
 62
     7
 10
126.1578477582
 20
248.948529269
 30
0.0
  0
VERTEX
  5
55F
  8
0
  6
CONTINUOUS
 62
     7
 10
126.1580921372
 20
248.9356725471
 30
0.0
  0
SEQEND
  5
781
  8
0
  6
CONTINUOUS
 62
     7
  0
POLYLINE
  5
92
  8
0
  6
CONTINUOUS
 62
     7
 66
     1
 10
0.0
 20
0.0
 30
0.0
  0
VERTEX
  5
560
  8
0
  6
CONTINUOUS
 62
     7
 10
126.1588193139
 20
249.232104327
 30
0.0
  0
VERTEX
  5
561
  8
0
  6
CONTINUOUS
 62
     7
 10
126.1441088876
 20
249.1843431251
 30
0.0
  0
VERTEX
  5
562
  8
0
  6
CONTINUOUS
 62
     7
 10
126.1588252744
 20
249.0575461643
 30
0.0
  0
SEQEND
  5
780
  8
0
  6
CONTINUOUS
 62
     7
  0
POLYLINE
  5
93
  8
0
  6
CONTINUOUS
 62
     7
 66
     1
 10
0.0
 20
0.0
 30
0.0
  0
VERTEX
  5
563
  8
0
  6
CONTINUOUS
 62
     7
 10
50.9588218888
 20
249.0575461643
 30
0.0
  0
VERTEX
  5
564
  8
0
  6
CONTINUOUS
 62
     7
 10
50.9735323151
 20
249.1843431251
 30
0.0
  0
VERTEX
  5
565
  8
0
  6
CONTINUOUS
 62
     7
 10
50.9588218888
 20
249.232104327
 30
0.0
  0
SEQEND
  5
77F
  8
0
  6
CONTINUOUS
 62
     7
  0
POLYLINE
  5
94
  8
0
  6
CONTINUOUS
 62
     7
 66
     1
 10
0.0
 20
0.0
 30
0.0
  0
VERTEX
  5
566
  8
0
  6
CONTINUOUS
 62
     7
 10
50.9587503632
 20
248.4648852603
 30
0.0
  0
VERTEX
  5
567
  8
0
  6
CONTINUOUS
 62
     7
 10
50.9587503632
 20
248.4695821063
 30
0.0
  0
VERTEX
  5
568
  8
0
  6
CONTINUOUS
 62
     7
 10
50.9589172562
 20
248.7880795257
 30
0.0
  0
VERTEX
  5
569
  8
0
  6
CONTINUOUS
 62
     7
 10
50.9593821725
 20
248.9273219364
 30
0.0
  0
VERTEX
  5
56A
  8
0
  6
CONTINUOUS
 62
     7
 10
50.9597755631
 20
248.9506869571
 30
0.0
  0
VERTEX
  5
56B
  8
0
  6
CONTINUOUS
 62
     7
 10
50.9597159585
 20
248.9332764404
 30
0.0
  0
SEQEND
  5
77E
  8
0
  6
CONTINUOUS
 62
     7
  0
POLYLINE
  5
95
  8
0
  6
CONTINUOUS
 62
     7
 66
     1
 10
0.0
 20
0.0
 30
0.0
  0
VERTEX
  5
56C
  8
0
  6
CONTINUOUS
 62
     7
 10
57.0463157853
 20
244.8162107723
 30
0.0
  0
VERTEX
  5
56D
  8
0
  6
CONTINUOUS
 62
     7
 10
56.0322738847
 20
245.0033753173
 30
0.0
  0
VERTEX
  5
56E
  8
0
  6
CONTINUOUS
 62
     7
 10
55.0469614228
 20
245.307555701
 30
0.0
  0
VERTEX
  5
56F
  8
0
  6
CONTINUOUS
 62
     7
 10
54.1781283578
 20
245.6839471118
 30
0.0
  0
VERTEX
  5
570
  8
0
  6
CONTINUOUS
 62
     7
 10
53.3848501405
 20
246.1255162017
 30
0.0
  0
VERTEX
  5
571
  8
0
  6
CONTINUOUS
 62
     7
 10
52.6273823937
 20
246.645882632
 30
0.0
  0
VERTEX
  5
572
  8
0
  6
CONTINUOUS
 62
     7
 10
51.9860840997
 20
247.1754400985
 30
0.0
  0
VERTEX
  5
573
  8
0
  6
CONTINUOUS
 62
     7
 10
51.439855214
 20
247.7124481456
 30
0.0
  0
VERTEX
  5
574
  8
0
  6
CONTINUOUS
 62
     7
 10
51.2317157945
 20
247.9510693805
 30
0.0
  0
VERTEX
  5
575
  8
0
  6
CONTINUOUS
 62
     7
 10
51.0795928201
 20
248.1570987956
 30
0.0
  0
VERTEX
  5
576
  8
0
  6
CONTINUOUS
 62
     7
 10
50.9587503632
 20
248.4648852603
 30
0.0
  0
SEQEND
  5
77D
  8
0
  6
CONTINUOUS
 62
     7
  0
POLYLINE
  5
96
  8
0
  6
CONTINUOUS
 62
     7
 66
     1
 10
0.0
 20
0.0
 30
0.0
  0
VERTEX
  5
577
  8
0
  6
CONTINUOUS
 62
     7
 10
120.0713194569
 20
244.8162107723
 30
0.0
  0
VERTEX
  5
578
  8
0
  6
CONTINUOUS
 62
     7
 10
112.9819906911
 20
244.0152972
 30
0.0
  0
VERTEX
  5
579
  8
0
  6
CONTINUOUS
 62
     7
 10
105.864927884
 20
243.3878569858
 30
0.0
  0
VERTEX
  5
57A
  8
0
  6
CONTINUOUS
 62
     7
 10
98.6920214852
 20
242.961290385
 30
0.0
  0
VERTEX
  5
57B
  8
0
  6
CONTINUOUS
 62
     7
 10
91.505096074
 20
242.7540748374
 30
0.0
  0
VERTEX
  5
57C
  8
0
  6
CONTINUOUS
 62
     7
 10
86.4420510491
 20
242.7448778407
 30
0.0
  0
VERTEX
  5
57D
  8
0
  6
CONTINUOUS
 62
     7
 10
81.3805319032
 20
242.8485481994
 30
0.0
  0
VERTEX
  5
57E
  8
0
  6
CONTINUOUS
 62
     7
 10
76.3098694047
 20
243.0644839065
 30
0.0
  0
VERTEX
  5
57F
  8
0
  6
CONTINUOUS
 62
     7
 10
71.2475873193
 20
243.3882384555
 30
0.0
  0
VERTEX
  5
580
  8
0
  6
CONTINUOUS
 62
     7
 10
64.1367055138
 20
244.0147905605
 30
0.0
  0
VERTEX
  5
581
  8
0
  6
CONTINUOUS
 62
     7
 10
57.0463157853
 20
244.8162107723
 30
0.0
  0
SEQEND
  5
77C
  8
0
  6
CONTINUOUS
 62
     7
  0
POLYLINE
  5
97
  8
0
  6
CONTINUOUS
 62
     7
 66
     1
 10
0.0
 20
0.0
 30
0.0
  0
VERTEX
  5
582
  8
0
  6
CONTINUOUS
 62
     7
 10
57.2262145242
 20
250.1487820403
 30
0.0
  0
VERTEX
  5
583
  8
0
  6
CONTINUOUS
 62
     7
 10
56.2197424134
 20
250.3664284007
 30
0.0
  0
VERTEX
  5
584
  8
0
  6
CONTINUOUS
 62
     7
 10
55.2951551637
 20
250.556239392
 30
0.0
  0
VERTEX
  5
585
  8
0
  6
CONTINUOUS
 62
     7
 10
54.5276619157
 20
250.6942122238
 30
0.0
  0
VERTEX
  5
586
  8
0
  6
CONTINUOUS
 62
     7
 10
53.8921810349
 20
250.7781355636
 30
0.0
  0
VERTEX
  5
587
  8
0
  6
CONTINUOUS
 62
     7
 10
53.5904504022
 20
250.7988899009
 30
0.0
  0
VERTEX
  5
588
  8
0
  6
CONTINUOUS
 62
     7
 10
53.3524609765
 20
250.7974653499
 30
0.0
  0
SEQEND
  5
77B
  8
0
  6
CONTINUOUS
 62
     7
  0
ARC
  5
98
  8
0
  6
CONTINUOUS
 62
     7
 10
88.4432017857
 20
389.3847382155
 30
0.0
 40
142.6925078121174
 50
257.3631399214
 51
260.3830426002
  0
ARC
  5
99
  8
0
  6
CONTINUOUS
 62
     7
 10
87.9572720192
 20
393.0104507539
 30
0.0
 40
146.3873158464964
 50
279.6013439636
 51
282.6002988363
  0
POLYLINE
  5
9A
  8
0
  6
CONTINUOUS
 62
     7
 66
     1
 10
0.0
 20
0.0
 30
0.0
  0
VERTEX
  5
589
  8
0
  6
CONTINUOUS
 62
     7
 10
123.7651802262
 20
250.7974653499
 30
0.0
  0
VERTEX
  5
58A
  8
0
  6
CONTINUOUS
 62
     7
 10
123.3460940083
 20
250.7885544555
 30
0.0
  0
VERTEX
  5
58B
  8
0
  6
CONTINUOUS
 62
     7
 10
122.736463662
 20
250.7168381469
 30
0.0
  0
VERTEX
  5
58C
  8
0
  6
CONTINUOUS
 62
     7
 10
121.9852186402
 20
250.5875795143
 30
0.0
  0
VERTEX
  5
58D
  8
0
  6
CONTINUOUS
 62
     7
 10
121.0678435525
 20
250.4023878829
 30
0.0
  0
VERTEX
  5
58E
  8
0
  6
CONTINUOUS
 62
     7
 10
119.8914207181
 20
250.1487820403
 30
0.0
  0
SEQEND
  5
77A
  8
0
  6
CONTINUOUS
 62
     7
  0
POLYLINE
  5
9B
  8
0
  6
CONTINUOUS
 62
     7
 66
     1
 10
0.0
 20
0.0
 30
0.0
  0
VERTEX
  5
58F
  8
0
  6
CONTINUOUS
 62
     7
 10
123.7651623448
 20
250.7975428359
 30
0.0
  0
VERTEX
  5
590
  8
0
  6
CONTINUOUS
 62
     7
 10
124.6822274884
 20
250.7427304046
 30
0.0
  0
VERTEX
  5
591
  8
0
  6
CONTINUOUS
 62
     7
 10
125.2834058961
 20
250.6881921546
 30
0.0
  0
VERTEX
  5
592
  8
0
  6
CONTINUOUS
 62
     7
 10
125.6409264764
 20
250.6324618118
 30
0.0
  0
VERTEX
  5
593
  8
0
  6
CONTINUOUS
 62
     7
 10
125.8556820115
 20
250.5758493202
 30
0.0
  0
VERTEX
  5
594
  8
0
  6
CONTINUOUS
 62
     7
 10
125.9374297818
 20
250.5174188869
 30
0.0
  0
VERTEX
  5
595
  8
0
  6
CONTINUOUS
 62
     7
 10
125.9342647752
 20
250.4598646419
 30
0.0
  0
VERTEX
  5
596
  8
0
  6
CONTINUOUS
 62
     7
 10
125.9071625432
 20
250.4070132034
 30
0.0
  0
VERTEX
  5
597
  8
0
  6
CONTINUOUS
 62
     7
 10
125.905004855
 20
250.3601520316
 30
0.0
  0
VERTEX
  5
598
  8
0
  6
CONTINUOUS
 62
     7
 10
125.9519435128
 20
250.2518563526
 30
0.0
  0
VERTEX
  5
599
  8
0
  6
CONTINUOUS
 62
     7
 10
125.9611762723
 20
250.2102999942
 30
0.0
  0
SEQEND
  5
779
  8
0
  6
CONTINUOUS
 62
     7
  0
ARC
  5
9C
  8
0
  6
CONTINUOUS
 62
     7
 10
121.1138014865
 20
249.3813288095
 30
0.0
 40
4.946513259044128
 50
3.5868728639
 51
8.4287436192
  0
POLYLINE
  5
9D
  8
0
  6
CONTINUOUS
 62
     7
 66
     1
 10
0.0
 20
0.0
 30
0.0
  0
VERTEX
  5
59A
  8
0
  6
CONTINUOUS
 62
     7
 10
119.9619806966
 20
246.3129608886
 30
0.0
  0
VERTEX
  5
59B
  8
0
  6
CONTINUOUS
 62
     7
 10
120.9856785497
 20
246.4918880718
 30
0.0
  0
VERTEX
  5
59C
  8
0
  6
CONTINUOUS
 62
     7
 10
121.9816602429
 20
246.7826693313
 30
0.0
  0
VERTEX
  5
59D
  8
0
  6
CONTINUOUS
 62
     7
 10
122.8619075974
 20
247.1416144626
 30
0.0
  0
VERTEX
  5
59E
  8
0
  6
CONTINUOUS
 62
     7
 10
123.6665404996
 20
247.5604205387
 30
0.0
  0
VERTEX
  5
59F
  8
0
  6
CONTINUOUS
 62
     7
 10
124.4262613019
 20
248.0441241519
 30
0.0
  0
VERTEX
  5
5A0
  8
0
  6
CONTINUOUS
 62
     7
 10
125.0676609238
 20
248.5307007091
 30
0.0
  0
VERTEX
  5
5A1
  8
0
  6
CONTINUOUS
 62
     7
 10
125.5953825673
 20
249.0039973514
 30
0.0
  0
VERTEX
  5
5A2
  8
0
  6
CONTINUOUS
 62
     7
 10
125.9386159142
 20
249.3971257465
 30
0.0
  0
VERTEX
  5
5A3
  8
0
  6
CONTINUOUS
 62
     7
 10
126.0266936978
 20
249.5577900665
 30
0.0
  0
VERTEX
  5
5A4
  8
0
  6
CONTINUOUS
 62
     7
 10
126.0506249627
 20
249.6907859104
 30
0.0
  0
SEQEND
  5
778
  8
0
  6
CONTINUOUS
 62
     7
  0
POLYLINE
  5
9E
  8
0
  6
CONTINUOUS
 62
     7
 66
     1
 10
0.0
 20
0.0
 30
0.0
  0
VERTEX
  5
5A5
  8
0
  6
CONTINUOUS
 62
     7
 10
119.9619806966
 20
246.3129608886
 30
0.0
  0
VERTEX
  5
5A6
  8
0
  6
CONTINUOUS
 62
     7
 10
114.6111584863
 20
245.7263677375
 30
0.0
  0
VERTEX
  5
5A7
  8
0
  6
CONTINUOUS
 62
     7
 10
109.2450000008
 20
245.22836497
 30
0.0
  0
VERTEX
  5
5A8
  8
0
  6
CONTINUOUS
 62
     7
 10
103.8527466019
 20
244.8312132614
 30
0.0
  0
VERTEX
  5
5A9
  8
0
  6
CONTINUOUS
 62
     7
 10
98.4496570786
 20
244.5462315338
 30
0.0
  0
VERTEX
  5
5AA
  8
0
  6
CONTINUOUS
 62
     7
 10
92.5481654366
 20
244.3725674407
 30
0.0
  0
VERTEX
  5
5AB
  8
0
  6
CONTINUOUS
 62
     7
 10
86.6430140694
 20
244.3462341087
 30
0.0
  0
VERTEX
  5
5AC
  8
0
  6
CONTINUOUS
 62
     7
 10
80.7178474625
 20
244.469508435
 30
0.0
  0
VERTEX
  5
5AD
  8
0
  6
CONTINUOUS
 62
     7
 10
74.7998095712
 20
244.7382776992
 30
0.0
  0
VERTEX
  5
5AE
  8
0
  6
CONTINUOUS
 62
     7
 10
70.3785158357
 20
245.0302927749
 30
0.0
  0
VERTEX
  5
5AF
  8
0
  6
CONTINUOUS
 62
     7
 10
65.9655786713
 20
245.3941910522
 30
0.0
  0
VERTEX
  5
5B0
  8
0
  6
CONTINUOUS
 62
     7
 10
61.555335637
 20
245.8244114177
 30
0.0
  0
VERTEX
  5
5B1
  8
0
  6
CONTINUOUS
 62
     7
 10
57.1556545457
 20
246.3129608886
 30
0.0
  0
SEQEND
  5
777
  8
0
  6
CONTINUOUS
 62
     7
  0
POLYLINE
  5
9F
  8
0
  6
CONTINUOUS
 62
     7
 66
     1
 10
0.0
 20
0.0
 30
0.0
  0
VERTEX
  5
5B2
  8
0
  6
CONTINUOUS
 62
     7
 10
51.06701624
 20
249.6907859104
 30
0.0
  0
VERTEX
  5
5B3
  8
0
  6
CONTINUOUS
 62
     7
 10
51.141355153
 20
249.4561283843
 30
0.0
  0
VERTEX
  5
5B4
  8
0
  6
CONTINUOUS
 62
     7
 10
51.3985968789
 20
249.1307227867
 30
0.0
  0
VERTEX
  5
5B5
  8
0
  6
CONTINUOUS
 62
     7
 10
51.8083549699
 20
248.7370937126
 30
0.0
  0
VERTEX
  5
5B6
  8
0
  6
CONTINUOUS
 62
     7
 10
52.3761130532
 20
248.2732742088
 30
0.0
  0
VERTEX
  5
5B7
  8
0
  6
CONTINUOUS
 62
     7
 10
53.1088448724
 20
247.7670340793
 30
0.0
  0
VERTEX
  5
5B8
  8
0
  6
CONTINUOUS
 62
     7
 10
54.0050364694
 20
247.2624330776
 30
0.0
  0
VERTEX
  5
5B9
  8
0
  6
CONTINUOUS
 62
     7
 10
54.8851467332
 20
246.8748896377
 30
0.0
  0
VERTEX
  5
5BA
  8
0
  6
CONTINUOUS
 62
     7
 10
55.882880803
 20
246.5535669582
 30
0.0
  0
VERTEX
  5
5BB
  8
0
  6
CONTINUOUS
 62
     7
 10
56.5056897363
 20
246.4127986686
 30
0.0
  0
VERTEX
  5
5BC
  8
0
  6
CONTINUOUS
 62
     7
 10
57.1556545457
 20
246.3129608886
 30
0.0
  0
SEQEND
  5
776
  8
0
  6
CONTINUOUS
 62
     7
  0
POLYLINE
  5
A0
  8
0
  6
CONTINUOUS
 62
     7
 66
     1
 10
0.0
 20
0.0
 30
0.0
  0
VERTEX
  5
5BD
  8
0
  6
CONTINUOUS
 62
     7
 10
51.06701624
 20
249.6907918708
 30
0.0
  0
VERTEX
  5
5BE
  8
0
  6
CONTINUOUS
 62
     7
 10
51.0953284463
 20
249.9871282833
 30
0.0
  0
VERTEX
  5
5BF
  8
0
  6
CONTINUOUS
 62
     7
 10
51.1111594399
 20
250.1118033187
 30
0.0
  0
SEQEND
  5
775
  8
0
  6
CONTINUOUS
 62
     7
  0
POLYLINE
  5
A1
  8
0
  6
CONTINUOUS
 62
     7
 66
     1
 10
0.0
 20
0.0
 30
0.0
  0
VERTEX
  5
5C0
  8
0
  6
CONTINUOUS
 62
     7
 10
51.1565304955
 20
250.2097933547
 30
0.0
  0
VERTEX
  5
5C1
  8
0
  6
CONTINUOUS
 62
     7
 10
51.1666394433
 20
250.2544372337
 30
0.0
  0
VERTEX
  5
5C2
  8
0
  6
CONTINUOUS
 62
     7
 10
51.2126303872
 20
250.3601520316
 30
0.0
  0
VERTEX
  5
5C3
  8
0
  6
CONTINUOUS
 62
     7
 10
51.2104726991
 20
250.4070132034
 30
0.0
  0
VERTEX
  5
5C4
  8
0
  6
CONTINUOUS
 62
     7
 10
51.1833764275
 20
250.4598646419
 30
0.0
  0
VERTEX
  5
5C5
  8
0
  6
CONTINUOUS
 62
     7
 10
51.1802054604
 20
250.5174188869
 30
0.0
  0
VERTEX
  5
5C6
  8
0
  6
CONTINUOUS
 62
     7
 10
51.2619591912
 20
250.5758493202
 30
0.0
  0
VERTEX
  5
5C7
  8
0
  6
CONTINUOUS
 62
     7
 10
51.4767147263
 20
250.6324618118
 30
0.0
  0
VERTEX
  5
5C8
  8
0
  6
CONTINUOUS
 62
     7
 10
51.8342353066
 20
250.6881921546
 30
0.0
  0
VERTEX
  5
5C9
  8
0
  6
CONTINUOUS
 62
     7
 10
52.4354077538
 20
250.7427304046
 30
0.0
  0
VERTEX
  5
5CA
  8
0
  6
CONTINUOUS
 62
     7
 10
53.3524728974
 20
250.7975428359
 30
0.0
  0
SEQEND
  5
774
  8
0
  6
CONTINUOUS
 62
     7
  0
LINE
  5
A2
  8
0
  6
CONTINUOUS
 62
     7
 10
126.1588193139
 20
249.232593085
 30
0.0
 11
126.1588193139
 21
249.5382933872
 31
0.0
  0
LINE
  5
A3
  8
0
  6
CONTINUOUS
 62
     7
 10
50.9588218888
 20
249.0575461643
 30
0.0
 11
50.9588218888
 21
248.883083369
 31
0.0
  0
LINE
  5
A4
  8
0
  6
CONTINUOUS
 62
     7
 10
50.9588218888
 20
249.5281009929
 30
0.0
 11
50.9588218888
 21
249.232593085
 31
0.0
  0
LINE
  5
A5
  8
0
  6
CONTINUOUS
 62
     7
 10
291.6588164529
 20
246.1856394069
 30
0.0
 11
291.6588164529
 21
247.4971800105
 31
0.0
  0
LINE
  5
A6
  8
0
  6
CONTINUOUS
 62
     7
 10
290.8588207921
 20
247.4367945449
 30
0.0
 11
290.8588207921
 21
246.1856394069
 31
0.0
  0
ARC
  5
A7
  8
0
  6
CONTINUOUS
 62
     7
 10
291.8588194093
 20
247.4367938414
 30
0.0
 40
1.0
 50
138.1768700679
 51
180.0
  0
LINE
  5
A8
  8
0
  6
CONTINUOUS
 62
     7
 10
291.6588164529
 20
246.1856394069
 30
0.0
 11
291.6588164529
 21
244.2209332244
 31
0.0
  0
LINE
  5
A9
  8
0
  6
CONTINUOUS
 62
     7
 10
290.8588207921
 20
244.2209332244
 30
0.0
 11
290.8588207921
 21
246.1856394069
 31
0.0
  0
LINE
  5
AA
  8
0
  6
CONTINUOUS
 62
     7
 10
291.6588164529
 20
244.2209332244
 30
0.0
 11
291.6588164529
 21
238.3986799972
 31
0.0
  0
LINE
  5
AB
  8
0
  6
CONTINUOUS
 62
     7
 10
290.8588207921
 20
238.3986799972
 30
0.0
 11
290.8588207921
 21
244.2209332244
 31
0.0
  0
LINE
  5
AC
  8
0
  6
CONTINUOUS
 62
     7
 10
291.6588164529
 20
238.1340890186
 30
0.0
 11
291.6588164529
 21
238.3986799972
 31
0.0
  0
LINE
  5
AD
  8
0
  6
CONTINUOUS
 62
     7
 10
290.8588207921
 20
238.3986799972
 30
0.0
 11
290.8588207921
 21
238.1340890186
 31
0.0
  0
LINE
  5
AE
  8
0
  6
CONTINUOUS
 62
     7
 10
291.6588164529
 20
238.1340890186
 30
0.0
 11
291.6588164529
 21
236.241719033
 31
0.0
  0
LINE
  5
AF
  8
0
  6
CONTINUOUS
 62
     7
 10
290.8588207921
 20
236.241719033
 30
0.0
 11
290.8588207921
 21
238.1340890186
 31
0.0
  0
LINE
  5
B0
  8
0
  6
CONTINUOUS
 62
     7
 10
291.6588164529
 20
236.241719033
 30
0.0
 11
291.6588164529
 21
232.8297465103
 31
0.0
  0
LINE
  5
B1
  8
0
  6
CONTINUOUS
 62
     7
 10
290.8588207921
 20
232.8297465103
 30
0.0
 11
290.8588207921
 21
236.241719033
 31
0.0
  0
LINE
  5
B2
  8
0
  6
CONTINUOUS
 62
     7
 10
291.6588164529
 20
228.9340107696
 30
0.0
 11
290.8588207921
 21
228.9340107696
 31
0.0
  0
LINE
  5
B3
  8
0
  6
CONTINUOUS
 62
     7
 10
291.6588164529
 20
230.9340088622
 30
0.0
 11
291.6588164529
 21
228.9340107696
 31
0.0
  0
LINE
  5
B4
  8
0
  6
CONTINUOUS
 62
     7
 10
290.8588207921
 20
228.9340107696
 30
0.0
 11
290.8588207921
 21
230.9340088622
 31
0.0
  0
LINE
  5
B5
  8
0
  6
CONTINUOUS
 62
     7
 10
291.6588164529
 20
232.8297465103
 30
0.0
 11
291.6588164529
 21
230.9340088622
 31
0.0
  0
LINE
  5
B6
  8
0
  6
CONTINUOUS
 62
     7
 10
290.8588207921
 20
230.9340088622
 30
0.0
 11
290.8588207921
 21
232.8297465103
 31
0.0
  0
ARC
  5
B7
  8
0
  6
CONTINUOUS
 62
     7
 10
288.0588194093
 20
224.3340079086
 30
0.0
 40
2.0
 50
180.0
 51
270.0
  0
LINE
  5
B8
  8
0
  6
CONTINUOUS
 62
     7
 10
286.0588170251
 20
231.7340104835
 30
0.0
 11
286.0588170251
 21
224.3340103881
 31
0.0
  0
LINE
  5
B9
  8
0
  6
CONTINUOUS
 62
     7
 10
296.0588194093
 20
231.7340104835
 30
0.0
 11
296.0588194093
 21
224.3340103881
 31
0.0
  0
ARC
  5
BA
  8
0
  6
CONTINUOUS
 62
     7
 10
294.0588194093
 20
224.3340079086
 30
0.0
 40
2.0
 50
270.0
 51
0.0
  0
LINE
  5
BB
  8
0
  6
CONTINUOUS
 62
     7
 10
294.0588213166
 20
222.334006335
 30
0.0
 11
288.0588210782
 21
222.334006335
 31
0.0
  0
LINE
  5
BC
  8
0
  6
CONTINUOUS
 62
     7
 10
290.8588207921
 20
232.7340095298
 30
0.0
 11
286.0588170251
 21
232.7340095298
 31
0.0
  0
LINE
  5
BD
  8
0
  6
CONTINUOUS
 62
     7
 10
286.0588170251
 20
232.7340095298
 30
0.0
 11
286.0588170251
 21
231.7340104835
 31
0.0
  0
LINE
  5
BE
  8
0
  6
CONTINUOUS
 62
     7
 10
296.0588194093
 20
232.7340095298
 30
0.0
 11
291.6588164529
 21
232.7340095298
 31
0.0
  0
LINE
  5
BF
  8
0
  6
CONTINUOUS
 62
     7
 10
296.0588194093
 20
232.7340095298
 30
0.0
 11
296.0588194093
 21
231.7340104835
 31
0.0
  0
LINE
  5
C0
  8
0
  6
CONTINUOUS
 62
     7
 10
171.6588206252
 20
246.1856394069
 30
0.0
 11
171.6588206252
 21
247.4971800105
 31
0.0
  0
LINE
  5
C1
  8
0
  6
CONTINUOUS
 62
     7
 10
170.8588190039
 20
247.4367945449
 30
0.0
 11
170.8588190039
 21
246.1856394069
 31
0.0
  0
ARC
  5
C2
  8
0
  6
CONTINUOUS
 62
     7
 10
171.8588194093
 20
247.4367938414
 30
0.0
 40
1.0
 50
138.1768700679
 51
180.0
  0
LINE
  5
C3
  8
0
  6
CONTINUOUS
 62
     7
 10
171.6588206252
 20
246.1856394069
 30
0.0
 11
171.6588206252
 21
244.2209332244
 31
0.0
  0
LINE
  5
C4
  8
0
  6
CONTINUOUS
 62
     7
 10
170.8588190039
 20
244.2209332244
 30
0.0
 11
170.8588190039
 21
246.1856394069
 31
0.0
  0
LINE
  5
C5
  8
0
  6
CONTINUOUS
 62
     7
 10
170.8588190039
 20
238.3986799972
 30
0.0
 11
170.8588190039
 21
244.2209332244
 31
0.0
  0
LINE
  5
C6
  8
0
  6
CONTINUOUS
 62
     7
 10
171.6588206252
 20
244.2209332244
 30
0.0
 11
171.6588206252
 21
238.3986799972
 31
0.0
  0
LINE
  5
C7
  8
0
  6
CONTINUOUS
 62
     7
 10
170.8588190039
 20
238.3986799972
 30
0.0
 11
170.8588190039
 21
238.1340890186
 31
0.0
  0
LINE
  5
C8
  8
0
  6
CONTINUOUS
 62
     7
 10
171.6588206252
 20
238.1340890186
 30
0.0
 11
171.6588206252
 21
238.3986799972
 31
0.0
  0
LINE
  5
C9
  8
0
  6
CONTINUOUS
 62
     7
 10
170.8588190039
 20
236.241719033
 30
0.0
 11
170.8588190039
 21
238.1340890186
 31
0.0
  0
LINE
  5
CA
  8
0
  6
CONTINUOUS
 62
     7
 10
171.6588206252
 20
238.1340890186
 30
0.0
 11
171.6588206252
 21
236.241719033
 31
0.0
  0
LINE
  5
CB
  8
0
  6
CONTINUOUS
 62
     7
 10
170.8588190039
 20
232.8297465103
 30
0.0
 11
170.8588190039
 21
236.241719033
 31
0.0
  0
LINE
  5
CC
  8
0
  6
CONTINUOUS
 62
     7
 10
171.6588206252
 20
236.241719033
 30
0.0
 11
171.6588206252
 21
232.8297465103
 31
0.0
  0
LINE
  5
CD
  8
0
  6
CONTINUOUS
 62
     7
 10
171.6588206252
 20
228.9340107696
 30
0.0
 11
170.8588190039
 21
228.9340107696
 31
0.0
  0
LINE
  5
CE
  8
0
  6
CONTINUOUS
 62
     7
 10
170.8588190039
 20
228.9340107696
 30
0.0
 11
170.8588190039
 21
230.9340088622
 31
0.0
  0
LINE
  5
CF
  8
0
  6
CONTINUOUS
 62
     7
 10
171.6588206252
 20
230.9340088622
 30
0.0
 11
171.6588206252
 21
228.9340107696
 31
0.0
  0
LINE
  5
D0
  8
0
  6
CONTINUOUS
 62
     7
 10
170.8588190039
 20
230.9340088622
 30
0.0
 11
170.8588190039
 21
232.8297465103
 31
0.0
  0
LINE
  5
D1
  8
0
  6
CONTINUOUS
 62
     7
 10
171.6588206252
 20
232.8297465103
 30
0.0
 11
171.6588206252
 21
230.9340088622
 31
0.0
  0
LINE
  5
D2
  8
0
  6
CONTINUOUS
 62
     7
 10
166.0588182172
 20
231.7340104835
 30
0.0
 11
166.0588182172
 21
224.3340103881
 31
0.0
  0
LINE
  5
D3
  8
0
  6
CONTINUOUS
 62
     7
 10
176.0588206014
 20
231.7340104835
 30
0.0
 11
176.0588206014
 21
224.3340103881
 31
0.0
  0
ARC
  5
D4
  8
0
  6
CONTINUOUS
 62
     7
 10
174.0588194093
 20
224.3340079086
 30
0.0
 40
2.0
 50
270.0
 51
0.0
  0
LINE
  5
D5
  8
0
  6
CONTINUOUS
 62
     7
 10
174.0588195285
 20
222.334006335
 30
0.0
 11
168.0588192901
 21
222.334006335
 31
0.0
  0
ARC
  5
D6
  8
0
  6
CONTINUOUS
 62
     7
 10
168.0588194093
 20
224.3340079086
 30
0.0
 40
2.0
 50
180.0
 51
270.0
  0
LINE
  5
D7
  8
0
  6
CONTINUOUS
 62
     7
 10
176.0588206014
 20
232.7340095298
 30
0.0
 11
171.6588206252
 21
232.7340095298
 31
0.0
  0
LINE
  5
D8
  8
0
  6
CONTINUOUS
 62
     7
 10
176.0588206014
 20
232.7340095298
 30
0.0
 11
176.0588206014
 21
231.7340104835
 31
0.0
  0
LINE
  5
D9
  8
0
  6
CONTINUOUS
 62
     7
 10
170.8588190039
 20
232.7340095298
 30
0.0
 11
166.0588182172
 21
232.7340095298
 31
0.0
  0
LINE
  5
DA
  8
0
  6
CONTINUOUS
 62
     7
 10
166.0588182172
 20
232.7340095298
 30
0.0
 11
166.0588182172
 21
231.7340104835
 31
0.0
  0
LINE
  5
DB
  8
0
  6
CONTINUOUS
 62
     7
 10
51.6588188371
 20
246.1856394069
 30
0.0
 11
51.6588188371
 21
247.4971800105
 31
0.0
  0
LINE
  5
DC
  8
0
  6
CONTINUOUS
 62
     7
 10
50.8588172158
 20
247.4367945449
 30
0.0
 11
50.8588172158
 21
246.1856394069
 31
0.0
  0
ARC
  5
DD
  8
0
  6
CONTINUOUS
 62
     7
 10
51.8588194093
 20
247.4367938414
 30
0.0
 40
1.0
 50
138.1768700679
 51
180.0
  0
LINE
  5
DE
  8
0
  6
CONTINUOUS
 62
     7
 10
51.6588188371
 20
246.1856394069
 30
0.0
 11
51.6588188371
 21
244.2209332244
 31
0.0
  0
LINE
  5
DF
  8
0
  6
CONTINUOUS
 62
     7
 10
50.8588172158
 20
244.2209332244
 30
0.0
 11
50.8588172158
 21
246.1856394069
 31
0.0
  0
LINE
  5
E0
  8
0
  6
CONTINUOUS
 62
     7
 10
51.6588188371
 20
244.2209332244
 30
0.0
 11
51.6588188371
 21
238.3986799972
 31
0.0
  0
LINE
  5
E1
  8
0
  6
CONTINUOUS
 62
     7
 10
50.8588172158
 20
238.3986799972
 30
0.0
 11
50.8588172158
 21
244.2209332244
 31
0.0
  0
LINE
  5
E2
  8
0
  6
CONTINUOUS
 62
     7
 10
51.6588188371
 20
238.1340890186
 30
0.0
 11
51.6588188371
 21
238.3986799972
 31
0.0
  0
LINE
  5
E3
  8
0
  6
CONTINUOUS
 62
     7
 10
50.8588172158
 20
238.3986799972
 30
0.0
 11
50.8588172158
 21
238.1340890186
 31
0.0
  0
LINE
  5
E4
  8
0
  6
CONTINUOUS
 62
     7
 10
51.6588188371
 20
238.1340890186
 30
0.0
 11
51.6588188371
 21
236.241719033
 31
0.0
  0
LINE
  5
E5
  8
0
  6
CONTINUOUS
 62
     7
 10
50.8588172158
 20
236.241719033
 30
0.0
 11
50.8588172158
 21
238.1340890186
 31
0.0
  0
LINE
  5
E6
  8
0
  6
CONTINUOUS
 62
     7
 10
51.6588188371
 20
236.241719033
 30
0.0
 11
51.6588188371
 21
232.8297465103
 31
0.0
  0
LINE
  5
E7
  8
0
  6
CONTINUOUS
 62
     7
 10
50.8588172158
 20
232.8297465103
 30
0.0
 11
50.8588172158
 21
236.241719033
 31
0.0
  0
LINE
  5
E8
  8
0
  6
CONTINUOUS
 62
     7
 10
51.6588188371
 20
232.8297465103
 30
0.0
 11
51.6588188371
 21
230.9340088622
 31
0.0
  0
LINE
  5
E9
  8
0
  6
CONTINUOUS
 62
     7
 10
50.8588172158
 20
230.9340088622
 30
0.0
 11
50.8588172158
 21
232.8297465103
 31
0.0
  0
LINE
  5
EA
  8
0
  6
CONTINUOUS
 62
     7
 10
51.6588188371
 20
228.9340107696
 30
0.0
 11
50.8588172158
 21
228.9340107696
 31
0.0
  0
LINE
  5
EB
  8
0
  6
CONTINUOUS
 62
     7
 10
51.6588188371
 20
230.9340088622
 30
0.0
 11
51.6588188371
 21
228.9340107696
 31
0.0
  0
LINE
  5
EC
  8
0
  6
CONTINUOUS
 62
     7
 10
50.8588172158
 20
228.9340107696
 30
0.0
 11
50.8588172158
 21
230.9340088622
 31
0.0
  0
ARC
  5
ED
  8
0
  6
CONTINUOUS
 62
     7
 10
48.0588194093
 20
224.3340079086
 30
0.0
 40
2.000000000000007
 50
180.0
 51
270.0
  0
LINE
  5
EE
  8
0
  6
CONTINUOUS
 62
     7
 10
46.0588194093
 20
231.7340104835
 30
0.0
 11
46.0588194093
 21
224.3340103881
 31
0.0
  0
LINE
  5
EF
  8
0
  6
CONTINUOUS
 62
     7
 10
56.0588217934
 20
231.7340104835
 30
0.0
 11
56.0588217934
 21
224.3340103881
 31
0.0
  0
ARC
  5
F0
  8
0
  6
CONTINUOUS
 62
     7
 10
54.0588194093
 20
224.3340079086
 30
0.0
 40
2.000000000000007
 50
270.0
 51
0.0
  0
LINE
  5
F1
  8
0
  6
CONTINUOUS
 62
     7
 10
54.0588237008
 20
222.334006335
 30
0.0
 11
48.0588175019
 21
222.334006335
 31
0.0
  0
LINE
  5
F2
  8
0
  6
CONTINUOUS
 62
     7
 10
56.0588217934
 20
232.7340095298
 30
0.0
 11
51.6588188371
 21
232.7340095298
 31
0.0
  0
LINE
  5
F3
  8
0
  6
CONTINUOUS
 62
     7
 10
56.0588217934
 20
232.7340095298
 30
0.0
 11
56.0588217934
 21
231.7340104835
 31
0.0
  0
LINE
  5
F4
  8
0
  6
CONTINUOUS
 62
     7
 10
50.8588172158
 20
232.7340095298
 30
0.0
 11
46.0588194093
 21
232.7340095298
 31
0.0
  0
LINE
  5
F5
  8
0
  6
CONTINUOUS
 62
     7
 10
46.0588194093
 20
232.7340095298
 30
0.0
 11
46.0588194093
 21
231.7340104835
 31
0.0
  0
ARC
  5
F6
  8
0
  6
CONTINUOUS
 62
     7
 10
365.2588194093
 20
247.4367938414
 30
0.0
 40
1.0
 50
0.0
 51
42.1872028391
  0
LINE
  5
F7
  8
0
  6
CONTINUOUS
 62
     7
 10
366.2588216027
 20
247.4367945449
 30
0.0
 11
366.2588216027
 21
246.1856394069
 31
0.0
  0
LINE
  5
F8
  8
0
  6
CONTINUOUS
 62
     7
 10
365.4588199815
 20
246.1856394069
 30
0.0
 11
365.4588199815
 21
247.4894314067
 31
0.0
  0
LINE
  5
F9
  8
0
  6
CONTINUOUS
 62
     7
 10
366.2588216027
 20
244.2209332244
 30
0.0
 11
366.2588216027
 21
246.1856394069
 31
0.0
  0
LINE
  5
FA
  8
0
  6
CONTINUOUS
 62
     7
 10
365.4588199815
 20
246.1856394069
 30
0.0
 11
365.4588199815
 21
244.2209332244
 31
0.0
  0
LINE
  5
FB
  8
0
  6
CONTINUOUS
 62
     7
 10
366.2588216027
 20
238.3986799972
 30
0.0
 11
366.2588216027
 21
244.2209332244
 31
0.0
  0
LINE
  5
FC
  8
0
  6
CONTINUOUS
 62
     7
 10
365.4588199815
 20
244.2209332244
 30
0.0
 11
365.4588199815
 21
238.3986799972
 31
0.0
  0
LINE
  5
FD
  8
0
  6
CONTINUOUS
 62
     7
 10
366.2588216027
 20
238.3986799972
 30
0.0
 11
366.2588216027
 21
238.1340890186
 31
0.0
  0
LINE
  5
FE
  8
0
  6
CONTINUOUS
 62
     7
 10
365.4588199815
 20
238.1340890186
 30
0.0
 11
365.4588199815
 21
238.3986799972
 31
0.0
  0
LINE
  5
FF
  8
0
  6
CONTINUOUS
 62
     7
 10
366.2588216027
 20
236.241719033
 30
0.0
 11
366.2588216027
 21
238.1340890186
 31
0.0
  0
LINE
  5
100
  8
0
  6
CONTINUOUS
 62
     7
 10
365.4588199815
 20
238.1340890186
 30
0.0
 11
365.4588199815
 21
236.241719033
 31
0.0
  0
LINE
  5
101
  8
0
  6
CONTINUOUS
 62
     7
 10
366.2588216027
 20
232.8297465103
 30
0.0
 11
366.2588216027
 21
236.241719033
 31
0.0
  0
LINE
  5
102
  8
0
  6
CONTINUOUS
 62
     7
 10
365.4588199815
 20
236.241719033
 30
0.0
 11
365.4588199815
 21
232.8297465103
 31
0.0
  0
LINE
  5
103
  8
0
  6
CONTINUOUS
 62
     7
 10
365.4588199815
 20
228.9340107696
 30
0.0
 11
366.2588216027
 21
228.9340107696
 31
0.0
  0
LINE
  5
104
  8
0
  6
CONTINUOUS
 62
     7
 10
366.2588216027
 20
228.9340107696
 30
0.0
 11
366.2588216027
 21
230.9340088622
 31
0.0
  0
LINE
  5
105
  8
0
  6
CONTINUOUS
 62
     7
 10
365.4588199815
 20
230.9340088622
 30
0.0
 11
365.4588199815
 21
228.9340107696
 31
0.0
  0
LINE
  5
106
  8
0
  6
CONTINUOUS
 62
     7
 10
366.2588216027
 20
230.9340088622
 30
0.0
 11
366.2588216027
 21
232.8297465103
 31
0.0
  0
LINE
  5
107
  8
0
  6
CONTINUOUS
 62
     7
 10
365.4588199815
 20
232.8297465103
 30
0.0
 11
365.4588199815
 21
230.9340088622
 31
0.0
  0
ARC
  5
108
  8
0
  6
CONTINUOUS
 62
     7
 10
363.0588194093
 20
224.3340079086
 30
0.0
 40
2.0
 50
180.0
 51
270.0
  0
LINE
  5
109
  8
0
  6
CONTINUOUS
 62
     7
 10
361.0588170251
 20
231.7340104835
 30
0.0
 11
361.0588170251
 21
224.3340103881
 31
0.0
  0
LINE
  5
10A
  8
0
  6
CONTINUOUS
 62
     7
 10
371.0588194093
 20
231.7340104835
 30
0.0
 11
371.0588194093
 21
224.3340103881
 31
0.0
  0
LINE
  5
10B
  8
0
  6
CONTINUOUS
 62
     7
 10
363.0588151177
 20
222.334006335
 30
0.0
 11
369.0588213166
 21
222.334006335
 31
0.0
  0
ARC
  5
10C
  8
0
  6
CONTINUOUS
 62
     7
 10
369.0588194093
 20
224.3340079086
 30
0.0
 40
2.0
 50
270.0
 51
0.0
  0
LINE
  5
10D
  8
0
  6
CONTINUOUS
 62
     7
 10
361.0588170251
 20
232.7340095298
 30
0.0
 11
365.4588199815
 21
232.7340095298
 31
0.0
  0
LINE
  5
10E
  8
0
  6
CONTINUOUS
 62
     7
 10
361.0588170251
 20
232.7340095298
 30
0.0
 11
361.0588170251
 21
231.7340104835
 31
0.0
  0
LINE
  5
10F
  8
0
  6
CONTINUOUS
 62
     7
 10
366.2588216027
 20
232.7340095298
 30
0.0
 11
371.0588194093
 21
232.7340095298
 31
0.0
  0
LINE
  5
110
  8
0
  6
CONTINUOUS
 62
     7
 10
371.0588194093
 20
232.7340095298
 30
0.0
 11
371.0588194093
 21
231.7340104835
 31
0.0
  0
ARC
  5
111
  8
0
  6
CONTINUOUS
 62
     7
 10
245.2588194093
 20
247.4367938414
 30
0.0
 40
1.0
 50
0.0
 51
42.1872028391
  0
LINE
  5
112
  8
0
  6
CONTINUOUS
 62
     7
 10
246.2588198146
 20
247.4367945449
 30
0.0
 11
246.2588198146
 21
246.1856394069
 31
0.0
  0
LINE
  5
113
  8
0
  6
CONTINUOUS
 62
     7
 10
245.4588181933
 20
246.1856394069
 30
0.0
 11
245.4588181933
 21
247.4894314067
 31
0.0
  0
LINE
  5
114
  8
0
  6
CONTINUOUS
 62
     7
 10
245.4588181933
 20
246.1856394069
 30
0.0
 11
245.4588181933
 21
244.2209332244
 31
0.0
  0
LINE
  5
115
  8
0
  6
CONTINUOUS
 62
     7
 10
246.2588198146
 20
244.2209332244
 30
0.0
 11
246.2588198146
 21
246.1856394069
 31
0.0
  0
LINE
  5
116
  8
0
  6
CONTINUOUS
 62
     7
 10
246.2588198146
 20
238.3986799972
 30
0.0
 11
246.2588198146
 21
244.2209332244
 31
0.0
  0
LINE
  5
117
  8
0
  6
CONTINUOUS
 62
     7
 10
245.4588181933
 20
244.2209332244
 30
0.0
 11
245.4588181933
 21
238.3986799972
 31
0.0
  0
LINE
  5
118
  8
0
  6
CONTINUOUS
 62
     7
 10
246.2588198146
 20
238.3986799972
 30
0.0
 11
246.2588198146
 21
238.1340890186
 31
0.0
  0
LINE
  5
119
  8
0
  6
CONTINUOUS
 62
     7
 10
245.4588181933
 20
238.1340890186
 30
0.0
 11
245.4588181933
 21
238.3986799972
 31
0.0
  0
LINE
  5
11A
  8
0
  6
CONTINUOUS
 62
     7
 10
246.2588198146
 20
236.241719033
 30
0.0
 11
246.2588198146
 21
238.1340890186
 31
0.0
  0
LINE
  5
11B
  8
0
  6
CONTINUOUS
 62
     7
 10
245.4588181933
 20
238.1340890186
 30
0.0
 11
245.4588181933
 21
236.241719033
 31
0.0
  0
LINE
  5
11C
  8
0
  6
CONTINUOUS
 62
     7
 10
246.2588198146
 20
232.8297465103
 30
0.0
 11
246.2588198146
 21
236.241719033
 31
0.0
  0
LINE
  5
11D
  8
0
  6
CONTINUOUS
 62
     7
 10
245.4588181933
 20
236.241719033
 30
0.0
 11
245.4588181933
 21
232.8297465103
 31
0.0
  0
LINE
  5
11E
  8
0
  6
CONTINUOUS
 62
     7
 10
246.2588198146
 20
230.9340088622
 30
0.0
 11
246.2588198146
 21
232.8297465103
 31
0.0
  0
LINE
  5
11F
  8
0
  6
CONTINUOUS
 62
     7
 10
245.4588181933
 20
232.8297465103
 30
0.0
 11
245.4588181933
 21
230.9340088622
 31
0.0
  0
LINE
  5
120
  8
0
  6
CONTINUOUS
 62
     7
 10
245.4588181933
 20
228.9340107696
 30
0.0
 11
246.2588198146
 21
228.9340107696
 31
0.0
  0
LINE
  5
121
  8
0
  6
CONTINUOUS
 62
     7
 10
246.2588198146
 20
228.9340107696
 30
0.0
 11
246.2588198146
 21
230.9340088622
 31
0.0
  0
LINE
  5
122
  8
0
  6
CONTINUOUS
 62
     7
 10
245.4588181933
 20
230.9340088622
 30
0.0
 11
245.4588181933
 21
228.9340107696
 31
0.0
  0
LINE
  5
123
  8
0
  6
CONTINUOUS
 62
     7
 10
241.0588182172
 20
231.7340104835
 30
0.0
 11
241.0588182172
 21
224.3340103881
 31
0.0
  0
LINE
  5
124
  8
0
  6
CONTINUOUS
 62
     7
 10
251.0588206014
 20
231.7340104835
 30
0.0
 11
251.0588206014
 21
224.3340103881
 31
0.0
  0
LINE
  5
125
  8
0
  6
CONTINUOUS
 62
     7
 10
243.0588192901
 20
222.334006335
 30
0.0
 11
249.0588195285
 21
222.334006335
 31
0.0
  0
ARC
  5
126
  8
0
  6
CONTINUOUS
 62
     7
 10
249.0588194093
 20
224.3340079086
 30
0.0
 40
2.0
 50
270.0
 51
0.0
  0
ARC
  5
127
  8
0
  6
CONTINUOUS
 62
     7
 10
243.0588194093
 20
224.3340079086
 30
0.0
 40
2.0
 50
180.0
 51
270.0
  0
LINE
  5
128
  8
0
  6
CONTINUOUS
 62
     7
 10
246.2588198146
 20
232.7340095298
 30
0.0
 11
251.0588206014
 21
232.7340095298
 31
0.0
  0
LINE
  5
129
  8
0
  6
CONTINUOUS
 62
     7
 10
251.0588206014
 20
232.7340095298
 30
0.0
 11
251.0588206014
 21
231.7340104835
 31
0.0
  0
LINE
  5
12A
  8
0
  6
CONTINUOUS
 62
     7
 10
241.0588182172
 20
232.7340095298
 30
0.0
 11
245.4588181933
 21
232.7340095298
 31
0.0
  0
LINE
  5
12B
  8
0
  6
CONTINUOUS
 62
     7
 10
241.0588182172
 20
232.7340095298
 30
0.0
 11
241.0588182172
 21
231.7340104835
 31
0.0
  0
ARC
  5
12C
  8
0
  6
CONTINUOUS
 62
     7
 10
125.2588194093
 20
247.4367938414
 30
0.0
 40
1.0
 50
0.0
 51
42.1872028391
  0
LINE
  5
12D
  8
0
  6
CONTINUOUS
 62
     7
 10
126.2588180264
 20
247.4367945449
 30
0.0
 11
126.2588180264
 21
246.1856394069
 31
0.0
  0
LINE
  5
12E
  8
0
  6
CONTINUOUS
 62
     7
 10
125.4588223657
 20
246.1856394069
 30
0.0
 11
125.4588223657
 21
247.4894314067
 31
0.0
  0
LINE
  5
12F
  8
0
  6
CONTINUOUS
 62
     7
 10
125.4588223657
 20
246.1856394069
 30
0.0
 11
125.4588223657
 21
244.2209332244
 31
0.0
  0
LINE
  5
130
  8
0
  6
CONTINUOUS
 62
     7
 10
126.2588180264
 20
244.2209332244
 30
0.0
 11
126.2588180264
 21
246.1856394069
 31
0.0
  0
LINE
  5
131
  8
0
  6
CONTINUOUS
 62
     7
 10
125.4588223657
 20
244.2209332244
 30
0.0
 11
125.4588223657
 21
238.3986799972
 31
0.0
  0
LINE
  5
132
  8
0
  6
CONTINUOUS
 62
     7
 10
126.2588180264
 20
238.3986799972
 30
0.0
 11
126.2588180264
 21
244.2209332244
 31
0.0
  0
LINE
  5
133
  8
0
  6
CONTINUOUS
 62
     7
 10
125.4588223657
 20
238.1340890186
 30
0.0
 11
125.4588223657
 21
238.3986799972
 31
0.0
  0
LINE
  5
134
  8
0
  6
CONTINUOUS
 62
     7
 10
126.2588180264
 20
238.3986799972
 30
0.0
 11
126.2588180264
 21
238.1340890186
 31
0.0
  0
LINE
  5
135
  8
0
  6
CONTINUOUS
 62
     7
 10
125.4588223657
 20
238.1340890186
 30
0.0
 11
125.4588223657
 21
236.241719033
 31
0.0
  0
LINE
  5
136
  8
0
  6
CONTINUOUS
 62
     7
 10
126.2588180264
 20
236.241719033
 30
0.0
 11
126.2588180264
 21
238.1340890186
 31
0.0
  0
LINE
  5
137
  8
0
  6
CONTINUOUS
 62
     7
 10
125.4588223657
 20
236.241719033
 30
0.0
 11
125.4588223657
 21
232.8297465103
 31
0.0
  0
LINE
  5
138
  8
0
  6
CONTINUOUS
 62
     7
 10
126.2588180264
 20
232.8297465103
 30
0.0
 11
126.2588180264
 21
236.241719033
 31
0.0
  0
LINE
  5
139
  8
0
  6
CONTINUOUS
 62
     7
 10
125.4588223657
 20
232.8297465103
 30
0.0
 11
125.4588223657
 21
230.9340088622
 31
0.0
  0
LINE
  5
13A
  8
0
  6
CONTINUOUS
 62
     7
 10
126.2588180264
 20
230.9340088622
 30
0.0
 11
126.2588180264
 21
232.8297465103
 31
0.0
  0
LINE
  5
13B
  8
0
  6
CONTINUOUS
 62
     7
 10
125.4588223657
 20
228.9340107696
 30
0.0
 11
126.2588180264
 21
228.9340107696
 31
0.0
  0
LINE
  5
13C
  8
0
  6
CONTINUOUS
 62
     7
 10
125.4588223657
 20
230.9340088622
 30
0.0
 11
125.4588223657
 21
228.9340107696
 31
0.0
  0
LINE
  5
13D
  8
0
  6
CONTINUOUS
 62
     7
 10
126.2588180264
 20
228.9340107696
 30
0.0
 11
126.2588180264
 21
230.9340088622
 31
0.0
  0
ARC
  5
13E
  8
0
  6
CONTINUOUS
 62
     7
 10
123.0588194093
 20
224.3340079086
 30
0.0
 40
2.000000000000014
 50
180.0
 51
270.0
  0
LINE
  5
13F
  8
0
  6
CONTINUOUS
 62
     7
 10
121.0588194093
 20
231.7340104835
 30
0.0
 11
121.0588194093
 21
224.3340103881
 31
0.0
  0
LINE
  5
140
  8
0
  6
CONTINUOUS
 62
     7
 10
131.0588217934
 20
231.7340104835
 30
0.0
 11
131.0588217934
 21
224.3340103881
 31
0.0
  0
ARC
  5
141
  8
0
  6
CONTINUOUS
 62
     7
 10
129.0588194093
 20
224.3340079086
 30
0.0
 40
2.000000000000028
 50
270.0
 51
0.0
  0
LINE
  5
142
  8
0
  6
CONTINUOUS
 62
     7
 10
123.0588175019
 20
222.334006335
 30
0.0
 11
129.0588177403
 21
222.334006335
 31
0.0
  0
LINE
  5
143
  8
0
  6
CONTINUOUS
 62
     7
 10
121.0588194093
 20
232.7340095298
 30
0.0
 11
125.4588223657
 21
232.7340095298
 31
0.0
  0
LINE
  5
144
  8
0
  6
CONTINUOUS
 62
     7
 10
121.0588194093
 20
232.7340095298
 30
0.0
 11
121.0588194093
 21
231.7340104835
 31
0.0
  0
LINE
  5
145
  8
0
  6
CONTINUOUS
 62
     7
 10
126.2588180264
 20
232.7340095298
 30
0.0
 11
131.0588217934
 21
232.7340095298
 31
0.0
  0
LINE
  5
146
  8
0
  6
CONTINUOUS
 62
     7
 10
131.0588217934
 20
232.7340095298
 30
0.0
 11
131.0588217934
 21
231.7340104835
 31
0.0
  0
ARC
  5
147
  8
0
  6
CONTINUOUS
 62
     7
 10
28.5588194093
 20
272.9340079086
 30
0.0
 40
2.699999999999982
 50
0.0
 51
180.0
  0
ARC
  5
148
  8
0
  6
CONTINUOUS
 62
     7
 10
28.5588194093
 20
226.3340079086
 30
0.0
 40
2.699999999999982
 50
180.0
 51
0.0
  0
ARC
  5
149
  8
0
  6
CONTINUOUS
 62
     7
 10
32.5588194093
 20
225.1340079086
 30
0.0
 40
2.0
 50
270.0
 51
0.0
  0
LINE
  5
14A
  8
0
  6
CONTINUOUS
 62
     7
 10
32.5588203629
 20
223.1340079563
 30
0.0
 11
24.5588160714
 21
223.1340079563
 31
0.0
  0
ARC
  5
14B
  8
0
  6
CONTINUOUS
 62
     7
 10
24.5588194093
 20
225.1340079086
 30
0.0
 40
2.0
 50
180.0
 51
270.0
  0
LINE
  5
14C
  8
0
  6
CONTINUOUS
 62
     7
 10
22.5588179787
 20
231.7340104835
 30
0.0
 11
22.5588179787
 21
225.1340060489
 31
0.0
  0
LINE
  5
14D
  8
0
  6
CONTINUOUS
 62
     7
 10
34.5588184556
 20
231.7340104835
 30
0.0
 11
34.5588184556
 21
225.1340060489
 31
0.0
  0
LINE
  5
14E
  8
0
  6
CONTINUOUS
 62
     7
 10
22.5588179787
 20
231.7340104835
 30
0.0
 11
22.5588179787
 21
232.9340069549
 31
0.0
  0
LINE
  5
14F
  8
0
  6
CONTINUOUS
 62
     7
 10
22.5588179787
 20
232.9340069549
 30
0.0
 11
25.8588172158
 21
232.9340069549
 31
0.0
  0
LINE
  5
150
  8
0
  6
CONTINUOUS
 62
     7
 10
31.2588192185
 20
232.9340069549
 30
0.0
 11
34.5588184556
 21
232.9340069549
 31
0.0
  0
LINE
  5
151
  8
0
  6
CONTINUOUS
 62
     7
 10
34.5588184556
 20
232.9340069549
 30
0.0
 11
34.5588184556
 21
231.7340104835
 31
0.0
  0
ARC
  5
152
  8
0
  6
CONTINUOUS
 62
     7
 10
388.5588194093
 20
272.9340079086
 30
0.0
 40
2.699999999999989
 50
0.0
 51
180.0
  0
ARC
  5
153
  8
0
  6
CONTINUOUS
 62
     7
 10
388.5588194093
 20
226.3340079086
 30
0.0
 40
2.699999999999989
 50
180.0
 51
0.0
  0
ARC
  5
154
  8
0
  6
CONTINUOUS
 62
     7
 10
392.5588194093
 20
225.1340079086
 30
0.0
 40
2.0
 50
270.0
 51
0.0
  0
LINE
  5
155
  8
0
  6
CONTINUOUS
 62
     7
 10
392.5588227471
 20
223.1340079563
 30
0.0
 11
384.5588184556
 21
223.1340079563
 31
0.0
  0
ARC
  5
156
  8
0
  6
CONTINUOUS
 62
     7
 10
384.5588194093
 20
225.1340079086
 30
0.0
 40
2.0
 50
180.0
 51
270.0
  0
LINE
  5
157
  8
0
  6
CONTINUOUS
 62
     7
 10
382.5588203629
 20
231.7340104835
 30
0.0
 11
382.5588203629
 21
225.1340060489
 31
0.0
  0
LINE
  5
158
  8
0
  6
CONTINUOUS
 62
     7
 10
394.5588208398
 20
231.7340104835
 30
0.0
 11
394.5588208398
 21
225.1340060489
 31
0.0
  0
LINE
  5
159
  8
0
  6
CONTINUOUS
 62
     7
 10
382.5588203629
 20
232.9340069549
 30
0.0
 11
385.8588196
 21
232.9340069549
 31
0.0
  0
LINE
  5
15A
  8
0
  6
CONTINUOUS
 62
     7
 10
391.2588216027
 20
232.9340069549
 30
0.0
 11
394.5588208398
 21
232.9340069549
 31
0.0
  0
LINE
  5
15B
  8
0
  6
CONTINUOUS
 62
     7
 10
394.5588208398
 20
232.9340069549
 30
0.0
 11
394.5588208398
 21
231.7340104835
 31
0.0
  0
LINE
  5
15C
  8
0
  6
CONTINUOUS
 62
     7
 10
382.5588203629
 20
231.7340104835
 30
0.0
 11
382.5588203629
 21
232.9340069549
 31
0.0
  0
ARC
  5
15D
  8
0
  6
CONTINUOUS
 62
     7
 10
148.5588194093
 20
272.9340079086
 30
0.0
 40
2.700000000000017
 50
0.0
 51
180.0
  0
ARC
  5
15E
  8
0
  6
CONTINUOUS
 62
     7
 10
148.5588194093
 20
226.3340079086
 30
0.0
 40
2.700000000000017
 50
180.0
 51
0.0
  0
ARC
  5
15F
  8
0
  6
CONTINUOUS
 62
     7
 10
152.5588194093
 20
225.1340079086
 30
0.0
 40
2.0
 50
270.0
 51
0.0
  0
LINE
  5
160
  8
0
  6
CONTINUOUS
 62
     7
 10
152.5588191708
 20
223.1340079563
 30
0.0
 11
144.5588208398
 21
223.1340079563
 31
0.0
  0
ARC
  5
161
  8
0
  6
CONTINUOUS
 62
     7
 10
144.5588194093
 20
225.1340079086
 30
0.0
 40
2.0
 50
180.0
 51
270.0
  0
LINE
  5
162
  8
0
  6
CONTINUOUS
 62
     7
 10
142.5588167867
 20
231.7340104835
 30
0.0
 11
142.5588167867
 21
225.1340060489
 31
0.0
  0
LINE
  5
163
  8
0
  6
CONTINUOUS
 62
     7
 10
154.5588172635
 20
231.7340104835
 30
0.0
 11
154.5588172635
 21
225.1340060489
 31
0.0
  0
LINE
  5
164
  8
0
  6
CONTINUOUS
 62
     7
 10
142.5588167867
 20
231.7340104835
 30
0.0
 11
142.5588167867
 21
232.9340069549
 31
0.0
  0
LINE
  5
165
  8
0
  6
CONTINUOUS
 62
     7
 10
142.5588167867
 20
232.9340069549
 30
0.0
 11
145.8588219842
 21
232.9340069549
 31
0.0
  0
LINE
  5
166
  8
0
  6
CONTINUOUS
 62
     7
 10
151.2588180264
 20
232.9340069549
 30
0.0
 11
154.5588172635
 21
232.9340069549
 31
0.0
  0
LINE
  5
167
  8
0
  6
CONTINUOUS
 62
     7
 10
154.5588172635
 20
232.9340069549
 30
0.0
 11
154.5588172635
 21
231.7340104835
 31
0.0
  0
ARC
  5
168
  8
0
  6
CONTINUOUS
 62
     7
 10
268.5588194093
 20
272.9340079086
 30
0.0
 40
2.700000000000045
 50
0.0
 51
180.0
  0
ARC
  5
169
  8
0
  6
CONTINUOUS
 62
     7
 10
268.5588194093
 20
226.3340079086
 30
0.0
 40
2.700000000000045
 50
180.0
 51
0.0
  0
ARC
  5
16A
  8
0
  6
CONTINUOUS
 62
     7
 10
272.5588194093
 20
225.1340079086
 30
0.0
 40
2.0
 50
270.0
 51
0.0
  0
LINE
  5
16B
  8
0
  6
CONTINUOUS
 62
     7
 10
272.5588179787
 20
223.1340079563
 30
0.0
 11
264.5588196477
 21
223.1340079563
 31
0.0
  0
ARC
  5
16C
  8
0
  6
CONTINUOUS
 62
     7
 10
264.5588194093
 20
225.1340079086
 30
0.0
 40
2.0
 50
180.0
 51
270.0
  0
LINE
  5
16D
  8
0
  6
CONTINUOUS
 62
     7
 10
262.558821555
 20
231.7340104835
 30
0.0
 11
262.558821555
 21
225.1340060489
 31
0.0
  0
LINE
  5
16E
  8
0
  6
CONTINUOUS
 62
     7
 10
274.5588220319
 20
231.7340104835
 30
0.0
 11
274.5588220319
 21
225.1340060489
 31
0.0
  0
LINE
  5
16F
  8
0
  6
CONTINUOUS
 62
     7
 10
262.558821555
 20
231.7340104835
 30
0.0
 11
262.558821555
 21
232.9340069549
 31
0.0
  0
LINE
  5
170
  8
0
  6
CONTINUOUS
 62
     7
 10
262.558821555
 20
232.9340069549
 30
0.0
 11
265.8588207921
 21
232.9340069549
 31
0.0
  0
LINE
  5
171
  8
0
  6
CONTINUOUS
 62
     7
 10
271.2588168343
 20
232.9340069549
 30
0.0
 11
274.5588220319
 21
232.9340069549
 31
0.0
  0
LINE
  5
172
  8
0
  6
CONTINUOUS
 62
     7
 10
274.5588220319
 20
232.9340069549
 30
0.0
 11
274.5588220319
 21
231.7340104835
 31
0.0
  0
LINE
  5
173
  8
0
  6
CONTINUOUS
 62
     7
 10
70.1445318421
 20
158.134007919
 30
0.0
 11
76.973102208
 21
158.134007919
 31
0.0
  0
LINE
  5
174
  8
0
  6
CONTINUOUS
 62
     7
 10
70.1445318421
 20
156.9340079086
 30
0.0
 11
76.973102208
 21
156.9340079086
 31
0.0
  0
LINE
  5
175
  8
0
  6
CONTINUOUS
 62
     7
 10
76.973102208
 20
158.134007919
 30
0.0
 11
80.7317472657
 21
158.134007919
 31
0.0
  0
LINE
  5
176
  8
0
  6
CONTINUOUS
 62
     7
 10
80.7317472657
 20
156.9340079086
 30
0.0
 11
76.973102208
 21
156.9340079086
 31
0.0
  0
LINE
  5
177
  8
0
  6
CONTINUOUS
 62
     7
 10
66.3858867844
 20
158.134007919
 30
0.0
 11
70.1445318421
 21
158.134007919
 31
0.0
  0
LINE
  5
178
  8
0
  6
CONTINUOUS
 62
     7
 10
70.1445318421
 20
156.9340079086
 30
0.0
 11
66.3858867844
 21
156.9340079086
 31
0.0
  0
LINE
  5
179
  8
0
  6
CONTINUOUS
 62
     7
 10
336.3858915528
 20
158.134007919
 30
0.0
 11
340.1445366105
 21
158.134007919
 31
0.0
  0
LINE
  5
17A
  8
0
  6
CONTINUOUS
 62
     7
 10
340.1445366105
 20
156.9340079086
 30
0.0
 11
336.3858915528
 21
156.9340079086
 31
0.0
  0
LINE
  5
17B
  8
0
  6
CONTINUOUS
 62
     7
 10
346.9731069764
 20
158.134007919
 30
0.0
 11
350.7317520341
 21
158.134007919
 31
0.0
  0
LINE
  5
17C
  8
0
  6
CONTINUOUS
 62
     7
 10
350.7317520341
 20
156.9340079086
 30
0.0
 11
346.9731069764
 21
156.9340079086
 31
0.0
  0
LINE
  5
17D
  8
0
  6
CONTINUOUS
 62
     7
 10
340.1445366105
 20
156.9340079086
 30
0.0
 11
346.9731069764
 21
156.9340079086
 31
0.0
  0
LINE
  5
17E
  8
0
  6
CONTINUOUS
 62
     7
 10
340.1445366105
 20
158.134007919
 30
0.0
 11
346.9731069764
 21
158.134007919
 31
0.0
  0
LINE
  5
17F
  8
0
  6
CONTINUOUS
 62
     7
 10
85.5588175019
 20
156.9340079086
 30
0.0
 11
85.5588175019
 21
158.134007919
 31
0.0
  0
LINE
  5
180
  8
0
  6
CONTINUOUS
 62
     7
 10
85.5588175019
 20
158.134007919
 30
0.0
 11
80.7317472657
 21
158.134007919
 31
0.0
  0
LINE
  5
181
  8
0
  6
CONTINUOUS
 62
     7
 10
80.7317472657
 20
156.9340079086
 30
0.0
 11
85.5588175019
 21
156.9340079086
 31
0.0
  0
LINE
  5
182
  8
0
  6
CONTINUOUS
 62
     7
 10
61.5588165482
 20
156.9340079086
 30
0.0
 11
61.5588165482
 21
158.134007919
 31
0.0
  0
LINE
  5
183
  8
0
  6
CONTINUOUS
 62
     7
 10
66.3858867844
 20
158.134007919
 30
0.0
 11
61.5588165482
 21
158.134007919
 31
0.0
  0
LINE
  5
184
  8
0
  6
CONTINUOUS
 62
     7
 10
61.5588165482
 20
156.9340079086
 30
0.0
 11
66.3858867844
 21
156.9340079086
 31
0.0
  0
LINE
  5
185
  8
0
  6
CONTINUOUS
 62
     7
 10
355.5588222703
 20
156.9340079086
 30
0.0
 11
355.5588222703
 21
158.134007919
 31
0.0
  0
LINE
  5
186
  8
0
  6
CONTINUOUS
 62
     7
 10
350.7317520341
 20
156.9340079086
 30
0.0
 11
355.5588222703
 21
156.9340079086
 31
0.0
  0
LINE
  5
187
  8
0
  6
CONTINUOUS
 62
     7
 10
355.5588222703
 20
158.134007919
 30
0.0
 11
350.7317520341
 21
158.134007919
 31
0.0
  0
LINE
  5
188
  8
0
  6
CONTINUOUS
 62
     7
 10
331.5588213166
 20
156.9340079086
 30
0.0
 11
331.5588213166
 21
158.134007919
 31
0.0
  0
LINE
  5
189
  8
0
  6
CONTINUOUS
 62
     7
 10
331.5588213166
 20
156.9340079086
 30
0.0
 11
336.3858915528
 21
156.9340079086
 31
0.0
  0
LINE
  5
18A
  8
0
  6
CONTINUOUS
 62
     7
 10
336.3858915528
 20
158.134007919
 30
0.0
 11
331.5588213166
 21
158.134007919
 31
0.0
  0
LINE
  5
18B
  8
0
  6
CONTINUOUS
 62
     7
 10
338.5588146409
 20
158.134007919
 30
0.0
 11
338.5588146409
 21
222.1340089099
 31
0.0
  0
POLYLINE
  5
18C
  8
0
  6
CONTINUOUS
 62
     7
 66
     1
 10
0.0
 20
0.0
 30
0.0
  0
VERTEX
  5
5CB
  8
0
  6
CONTINUOUS
 62
     7
 10
339.5588136872
 20
223.1340079563
 30
0.0
  0
VERTEX
  5
5CC
  8
0
  6
CONTINUOUS
 62
     7
 10
339.3637276849
 20
222.9389159934
 30
0.0
  0
VERTEX
  5
5CD
  8
0
  6
CONTINUOUS
 62
     7
 10
339.1761399468
 20
222.7513222949
 30
0.0
  0
VERTEX
  5
5CE
  8
0
  6
CONTINUOUS
 62
     7
 10
339.0032507142
 20
222.5784390228
 30
0.0
  0
VERTEX
  5
5CF
  8
0
  6
CONTINUOUS
 62
     7
 10
338.8517118653
 20
222.4269001739
 30
0.0
  0
VERTEX
  5
5D0
  8
0
  6
CONTINUOUS
 62
     7
 10
338.7273527345
 20
222.302541043
 30
0.0
  0
VERTEX
  5
5D1
  8
0
  6
CONTINUOUS
 62
     7
 10
338.6349416932
 20
222.2101300018
 30
0.0
  0
VERTEX
  5
5D2
  8
0
  6
CONTINUOUS
 62
     7
 10
338.5780311784
 20
222.1532254474
 30
0.0
  0
VERTEX
  5
5D3
  8
0
  6
CONTINUOUS
 62
     7
 10
338.5588146409
 20
222.1340089099
 30
0.0
  0
SEQEND
  5
773
  8
0
  6
CONTINUOUS
 62
     7
  0
POLYLINE
  5
18D
  8
0
  6
CONTINUOUS
 62
     7
 66
     1
 10
0.0
 20
0.0
 30
0.0
  0
VERTEX
  5
5D4
  8
0
  6
CONTINUOUS
 62
     7
 10
348.5588170251
 20
222.1340089099
 30
0.0
  0
VERTEX
  5
5D5
  8
0
  6
CONTINUOUS
 62
     7
 10
348.5396004876
 20
222.1532254474
 30
0.0
  0
VERTEX
  5
5D6
  8
0
  6
CONTINUOUS
 62
     7
 10
348.4827018937
 20
222.2101300018
 30
0.0
  0
VERTEX
  5
5D7
  8
0
  6
CONTINUOUS
 62
     7
 10
348.3902908524
 20
222.302541043
 30
0.0
  0
VERTEX
  5
5D8
  8
0
  6
CONTINUOUS
 62
     7
 10
348.2659317216
 20
222.4269001739
 30
0.0
  0
VERTEX
  5
5D9
  8
0
  6
CONTINUOUS
 62
     7
 10
348.1143928727
 20
222.5784390228
 30
0.0
  0
VERTEX
  5
5DA
  8
0
  6
CONTINUOUS
 62
     7
 10
347.9415036401
 20
222.7513222949
 30
0.0
  0
VERTEX
  5
5DB
  8
0
  6
CONTINUOUS
 62
     7
 10
347.7539039811
 20
222.9389159934
 30
0.0
  0
VERTEX
  5
5DC
  8
0
  6
CONTINUOUS
 62
     7
 10
347.5588179787
 20
223.1340079563
 30
0.0
  0
SEQEND
  5
772
  8
0
  6
CONTINUOUS
 62
     7
  0
LINE
  5
18E
  8
0
  6
CONTINUOUS
 62
     7
 10
348.5588170251
 20
222.1340089099
 30
0.0
 11
348.5588170251
 21
158.134007919
 31
0.0
  0
POLYLINE
  5
18F
  8
0
  6
CONTINUOUS
 62
     7
 66
     1
 10
0.0
 20
0.0
 30
0.0
  0
VERTEX
  5
5DD
  8
0
  6
CONTINUOUS
 62
     7
 10
68.5588217934
 20
222.1340089099
 30
0.0
  0
VERTEX
  5
5DE
  8
0
  6
CONTINUOUS
 62
     7
 10
68.5780383309
 20
222.1532254474
 30
0.0
  0
VERTEX
  5
5DF
  8
0
  6
CONTINUOUS
 62
     7
 10
68.6349369248
 20
222.2101300018
 30
0.0
  0
VERTEX
  5
5E0
  8
0
  6
CONTINUOUS
 62
     7
 10
68.7273479661
 20
222.302541043
 30
0.0
  0
VERTEX
  5
5E1
  8
0
  6
CONTINUOUS
 62
     7
 10
68.8517070969
 20
222.4269001739
 30
0.0
  0
VERTEX
  5
5E2
  8
0
  6
CONTINUOUS
 62
     7
 10
69.0032459458
 20
222.5784390228
 30
0.0
  0
VERTEX
  5
5E3
  8
0
  6
CONTINUOUS
 62
     7
 10
69.1761351785
 20
222.7513222949
 30
0.0
  0
VERTEX
  5
5E4
  8
0
  6
CONTINUOUS
 62
     7
 10
69.3637348374
 20
222.9389159934
 30
0.0
  0
VERTEX
  5
5E5
  8
0
  6
CONTINUOUS
 62
     7
 10
69.5588208398
 20
223.1340079563
 30
0.0
  0
SEQEND
  5
771
  8
0
  6
CONTINUOUS
 62
     7
  0
LINE
  5
190
  8
0
  6
CONTINUOUS
 62
     7
 10
68.5588217934
 20
222.1340089099
 30
0.0
 11
20.1588250359
 21
222.1340089099
 31
0.0
  0
POLYLINE
  5
191
  8
0
  6
CONTINUOUS
 62
     7
 66
     1
 10
0.0
 20
0.0
 30
0.0
  0
VERTEX
  5
5E6
  8
0
  6
CONTINUOUS
 62
     7
 10
77.5588251313
 20
223.1340079563
 30
0.0
  0
VERTEX
  5
5E7
  8
0
  6
CONTINUOUS
 62
     7
 10
77.7539111337
 20
222.9389159934
 30
0.0
  0
VERTEX
  5
5E8
  8
0
  6
CONTINUOUS
 62
     7
 10
77.9414988717
 20
222.7513222949
 30
0.0
  0
VERTEX
  5
5E9
  8
0
  6
CONTINUOUS
 62
     7
 10
78.1143881043
 20
222.5784390228
 30
0.0
  0
VERTEX
  5
5EA
  8
0
  6
CONTINUOUS
 62
     7
 10
78.2659269532
 20
222.4269001739
 30
0.0
  0
VERTEX
  5
5EB
  8
0
  6
CONTINUOUS
 62
     7
 10
78.3902860841
 20
222.302541043
 30
0.0
  0
VERTEX
  5
5EC
  8
0
  6
CONTINUOUS
 62
     7
 10
78.4826971253
 20
222.2101300018
 30
0.0
  0
VERTEX
  5
5ED
  8
0
  6
CONTINUOUS
 62
     7
 10
78.5396076402
 20
222.1532254474
 30
0.0
  0
VERTEX
  5
5EE
  8
0
  6
CONTINUOUS
 62
     7
 10
78.5588241776
 20
222.1340089099
 30
0.0
  0
SEQEND
  5
770
  8
0
  6
CONTINUOUS
 62
     7
  0
LINE
  5
192
  8
0
  6
CONTINUOUS
 62
     7
 10
78.5588241776
 20
222.1340089099
 30
0.0
 11
78.5588241776
 21
158.134007919
 31
0.0
  0
LINE
  5
193
  8
0
  6
CONTINUOUS
 62
     7
 10
396.9588137826
 20
222.1340089099
 30
0.0
 11
348.5588170251
 21
222.1340089099
 31
0.0
  0
LINE
  5
194
  8
0
  6
CONTINUOUS
 62
     7
 10
338.5588146409
 20
222.1340089099
 30
0.0
 11
78.5588241776
 21
222.1340089099
 31
0.0
  0
LINE
  5
195
  8
0
  6
CONTINUOUS
 62
     7
 10
397.3588205537
 20
223.1340079563
 30
0.0
 11
397.3588205537
 21
222.5340097206
 31
0.0
  0
ARC
  5
196
  8
0
  6
CONTINUOUS
 62
     7
 10
396.9588194093
 20
222.5340079086
 30
0.0
 40
0.4000000000000057
 50
270.0
 51
0.0
  0
LINE
  5
197
  8
0
  6
CONTINUOUS
 62
     7
 10
68.5588217934
 20
158.134007919
 30
0.0
 11
68.5588217934
 21
222.1340089099
 31
0.0
  0
LINE
  5
198
  8
0
  6
CONTINUOUS
 62
     7
 10
19.7588182649
 20
231.1340062873
 30
0.0
 11
19.7588182649
 21
231.7340104835
 31
0.0
  0
ARC
  5
199
  8
0
  6
CONTINUOUS
 62
     7
 10
20.1588194093
 20
231.7340079086
 30
0.0
 40
0.4000000000000057
 50
90.0
 51
180.0
  0
LINE
  5
19A
  8
0
  6
CONTINUOUS
 62
     7
 10
19.7588182649
 20
222.5340097206
 30
0.0
 11
19.7588182649
 21
223.1340079563
 31
0.0
  0
ARC
  5
19B
  8
0
  6
CONTINUOUS
 62
     7
 10
20.1588194093
 20
222.5340079086
 30
0.0
 40
0.4000000000000057
 50
180.0
 51
270.0
  0
LINE
  5
19C
  8
0
  6
CONTINUOUS
 62
     7
 10
20.1588250359
 20
232.1340053337
 30
0.0
 11
22.5588179787
 21
232.1340053337
 31
0.0
  0
LINE
  5
19D
  8
0
  6
CONTINUOUS
 62
     7
 10
34.5588184556
 20
232.1340053337
 30
0.0
 11
46.0588194093
 21
232.1340053337
 31
0.0
  0
LINE
  5
19E
  8
0
  6
CONTINUOUS
 62
     7
 10
56.0588217934
 20
232.1340053337
 30
0.0
 11
121.0588194093
 21
232.1340053337
 31
0.0
  0
LINE
  5
19F
  8
0
  6
CONTINUOUS
 62
     7
 10
131.0588217934
 20
232.1340053337
 30
0.0
 11
142.5588167867
 21
232.1340053337
 31
0.0
  0
LINE
  5
1A0
  8
0
  6
CONTINUOUS
 62
     7
 10
154.5588172635
 20
232.1340053337
 30
0.0
 11
166.0588182172
 21
232.1340053337
 31
0.0
  0
LINE
  5
1A1
  8
0
  6
CONTINUOUS
 62
     7
 10
176.0588206014
 20
232.1340053337
 30
0.0
 11
241.0588182172
 21
232.1340053337
 31
0.0
  0
LINE
  5
1A2
  8
0
  6
CONTINUOUS
 62
     7
 10
251.0588206014
 20
232.1340053337
 30
0.0
 11
262.558821555
 21
232.1340053337
 31
0.0
  0
LINE
  5
1A3
  8
0
  6
CONTINUOUS
 62
     7
 10
274.5588220319
 20
232.1340053337
 30
0.0
 11
286.0588170251
 21
232.1340053337
 31
0.0
  0
LINE
  5
1A4
  8
0
  6
CONTINUOUS
 62
     7
 10
296.0588194093
 20
232.1340053337
 30
0.0
 11
361.0588170251
 21
232.1340053337
 31
0.0
  0
LINE
  5
1A5
  8
0
  6
CONTINUOUS
 62
     7
 10
371.0588194093
 20
232.1340053337
 30
0.0
 11
382.5588203629
 21
232.1340053337
 31
0.0
  0
LINE
  5
1A6
  8
0
  6
CONTINUOUS
 62
     7
 10
394.5588208398
 20
232.1340053337
 30
0.0
 11
396.9588137826
 21
232.1340053337
 31
0.0
  0
LINE
  5
1A7
  8
0
  6
CONTINUOUS
 62
     7
 10
19.7588182649
 20
223.1340079563
 30
0.0
 11
19.7588182649
 21
231.1340062873
 31
0.0
  0
LINE
  5
1A8
  8
0
  6
CONTINUOUS
 62
     7
 10
397.3588205537
 20
231.1340062873
 30
0.0
 11
397.3588205537
 21
223.1340079563
 31
0.0
  0
ARC
  5
1A9
  8
0
  6
CONTINUOUS
 62
     7
 10
396.9588194093
 20
231.7340079086
 30
0.0
 40
0.4000000000000057
 50
0.0
 51
90.0
  0
LINE
  5
1AA
  8
0
  6
CONTINUOUS
 62
     7
 10
397.3588205537
 20
231.7340104835
 30
0.0
 11
397.3588205537
 21
231.1340062873
 31
0.0
  0
POLYLINE
  5
1AB
  8
0
  6
CONTINUOUS
 62
     7
 66
     1
 10
0.0
 20
0.0
 30
0.0
  0
VERTEX
  5
5EF
  8
0
  6
CONTINUOUS
 62
     7
 10
556.1741376993
 20
246.5623109596
 30
0.0
  0
VERTEX
  5
5F0
  8
0
  6
CONTINUOUS
 62
     7
 10
557.9581524012
 20
246.6585366981
 30
0.0
  0
VERTEX
  5
5F1
  8
0
  6
CONTINUOUS
 62
     7
 10
560.3792453882
 20
246.8028753059
 30
0.0
  0
VERTEX
  5
5F2
  8
0
  6
CONTINUOUS
 62
     7
 10
561.5709329722
 20
246.7927782791
 30
0.0
  0
VERTEX
  5
5F3
  8
0
  6
CONTINUOUS
 62
     7
 10
562.7207423327
 20
246.6432242648
 30
0.0
  0
VERTEX
  5
5F4
  8
0
  6
CONTINUOUS
 62
     7
 10
563.8116384623
 20
246.3055818336
 30
0.0
  0
VERTEX
  5
5F5
  8
0
  6
CONTINUOUS
 62
     7
 10
564.8486043093
 20
245.7968025463
 30
0.0
  0
VERTEX
  5
5F6
  8
0
  6
CONTINUOUS
 62
     7
 10
566.1659802076
 20
244.9113815086
 30
0.0
  0
VERTEX
  5
5F7
  8
0
  6
CONTINUOUS
 62
     7
 10
567.4322272417
 20
243.8637047069
 30
0.0
  0
VERTEX
  5
5F8
  8
0
  6
CONTINUOUS
 62
     7
 10
568.6729098436
 20
242.7348940627
 30
0.0
  0
SEQEND
  5
76F
  8
0
  6
CONTINUOUS
 62
     7
  0
LINE
  5
1AC
  8
0
  6
CONTINUOUS
 62
     7
 10
568.6731482622
 20
242.7485614078
 30
0.0
 11
568.7011862871
 21
244.3545787589
 31
0.0
  0
LINE
  5
1AD
  8
0
  6
CONTINUOUS
 62
     7
 10
556.1741376993
 20
248.4367935912
 30
0.0
 11
542.57413398
 21
248.4367935912
 31
0.0
  0
LINE
  5
1AE
  8
0
  6
CONTINUOUS
 62
     7
 10
537.1741349575
 20
248.4367935912
 30
0.0
 11
495.0396059779
 21
248.4367935912
 31
0.0
  0
LINE
  5
1AF
  8
0
  6
CONTINUOUS
 62
     7
 10
492.5741354701
 20
232.9340069549
 30
0.0
 11
492.5741354701
 21
257.9340069549
 31
0.0
  0
LINE
  5
1B0
  8
0
  6
CONTINUOUS
 62
     7
 10
487.1741355163
 20
257.9340069549
 30
0.0
 11
487.1741355163
 21
232.9340069549
 31
0.0
  0
ARC
  5
1B1
  8
0
  6
CONTINUOUS
 62
     7
 10
504.8741355536
 20
257.9340079086
 30
0.0
 40
12.30000000000001
 50
90.0
 51
180.0
  0
ARC
  5
1B2
  8
0
  6
CONTINUOUS
 62
     7
 10
504.8741355536
 20
257.9340079086
 30
0.0
 40
17.70000000000005
 50
90.0
 51
180.0
  0
LINE
  5
1B3
  8
0
  6
CONTINUOUS
 62
     7
 10
495.8741354522
 20
223.6340074794
 30
0.0
 11
524.8741353628
 21
223.6340074794
 31
0.0
  0
LINE
  5
1B4
  8
0
  6
CONTINUOUS
 62
     7
 10
524.8741353628
 20
229.0340094821
 30
0.0
 11
495.8741354522
 21
229.0340094821
 31
0.0
  0
LINE
  5
1B5
  8
0
  6
CONTINUOUS
 62
     7
 10
524.8741353628
 20
275.6340115325
 30
0.0
 11
504.8741350648
 21
275.6340115325
 31
0.0
  0
LINE
  5
1B6
  8
0
  6
CONTINUOUS
 62
     7
 10
504.8741350648
 20
270.2340095298
 30
0.0
 11
524.8741353628
 21
270.2340095298
 31
0.0
  0
ARC
  5
1B7
  8
0
  6
CONTINUOUS
 62
     7
 10
524.8741355536
 20
241.3340079086
 30
0.0
 40
12.30000000000007
 50
270.0
 51
0.0
  0
ARC
  5
1B8
  8
0
  6
CONTINUOUS
 62
     7
 10
524.8741355536
 20
241.3340079086
 30
0.0
 40
17.70000000000005
 50
270.0
 51
0.0
  0
ARC
  5
1B9
  8
0
  6
CONTINUOUS
 62
     7
 10
524.8741355536
 20
257.9340079086
 30
0.0
 40
12.30000000000007
 50
0.0
 51
90.0
  0
ARC
  5
1BA
  8
0
  6
CONTINUOUS
 62
     7
 10
524.8741355536
 20
257.9340079086
 30
0.0
 40
17.70000000000005
 50
360.0
 51
90.0
  0
LINE
  5
1BB
  8
0
  6
CONTINUOUS
 62
     7
 10
542.57413398
 20
241.3340060966
 30
0.0
 11
542.57413398
 21
257.9340069549
 31
0.0
  0
LINE
  5
1BC
  8
0
  6
CONTINUOUS
 62
     7
 10
537.1741349575
 20
257.9340069549
 30
0.0
 11
537.1741349575
 21
241.3340060966
 31
0.0
  0
LINE
  5
1BD
  8
0
  6
CONTINUOUS
 62
     7
 10
501.1298599419
 20
249.0026145236
 30
0.0
 11
499.9077285406
 21
248.4321921127
 31
0.0
  0
POLYLINE
  5
1BE
  8
0
  6
CONTINUOUS
 62
     7
 66
     1
 10
0.0
 20
0.0
 30
0.0
  0
VERTEX
  5
5F9
  8
0
  6
CONTINUOUS
 62
     7
 10
505.7625512359
 20
249.6339051978
 30
0.0
  0
VERTEX
  5
5FA
  8
0
  6
CONTINUOUS
 62
     7
 10
504.6300719258
 20
249.6258824127
 30
0.0
  0
VERTEX
  5
5FB
  8
0
  6
CONTINUOUS
 62
     7
 10
503.5513932583
 20
249.5556323783
 30
0.0
  0
VERTEX
  5
5FC
  8
0
  6
CONTINUOUS
 62
     7
 10
502.6175628183
 20
249.4277565734
 30
0.0
  0
VERTEX
  5
5FD
  8
0
  6
CONTINUOUS
 62
     7
 10
501.8037686822
 20
249.2429821746
 30
0.0
  0
VERTEX
  5
5FE
  8
0
  6
CONTINUOUS
 62
     7
 10
501.1298599419
 20
249.0026145236
 30
0.0
  0
SEQEND
  5
76E
  8
0
  6
CONTINUOUS
 62
     7
  0
POLYLINE
  5
1BF
  8
0
  6
CONTINUOUS
 62
     7
 66
     1
 10
0.0
 20
0.0
 30
0.0
  0
VERTEX
  5
5FF
  8
0
  6
CONTINUOUS
 62
     7
 10
508.7832744
 20
249.5811550872
 30
0.0
  0
VERTEX
  5
600
  8
0
  6
CONTINUOUS
 62
     7
 10
507.2729105827
 20
249.6075420635
 30
0.0
  0
VERTEX
  5
601
  8
0
  6
CONTINUOUS
 62
     7
 10
505.7625512359
 20
249.6339051978
 30
0.0
  0
SEQEND
  5
76D
  8
0
  6
CONTINUOUS
 62
     7
  0
POLYLINE
  5
1C0
  8
0
  6
CONTINUOUS
 62
     7
 66
     1
 10
0.0
 20
0.0
 30
0.0
  0
VERTEX
  5
602
  8
0
  6
CONTINUOUS
 62
     7
 10
513.7825126526
 20
249.4938879268
 30
0.0
  0
VERTEX
  5
603
  8
0
  6
CONTINUOUS
 62
     7
 10
511.2793708918
 20
249.5306163089
 30
0.0
  0
VERTEX
  5
604
  8
0
  6
CONTINUOUS
 62
     7
 10
508.7889070389
 20
249.5810060756
 30
0.0
  0
SEQEND
  5
76C
  8
0
  6
CONTINUOUS
 62
     7
  0
LINE
  5
1C1
  8
0
  6
CONTINUOUS
 62
     7
 10
513.8086328981
 20
249.4934349315
 30
0.0
 11
513.7825126526
 21
249.4938879268
 31
0.0
  0
POLYLINE
  5
1C2
  8
0
  6
CONTINUOUS
 62
     7
 66
     1
 10
0.0
 20
0.0
 30
0.0
  0
VERTEX
  5
605
  8
0
  6
CONTINUOUS
 62
     7
 10
518.8158328411
 20
249.4060187595
 30
0.0
  0
VERTEX
  5
606
  8
0
  6
CONTINUOUS
 62
     7
 10
516.3120860932
 20
249.4500069873
 30
0.0
  0
VERTEX
  5
607
  8
0
  6
CONTINUOUS
 62
     7
 10
513.8086656806
 20
249.4934349315
 30
0.0
  0
SEQEND
  5
76B
  8
0
  6
CONTINUOUS
 62
     7
  0
LINE
  5
1C3
  8
0
  6
CONTINUOUS
 62
     7
 10
520.66653918
 20
249.3664829986
 30
0.0
 11
518.8158477423
 21
249.4059412734
 31
0.0
  0
LINE
  5
1C4
  8
0
  6
CONTINUOUS
 62
     7
 10
528.7802303908
 20
249.232104327
 30
0.0
 11
520.66653918
 21
249.3664829986
 31
0.0
  0
POLYLINE
  5
1C5
  8
0
  6
CONTINUOUS
 62
     7
 66
     1
 10
0.0
 20
0.0
 30
0.0
  0
VERTEX
  5
608
  8
0
  6
CONTINUOUS
 62
     7
 10
537.1741349575
 20
249.087366368
 30
0.0
  0
VERTEX
  5
609
  8
0
  6
CONTINUOUS
 62
     7
 10
531.9521064636
 20
249.1843431251
 30
0.0
  0
VERTEX
  5
60A
  8
0
  6
CONTINUOUS
 62
     7
 10
528.7802423117
 20
249.232104327
 30
0.0
  0
SEQEND
  5
76A
  8
0
  6
CONTINUOUS
 62
     7
  0
POLYLINE
  5
1C6
  8
0
  6
CONTINUOUS
 62
     7
 66
     1
 10
0.0
 20
0.0
 30
0.0
  0
VERTEX
  5
60B
  8
0
  6
CONTINUOUS
 62
     7
 10
548.7779761431
 20
248.8830654876
 30
0.0
  0
VERTEX
  5
60C
  8
0
  6
CONTINUOUS
 62
     7
 10
543.7794412253
 20
248.9279060619
 30
0.0
  0
VERTEX
  5
60D
  8
0
  6
CONTINUOUS
 62
     7
 10
542.57413398
 20
248.9591627376
 30
0.0
  0
SEQEND
  5
769
  8
0
  6
CONTINUOUS
 62
     7
  0
POLYLINE
  5
1C7
  8
0
  6
CONTINUOUS
 62
     7
 66
     1
 10
0.0
 20
0.0
 30
0.0
  0
VERTEX
  5
60E
  8
0
  6
CONTINUOUS
 62
     7
 10
560.4336584684
 20
248.4648852603
 30
0.0
  0
VERTEX
  5
60F
  8
0
  6
CONTINUOUS
 62
     7
 10
560.4083324549
 20
248.4695821063
 30
0.0
  0
VERTEX
  5
610
  8
0
  6
CONTINUOUS
 62
     7
 10
557.9953218577
 20
248.7880795257
 30
0.0
  0
VERTEX
  5
611
  8
0
  6
CONTINUOUS
 62
     7
 10
555.6068564531
 20
248.9273219364
 30
0.0
  0
VERTEX
  5
612
  8
0
  6
CONTINUOUS
 62
     7
 10
553.2409394858
 20
248.9506869571
 30
0.0
  0
VERTEX
  5
613
  8
0
  6
CONTINUOUS
 62
     7
 10
550.8861149428
 20
248.9160089748
 30
0.0
  0
VERTEX
  5
614
  8
0
  6
CONTINUOUS
 62
     7
 10
548.7779761431
 20
248.883083369
 30
0.0
  0
SEQEND
  5
768
  8
0
  6
CONTINUOUS
 62
     7
  0
ARC
  5
1C8
  8
0
  6
CONTINUOUS
 62
     7
 10
558.1979973963
 20
236.1774988167
 30
0.0
 40
12.4891171042568
 50
43.7647639822
 51
79.6879731616
  0
POLYLINE
  5
1C9
  8
0
  6
CONTINUOUS
 62
     7
 66
     1
 10
0.0
 20
0.0
 30
0.0
  0
VERTEX
  5
615
  8
0
  6
CONTINUOUS
 62
     7
 10
568.6637962935
 20
242.7487223403
 30
0.0
  0
VERTEX
  5
616
  8
0
  6
CONTINUOUS
 62
     7
 10
568.6663592932
 20
242.7448778407
 30
0.0
  0
VERTEX
  5
617
  8
0
  6
CONTINUOUS
 62
     7
 10
568.5976530192
 20
242.8485481994
 30
0.0
  0
VERTEX
  5
618
  8
0
  6
CONTINUOUS
 62
     7
 10
568.4536899206
 20
243.0644839065
 30
0.0
  0
VERTEX
  5
619
  8
0
  6
CONTINUOUS
 62
     7
 10
568.2348335859
 20
243.3882384555
 30
0.0
  0
VERTEX
  5
61A
  8
0
  6
CONTINUOUS
 62
     7
 10
567.8000594256
 20
244.0147905605
 30
0.0
  0
VERTEX
  5
61B
  8
0
  6
CONTINUOUS
 62
     7
 10
567.2174597857
 20
244.8162107723
 30
0.0
  0
SEQEND
  5
767
  8
0
  6
CONTINUOUS
 62
     7
  0
POLYLINE
  5
1CA
  8
0
  6
CONTINUOUS
 62
     7
 66
     1
 10
0.0
 20
0.0
 30
0.0
  0
VERTEX
  5
61C
  8
0
  6
CONTINUOUS
 62
     7
 10
560.3673900244
 20
249.6907859104
 30
0.0
  0
VERTEX
  5
61D
  8
0
  6
CONTINUOUS
 62
     7
 10
561.5154946921
 20
249.4515567081
 30
0.0
  0
VERTEX
  5
61E
  8
0
  6
CONTINUOUS
 62
     7
 10
562.6174713251
 20
249.1307227867
 30
0.0
  0
VERTEX
  5
61F
  8
0
  6
CONTINUOUS
 62
     7
 10
563.6379624483
 20
248.7307458179
 30
0.0
  0
VERTEX
  5
620
  8
0
  6
CONTINUOUS
 62
     7
 10
564.5607377169
 20
248.2732742088
 30
0.0
  0
VERTEX
  5
621
  8
0
  6
CONTINUOUS
 62
     7
 10
565.418394911
 20
247.7604537265
 30
0.0
  0
VERTEX
  5
622
  8
0
  6
CONTINUOUS
 62
     7
 10
566.1382580874
 20
247.2624330776
 30
0.0
  0
VERTEX
  5
623
  8
0
  6
CONTINUOUS
 62
     7
 10
566.644641268
 20
246.87030008
 30
0.0
  0
VERTEX
  5
624
  8
0
  6
CONTINUOUS
 62
     7
 10
567.0145834562
 20
246.5535669582
 30
0.0
  0
VERTEX
  5
625
  8
0
  6
CONTINUOUS
 62
     7
 10
567.1634162542
 20
246.4121310966
 30
0.0
  0
VERTEX
  5
626
  8
0
  6
CONTINUOUS
 62
     7
 10
567.2539437887
 20
246.3129608886
 30
0.0
  0
SEQEND
  5
766
  8
0
  6
CONTINUOUS
 62
     7
  0
POLYLINE
  5
1CB
  8
0
  6
CONTINUOUS
 62
     7
 66
     1
 10
0.0
 20
0.0
 30
0.0
  0
VERTEX
  5
627
  8
0
  6
CONTINUOUS
 62
     7
 10
500.9626510319
 20
250.1487820403
 30
0.0
  0
VERTEX
  5
628
  8
0
  6
CONTINUOUS
 62
     7
 10
501.5460694906
 20
250.3664284007
 30
0.0
  0
VERTEX
  5
629
  8
0
  6
CONTINUOUS
 62
     7
 10
502.3158455965
 20
250.556239392
 30
0.0
  0
VERTEX
  5
62A
  8
0
  6
CONTINUOUS
 62
     7
 10
503.2060737488
 20
250.6942122238
 30
0.0
  0
VERTEX
  5
62B
  8
0
  6
CONTINUOUS
 62
     7
 10
504.240796971
 20
250.7781355636
 30
0.0
  0
VERTEX
  5
62C
  8
0
  6
CONTINUOUS
 62
     7
 10
504.9124116776
 20
250.7988899009
 30
0.0
  0
VERTEX
  5
62D
  8
0
  6
CONTINUOUS
 62
     7
 10
505.6175241944
 20
250.7974653499
 30
0.0
  0
SEQEND
  5
765
  8
0
  6
CONTINUOUS
 62
     7
  0
ARC
  5
1CC
  8
0
  6
CONTINUOUS
 62
     7
 10
547.4520728665
 20
150.5082096317
 30
0.0
 40
109.9523078995355
 50
115.0124018468
 51
117.0454636396
  0
POLYLINE
  5
1CD
  8
0
  6
CONTINUOUS
 62
     7
 66
     1
 10
0.0
 20
0.0
 30
0.0
  0
VERTEX
  5
62E
  8
0
  6
CONTINUOUS
 62
     7
 10
568.6897243139
 20
244.3547754543
 30
0.0
  0
VERTEX
  5
62F
  8
0
  6
CONTINUOUS
 62
     7
 10
568.6955357668
 20
244.3462341087
 30
0.0
  0
VERTEX
  5
630
  8
0
  6
CONTINUOUS
 62
     7
 10
568.6110044596
 20
244.469508435
 30
0.0
  0
VERTEX
  5
631
  8
0
  6
CONTINUOUS
 62
     7
 10
568.4240068075
 20
244.7382776992
 30
0.0
  0
VERTEX
  5
632
  8
0
  6
CONTINUOUS
 62
     7
 10
568.2171906111
 20
245.0302927749
 30
0.0
  0
VERTEX
  5
633
  8
0
  6
CONTINUOUS
 62
     7
 10
567.9533387301
 20
245.3941910522
 30
0.0
  0
VERTEX
  5
634
  8
0
  6
CONTINUOUS
 62
     7
 10
567.6320756552
 20
245.8244114177
 30
0.0
  0
VERTEX
  5
635
  8
0
  6
CONTINUOUS
 62
     7
 10
567.2539437887
 20
246.3129608886
 30
0.0
  0
SEQEND
  5
764
  8
0
  6
CONTINUOUS
 62
     7
  0
POLYLINE
  5
1CE
  8
0
  6
CONTINUOUS
 62
     7
 66
     1
 10
0.0
 20
0.0
 30
0.0
  0
VERTEX
  5
636
  8
0
  6
CONTINUOUS
 62
     7
 10
560.3673900244
 20
249.6907918708
 30
0.0
  0
VERTEX
  5
637
  8
0
  6
CONTINUOUS
 62
     7
 10
557.9703653929
 20
249.9871282833
 30
0.0
  0
VERTEX
  5
638
  8
0
  6
CONTINUOUS
 62
     7
 10
555.6306744692
 20
250.1174121158
 30
0.0
  0
VERTEX
  5
639
  8
0
  6
CONTINUOUS
 62
     7
 10
553.3362711546
 20
250.1406579273
 30
0.0
  0
VERTEX
  5
63A
  8
0
  6
CONTINUOUS
 62
     7
 10
551.0783995268
 20
250.1087575214
 30
0.0
  0
VERTEX
  5
63B
  8
0
  6
CONTINUOUS
 62
     7
 10
548.8478685495
 20
250.072410609
 30
0.0
  0
VERTEX
  5
63C
  8
0
  6
CONTINUOUS
 62
     7
 10
546.6204310534
 20
250.0710098998
 30
0.0
  0
VERTEX
  5
63D
  8
0
  6
CONTINUOUS
 62
     7
 10
544.3795288679
 20
250.102862622
 30
0.0
  0
VERTEX
  5
63E
  8
0
  6
CONTINUOUS
 62
     7
 10
542.57413398
 20
250.1469581382
 30
0.0
  0
SEQEND
  5
763
  8
0
  6
CONTINUOUS
 62
     7
  0
POLYLINE
  5
1CF
  8
0
  6
CONTINUOUS
 62
     7
 66
     1
 10
0.0
 20
0.0
 30
0.0
  0
VERTEX
  5
63F
  8
0
  6
CONTINUOUS
 62
     7
 10
537.1741349575
 20
250.2714662807
 30
0.0
  0
VERTEX
  5
640
  8
0
  6
CONTINUOUS
 62
     7
 10
531.9695289013
 20
250.3601520316
 30
0.0
  0
VERTEX
  5
641
  8
0
  6
CONTINUOUS
 62
     7
 10
528.6720121977
 20
250.4070132034
 30
0.0
  0
VERTEX
  5
642
  8
0
  6
CONTINUOUS
 62
     7
 10
525.3717447397
 20
250.4598646419
 30
0.0
  0
VERTEX
  5
643
  8
0
  6
CONTINUOUS
 62
     7
 10
522.0709229586
 20
250.5174188869
 30
0.0
  0
VERTEX
  5
644
  8
0
  6
CONTINUOUS
 62
     7
 10
518.7727327225
 20
250.5758493202
 30
0.0
  0
VERTEX
  5
645
  8
0
  6
CONTINUOUS
 62
     7
 10
515.4775495407
 20
250.6324618118
 30
0.0
  0
VERTEX
  5
646
  8
0
  6
CONTINUOUS
 62
     7
 10
512.1854091761
 20
250.6881921546
 30
0.0
  0
VERTEX
  5
647
  8
0
  6
CONTINUOUS
 62
     7
 10
508.9091340778
 20
250.7427304046
 30
0.0
  0
VERTEX
  5
648
  8
0
  6
CONTINUOUS
 62
     7
 10
505.6175301549
 20
250.7975428359
 30
0.0
  0
SEQEND
  5
762
  8
0
  6
CONTINUOUS
 62
     7
  0
POLYLINE
  5
1D0
  8
0
  6
CONTINUOUS
 62
     7
 66
     1
 10
0.0
 20
0.0
 30
0.0
  0
VERTEX
  5
649
  8
0
  6
CONTINUOUS
 62
     7
 10
542.57413398
 20
248.9828138606
 30
0.0
  0
VERTEX
  5
64A
  8
0
  6
CONTINUOUS
 62
     7
 10
544.9814046499
 20
248.9249079482
 30
0.0
  0
VERTEX
  5
64B
  8
0
  6
CONTINUOUS
 62
     7
 10
548.7779761431
 20
248.883083369
 30
0.0
  0
SEQEND
  5
761
  8
0
  6
CONTINUOUS
 62
     7
  0
POLYLINE
  5
1D1
  8
0
  6
CONTINUOUS
 62
     7
 66
     1
 10
0.0
 20
0.0
 30
0.0
  0
VERTEX
  5
64C
  8
0
  6
CONTINUOUS
 62
     7
 10
520.6687028286
 20
249.4903474109
 30
0.0
  0
VERTEX
  5
64D
  8
0
  6
CONTINUOUS
 62
     7
 10
523.0770881054
 20
249.5481162326
 30
0.0
  0
VERTEX
  5
64E
  8
0
  6
CONTINUOUS
 62
     7
 10
525.9347940561
 20
249.4195192115
 30
0.0
  0
VERTEX
  5
64F
  8
0
  6
CONTINUOUS
 62
     7
 10
528.7802601931
 20
249.232593085
 30
0.0
  0
SEQEND
  5
760
  8
0
  6
CONTINUOUS
 62
     7
  0
LINE
  5
1D2
  8
0
  6
CONTINUOUS
 62
     7
 10
518.8158477423
 20
249.4059949176
 30
0.0
 11
520.6687028286
 21
249.4903474109
 31
0.0
  0
POLYLINE
  5
1D3
  8
0
  6
CONTINUOUS
 62
     7
 66
     1
 10
0.0
 20
0.0
 30
0.0
  0
VERTEX
  5
650
  8
0
  6
CONTINUOUS
 62
     7
 10
508.7889070389
 20
249.5810537593
 30
0.0
  0
VERTEX
  5
651
  8
0
  6
CONTINUOUS
 62
     7
 10
509.9686677334
 20
249.6642141597
 30
0.0
  0
VERTEX
  5
652
  8
0
  6
CONTINUOUS
 62
     7
 10
511.1631671664
 20
249.6576516883
 30
0.0
  0
VERTEX
  5
653
  8
0
  6
CONTINUOUS
 62
     7
 10
512.4838108894
 20
249.5847015636
 30
0.0
  0
VERTEX
  5
654
  8
0
  6
CONTINUOUS
 62
     7
 10
513.8086358783
 20
249.4935064571
 30
0.0
  0
SEQEND
  5
75F
  8
0
  6
CONTINUOUS
 62
     7
  0
LINE
  5
1D4
  8
0
  6
CONTINUOUS
 62
     7
 10
494.6741356281
 20
231.7340104835
 30
0.0
 11
494.6741356281
 21
231.1340062873
 31
0.0
  0
ARC
  5
1D5
  8
0
  6
CONTINUOUS
 62
     7
 10
494.2741355536
 20
231.7340079086
 30
0.0
 40
0.3999999999999773
 50
0.0
 51
90.0
  0
LINE
  5
1D6
  8
0
  6
CONTINUOUS
 62
     7
 10
484.6741354791
 20
222.334006335
 30
0.0
 11
484.0741353807
 21
222.334006335
 31
0.0
  0
LINE
  5
1D7
  8
0
  6
CONTINUOUS
 62
     7
 10
484.0741353807
 20
222.334006335
 30
0.0
 11
484.0741353807
 21
223.1340079563
 31
0.0
  0
LINE
  5
1D8
  8
0
  6
CONTINUOUS
 62
     7
 10
484.6741354791
 20
223.1340079563
 30
0.0
 11
484.6741354791
 21
222.334006335
 31
0.0
  0
LINE
  5
1D9
  8
0
  6
CONTINUOUS
 62
     7
 10
495.2741357264
 20
222.334006335
 30
0.0
 11
494.6741356281
 21
222.334006335
 31
0.0
  0
LINE
  5
1DA
  8
0
  6
CONTINUOUS
 62
     7
 10
495.2741357264
 20
223.1340079563
 30
0.0
 11
495.2741357264
 21
222.334006335
 31
0.0
  0
LINE
  5
1DB
  8
0
  6
CONTINUOUS
 62
     7
 10
494.6741356281
 20
222.334006335
 30
0.0
 11
494.6741356281
 21
223.1340079563
 31
0.0
  0
ARC
  5
1DC
  8
0
  6
CONTINUOUS
 62
     7
 10
554.1741355536
 20
246.1856380268
 30
0.0
 40
2.0
 50
280.7804509646
 51
0.0
  0
ARC
  5
1DD
  8
0
  6
CONTINUOUS
 62
     7
 10
479.7297669964
 20
637.1613866227
 30
0.0
 40
400.0000000000001
 50
274.5077079787
 51
278.256844918
  0
ARC
  5
1DE
  8
0
  6
CONTINUOUS
 62
     7
 10
479.7297669964
 20
637.1613866227
 30
0.0
 40
400.0000000000001
 50
279.0392433502
 51
280.7804509646
  0
ARC
  5
1DF
  8
0
  6
CONTINUOUS
 62
     7
 10
498.5921373758
 20
397.9037619089
 30
0.0
 40
160.0000000000003
 50
273.0746772222
 51
274.5077079787
  0
ARC
  5
1E0
  8
0
  6
CONTINUOUS
 62
     7
 10
507.8714229055
 20
225.1527999432
 30
0.0
 40
12.99999999999998
 50
93.0746772222
 51
121.4611845106
  0
ARC
  5
1E1
  8
0
  6
CONTINUOUS
 62
     7
 10
503.1741355536
 20
232.8297453992
 30
0.0
 40
4.0
 50
121.4611845106
 51
180.0
  0
LINE
  5
1E2
  8
0
  6
CONTINUOUS
 62
     7
 10
499.1741354344
 20
230.9340088622
 30
0.0
 11
499.1741354344
 21
232.8297465103
 31
0.0
  0
ARC
  5
1E3
  8
0
  6
CONTINUOUS
 62
     7
 10
497.1741355536
 20
230.9340079086
 30
0.0
 40
2.000000000000005
 50
288.1948723388
 51
0.0
  0
ARC
  5
1E4
  8
0
  6
CONTINUOUS
 62
     7
 10
483.0741355536
 20
230.9340079086
 30
0.0
 40
2.0
 50
180.0
 51
270.0
  0
ARC
  5
1E5
  8
0
  6
CONTINUOUS
 62
     7
 10
489.0741355536
 20
233.9808355762
 30
0.0
 40
8.000000000000043
 50
148.4862321611
 51
180.0
  0
ARC
  5
1E6
  8
0
  6
CONTINUOUS
 62
     7
 10
499.3043105904
 20
227.7083943676
 30
0.0
 40
19.99999999999992
 50
102.5040575207
 51
109.6643105065
  0
ARC
  5
1E7
  8
0
  6
CONTINUOUS
 62
     7
 10
499.3043105904
 20
227.7083943676
 30
0.0
 40
19.99999999999996
 50
127.337488847
 51
148.4862321611
  0
LINE
  5
1E8
  8
0
  6
CONTINUOUS
 62
     7
 10
494.974135491
 20
247.2340076225
 30
0.0
 11
494.974135491
 21
247.4367945449
 31
0.0
  0
LINE
  5
1E9
  8
0
  6
CONTINUOUS
 62
     7
 10
556.1741376993
 20
247.4367945449
 30
0.0
 11
556.1741376993
 21
246.1856394069
 31
0.0
  0
LINE
  5
1EA
  8
0
  6
CONTINUOUS
 62
     7
 10
483.0741355893
 20
228.9340107696
 30
0.0
 11
483.8741357205
 21
228.9340107696
 31
0.0
  0
LINE
  5
1EB
  8
0
  6
CONTINUOUS
 62
     7
 10
481.0741352615
 20
233.9808373706
 30
0.0
 11
481.0741352615
 21
230.9340088622
 31
0.0
  0
LINE
  5
1EC
  8
0
  6
CONTINUOUS
 62
     7
 10
494.974135491
 20
248.4288661735
 30
0.0
 11
495.0309547362
 21
248.4288661735
 31
0.0
  0
LINE
  5
1ED
  8
0
  6
CONTINUOUS
 62
     7
 10
495.0309547362
 20
248.4288661735
 30
0.0
 11
495.0396059779
 21
248.4307556407
 31
0.0
  0
LINE
  5
1EE
  8
0
  6
CONTINUOUS
 62
     7
 10
556.1741376993
 20
248.4367935912
 30
0.0
 11
556.1741376993
 21
247.4367945449
 31
0.0
  0
LINE
  5
1EF
  8
0
  6
CONTINUOUS
 62
     7
 10
494.974135491
 20
247.4367945449
 30
0.0
 11
494.974135491
 21
248.4288661735
 31
0.0
  0
LINE
  5
1F0
  8
0
  6
CONTINUOUS
 62
     7
 10
484.6741354791
 20
223.1340079563
 30
0.0
 11
483.8741357205
 21
223.1340079563
 31
0.0
  0
LINE
  5
1F1
  8
0
  6
CONTINUOUS
 62
     7
 10
483.8741357205
 20
223.1340079563
 30
0.0
 11
483.8741357205
 21
225.1340060489
 31
0.0
  0
LINE
  5
1F2
  8
0
  6
CONTINUOUS
 62
     7
 10
495.0741356936
 20
231.7340104835
 30
0.0
 11
495.0741356936
 21
225.1340060489
 31
0.0
  0
ARC
  5
1F3
  8
0
  6
CONTINUOUS
 62
     7
 10
494.6741355536
 20
231.7340079086
 30
0.0
 40
0.4000000000000341
 50
0.0
 51
90.0
  0
LINE
  5
1F4
  8
0
  6
CONTINUOUS
 62
     7
 10
485.0741355446
 20
232.1340053337
 30
0.0
 11
485.674135643
 21
232.1340053337
 31
0.0
  0
LINE
  5
1F5
  8
0
  6
CONTINUOUS
 62
     7
 10
493.6741354642
 20
232.1340053337
 30
0.0
 11
494.6741356281
 21
232.1340053337
 31
0.0
  0
ARC
  5
1F6
  8
0
  6
CONTINUOUS
 62
     7
 10
485.0741355536
 20
231.7340079086
 30
0.0
 40
0.4000000000000341
 50
90.0
 51
180.0
  0
LINE
  5
1F7
  8
0
  6
CONTINUOUS
 62
     7
 10
484.6741354791
 20
231.1340062873
 30
0.0
 11
484.6741354791
 21
231.7340104835
 31
0.0
  0
LINE
  5
1F8
  8
0
  6
CONTINUOUS
 62
     7
 10
483.8741357205
 20
225.1340060489
 30
0.0
 11
483.8741357205
 21
231.7340104835
 31
0.0
  0
ARC
  5
1F9
  8
0
  6
CONTINUOUS
 62
     7
 10
485.0741355536
 20
231.7340079086
 30
0.0
 40
1.199999999999989
 50
90.0
 51
180.0
  0
LINE
  5
1FA
  8
0
  6
CONTINUOUS
 62
     7
 10
485.0741355446
 20
232.9340069549
 30
0.0
 11
494.6741356281
 21
232.9340069549
 31
0.0
  0
ARC
  5
1FB
  8
0
  6
CONTINUOUS
 62
     7
 10
494.6741355536
 20
231.7340079086
 30
0.0
 40
1.199999999999989
 50
0.0
 51
90.0
  0
LINE
  5
1FC
  8
0
  6
CONTINUOUS
 62
     7
 10
495.8741354522
 20
231.7340104835
 30
0.0
 11
495.8741354522
 21
225.1340060489
 31
0.0
  0
LINE
  5
1FD
  8
0
  6
CONTINUOUS
 62
     7
 10
495.8741354522
 20
223.1340079563
 30
0.0
 11
495.0741356936
 21
223.1340079563
 31
0.0
  0
LINE
  5
1FE
  8
0
  6
CONTINUOUS
 62
     7
 10
495.8741354522
 20
225.1340060489
 30
0.0
 11
495.8741354522
 21
223.1340079563
 31
0.0
  0
LINE
  5
1FF
  8
0
  6
CONTINUOUS
 62
     7
 10
495.0741356936
 20
223.1340079563
 30
0.0
 11
495.0741356936
 21
225.1340060489
 31
0.0
  0
LINE
  5
200
  8
0
  6
CONTINUOUS
 62
     7
 10
493.6741354642
 20
222.1340089099
 30
0.0
 11
485.674135643
 21
222.1340089099
 31
0.0
  0
LINE
  5
201
  8
0
  6
CONTINUOUS
 62
     7
 10
485.674135643
 20
232.1340053337
 30
0.0
 11
493.6741354642
 21
232.1340053337
 31
0.0
  0
LINE
  5
202
  8
0
  6
CONTINUOUS
 62
     7
 10
484.6741354791
 20
223.1340079563
 30
0.0
 11
484.6741354791
 21
231.1340062873
 31
0.0
  0
ARC
  5
203
  8
0
  6
CONTINUOUS
 62
     7
 10
485.6741355536
 20
223.1340079086
 30
0.0
 40
1.0
 50
180.0
 51
270.0
  0
ARC
  5
204
  8
0
  6
CONTINUOUS
 62
     7
 10
485.6741355536
 20
231.1340079086
 30
0.0
 40
1.0
 50
90.0
 51
180.0
  0
LINE
  5
205
  8
0
  6
CONTINUOUS
 62
     7
 10
494.6741356281
 20
231.1340062873
 30
0.0
 11
494.6741356281
 21
223.1340079563
 31
0.0
  0
ARC
  5
206
  8
0
  6
CONTINUOUS
 62
     7
 10
493.6741355536
 20
231.1340079086
 30
0.0
 40
1.0
 50
0.0
 51
90.0
  0
ARC
  5
207
  8
0
  6
CONTINUOUS
 62
     7
 10
493.6741355536
 20
223.1340079086
 30
0.0
 40
1.0
 50
270.0
 51
0.0
  0
LINE
  5
208
  8
0
  6
CONTINUOUS
 62
     7
 10
481.6741357324
 20
156.9340079086
 30
0.0
 11
477.6741358218
 21
156.9340079086
 31
0.0
  0
LINE
  5
209
  8
0
  6
CONTINUOUS
 62
     7
 10
477.6741358218
 20
156.9340079086
 30
0.0
 11
477.6741358218
 21
158.134007919
 31
0.0
  0
LINE
  5
20A
  8
0
  6
CONTINUOUS
 62
     7
 10
477.6741358218
 20
158.134007919
 30
0.0
 11
481.6741357324
 21
158.134007919
 31
0.0
  0
LINE
  5
20B
  8
0
  6
CONTINUOUS
 62
     7
 10
511.0425571677
 20
158.134007919
 30
0.0
 11
483.6741356877
 21
158.134007919
 31
0.0
  0
LINE
  5
20C
  8
0
  6
CONTINUOUS
 62
     7
 10
483.6741356877
 20
156.9340079086
 30
0.0
 11
511.0425571677
 21
156.9340079086
 31
0.0
  0
LINE
  5
20D
  8
0
  6
CONTINUOUS
 62
     7
 10
481.6741357324
 20
158.134007919
 30
0.0
 11
483.6741356877
 21
158.134007919
 31
0.0
  0
LINE
  5
20E
  8
0
  6
CONTINUOUS
 62
     7
 10
481.6741357324
 20
156.9340079086
 30
0.0
 11
483.6741356877
 21
156.9340079086
 31
0.0
  0
LINE
  5
20F
  8
0
  6
CONTINUOUS
 62
     7
 10
513.6741350171
 20
158.134007919
 30
0.0
 11
513.6741350171
 21
156.9340079086
 31
0.0
  0
LINE
  5
210
  8
0
  6
CONTINUOUS
 62
     7
 10
511.0425571677
 20
158.134007919
 30
0.0
 11
513.6741350171
 21
158.134007919
 31
0.0
  0
LINE
  5
211
  8
0
  6
CONTINUOUS
 62
     7
 10
513.6741350171
 20
156.9340079086
 30
0.0
 11
511.0425571677
 21
156.9340079086
 31
0.0
  0
LINE
  5
212
  8
0
  6
CONTINUOUS
 62
     7
 10
484.6741354791
 20
158.134007919
 30
0.0
 11
484.6741354791
 21
222.334006335
 31
0.0
  0
LINE
  5
213
  8
0
  6
CONTINUOUS
 62
     7
 10
494.6741356281
 20
222.334006335
 30
0.0
 11
494.6741356281
 21
158.134007919
 31
0.0
  0
ARC
  5
214
  8
0
  6
CONTINUOUS
 62
     7
 10
238.9855159628
 20
37.0623692334
 30
0.0
 40
8.129960244974974
 50
287.2568980878
 51
289.6914725677
  0
ARC
  5
215
  8
0
  6
CONTINUOUS
 62
     7
 10
178.241410921
 20
37.4272951703
 30
0.0
 40
8.510739561453677
 50
250.4724682313
 51
252.7375622255
  0
ARC
  5
216
  8
0
  6
CONTINUOUS
 62
     7
 10
358.9856983401
 20
37.0617541181
 30
0.0
 40
8.129319246566833
 50
287.2569686965
 51
289.6917152452
  0
ARC
  5
217
  8
0
  6
CONTINUOUS
 62
     7
 10
298.2421310859
 20
37.4295351982
 30
0.0
 40
8.513091866126247
 50
250.4729318556
 51
252.737418923
  0
ARC
  5
218
  8
0
  6
CONTINUOUS
 62
     7
 10
118.9855019486
 20
37.0624804155
 30
0.0
 40
8.130070049071884
 50
287.2567479278
 51
289.6913094466
  0
ARC
  5
219
  8
0
  6
CONTINUOUS
 62
     7
 10
58.2406911779
 20
37.4250564513
 30
0.0
 40
8.508388632030009
 50
250.4720046196
 51
252.7377055099
  0
LINE
  5
21A
  8
0
  6
CONTINUOUS
 62
     7
 10
25.8588172158
 20
106.3895700176
 30
0.0
 11
25.8588172158
 21
91.3895705159
 31
0.0
  0
LINE
  5
21B
  8
0
  6
CONTINUOUS
 62
     7
 10
31.2588192185
 20
91.3895705159
 30
0.0
 11
31.2588192185
 21
106.3895700176
 31
0.0
  0
LINE
  5
21C
  8
0
  6
CONTINUOUS
 62
     7
 10
31.2588192185
 20
71.3895702179
 30
0.0
 11
31.2588192185
 21
91.3895705159
 31
0.0
  0
LINE
  5
21D
  8
0
  6
CONTINUOUS
 62
     7
 10
25.8588172158
 20
91.3895705159
 30
0.0
 11
25.8588172158
 21
71.3895702179
 31
0.0
  0
LINE
  5
21E
  8
0
  6
CONTINUOUS
 62
     7
 10
25.8588172158
 20
71.3895702179
 30
0.0
 11
25.8588172158
 21
56.389572602
 31
0.0
  0
LINE
  5
21F
  8
0
  6
CONTINUOUS
 62
     7
 10
31.2588192185
 20
56.389572602
 30
0.0
 11
31.2588192185
 21
71.3895702179
 31
0.0
  0
LINE
  5
220
  8
0
  6
CONTINUOUS
 62
     7
 10
385.8588196
 20
106.3895700176
 30
0.0
 11
385.8588196
 21
91.3895705159
 31
0.0
  0
LINE
  5
221
  8
0
  6
CONTINUOUS
 62
     7
 10
391.2588216027
 20
91.3895705159
 30
0.0
 11
391.2588216027
 21
106.3895700176
 31
0.0
  0
LINE
  5
222
  8
0
  6
CONTINUOUS
 62
     7
 10
391.2588216027
 20
71.3895702179
 30
0.0
 11
391.2588216027
 21
91.3895705159
 31
0.0
  0
LINE
  5
223
  8
0
  6
CONTINUOUS
 62
     7
 10
385.8588196
 20
91.3895705159
 30
0.0
 11
385.8588196
 21
71.3895702179
 31
0.0
  0
LINE
  5
224
  8
0
  6
CONTINUOUS
 62
     7
 10
385.8588196
 20
71.3895702179
 30
0.0
 11
385.8588196
 21
56.389572602
 31
0.0
  0
LINE
  5
225
  8
0
  6
CONTINUOUS
 62
     7
 10
391.2588216027
 20
56.389572602
 30
0.0
 11
391.2588216027
 21
71.3895702179
 31
0.0
  0
LINE
  5
226
  8
0
  6
CONTINUOUS
 62
     7
 10
145.8588219842
 20
106.3895700176
 30
0.0
 11
145.8588219842
 21
91.3895705159
 31
0.0
  0
LINE
  5
227
  8
0
  6
CONTINUOUS
 62
     7
 10
151.2588180264
 20
91.3895705159
 30
0.0
 11
151.2588180264
 21
106.3895700176
 31
0.0
  0
LINE
  5
228
  8
0
  6
CONTINUOUS
 62
     7
 10
151.2588180264
 20
71.3895702179
 30
0.0
 11
151.2588180264
 21
91.3895705159
 31
0.0
  0
LINE
  5
229
  8
0
  6
CONTINUOUS
 62
     7
 10
145.8588219842
 20
91.3895705159
 30
0.0
 11
145.8588219842
 21
71.3895702179
 31
0.0
  0
LINE
  5
22A
  8
0
  6
CONTINUOUS
 62
     7
 10
145.8588219842
 20
71.3895702179
 30
0.0
 11
145.8588219842
 21
56.389572602
 31
0.0
  0
LINE
  5
22B
  8
0
  6
CONTINUOUS
 62
     7
 10
151.2588180264
 20
56.389572602
 30
0.0
 11
151.2588180264
 21
71.3895702179
 31
0.0
  0
LINE
  5
22C
  8
0
  6
CONTINUOUS
 62
     7
 10
265.8588207921
 20
106.3895700176
 30
0.0
 11
265.8588207921
 21
91.3895705159
 31
0.0
  0
LINE
  5
22D
  8
0
  6
CONTINUOUS
 62
     7
 10
271.2588168343
 20
91.3895705159
 30
0.0
 11
271.2588168343
 21
106.3895700176
 31
0.0
  0
LINE
  5
22E
  8
0
  6
CONTINUOUS
 62
     7
 10
271.2588168343
 20
71.3895702179
 30
0.0
 11
271.2588168343
 21
91.3895705159
 31
0.0
  0
LINE
  5
22F
  8
0
  6
CONTINUOUS
 62
     7
 10
265.8588207921
 20
91.3895705159
 30
0.0
 11
265.8588207921
 21
71.3895702179
 31
0.0
  0
LINE
  5
230
  8
0
  6
CONTINUOUS
 62
     7
 10
265.8588207921
 20
71.3895702179
 30
0.0
 11
265.8588207921
 21
56.389572602
 31
0.0
  0
LINE
  5
231
  8
0
  6
CONTINUOUS
 62
     7
 10
271.2588168343
 20
56.389572602
 30
0.0
 11
271.2588168343
 21
71.3895702179
 31
0.0
  0
ARC
  5
232
  8
0
  6
CONTINUOUS
 62
     7
 10
180.4365998334
 20
88.6900920959
 30
0.0
 40
7.349242666434409
 50
115.9018910856
 51
164.5639882162
  0
ARC
  5
233
  8
0
  6
CONTINUOUS
 62
     7
 10
208.5588194093
 20
29.0008018995
 30
0.0
 40
73.3311348025156
 50
64.7052171818
 51
115.2947828182
  0
ARC
  5
234
  8
0
  6
CONTINUOUS
 62
     7
 10
236.6970848187
 20
88.7034453594
 30
0.0
 40
7.330226547465893
 50
15.3687847357
 51
64.1653359624
  0
POLYLINE
  5
235
  8
0
  6
CONTINUOUS
 62
     7
 66
     1
 10
0.0
 20
0.0
 30
0.0
  0
VERTEX
  5
655
  8
0
  6
CONTINUOUS
 62
     7
 10
243.765164133
 20
90.6461754258
 30
0.0
  0
VERTEX
  5
656
  8
0
  6
CONTINUOUS
 62
     7
 10
244.6822292765
 20
87.3545715029
 30
0.0
  0
VERTEX
  5
657
  8
0
  6
CONTINUOUS
 62
     7
 10
245.283404704
 20
84.0782964046
 30
0.0
  0
VERTEX
  5
658
  8
0
  6
CONTINUOUS
 62
     7
 10
245.6409252843
 20
80.78615604
 30
0.0
  0
VERTEX
  5
659
  8
0
  6
CONTINUOUS
 62
     7
 10
245.8556837996
 20
77.4909728582
 30
0.0
  0
VERTEX
  5
65A
  8
0
  6
CONTINUOUS
 62
     7
 10
245.9374315699
 20
74.1927826221
 30
0.0
  0
VERTEX
  5
65B
  8
0
  6
CONTINUOUS
 62
     7
 10
245.9342665633
 20
70.891960841
 30
0.0
  0
VERTEX
  5
65C
  8
0
  6
CONTINUOUS
 62
     7
 10
245.9071643313
 20
67.591693383
 30
0.0
  0
VERTEX
  5
65D
  8
0
  6
CONTINUOUS
 62
     7
 10
245.9050066432
 20
64.2941766794
 30
0.0
  0
VERTEX
  5
65E
  8
0
  6
CONTINUOUS
 62
     7
 10
245.9519423207
 20
57.974027973
 30
0.0
  0
VERTEX
  5
65F
  8
0
  6
CONTINUOUS
 62
     7
 10
245.9860331973
 20
51.6532981212
 30
0.0
  0
VERTEX
  5
660
  8
0
  6
CONTINUOUS
 62
     7
 10
245.9950364789
 20
45.4000675495
 30
0.0
  0
VERTEX
  5
661
  8
0
  6
CONTINUOUS
 62
     7
 10
245.9968544206
 20
43.5553455169
 30
0.0
  0
VERTEX
  5
662
  8
0
  6
CONTINUOUS
 62
     7
 10
246.0013426503
 20
41.6878187473
 30
0.0
  0
VERTEX
  5
663
  8
0
  6
CONTINUOUS
 62
     7
 10
246.010539647
 20
39.7924566085
 30
0.0
  0
VERTEX
  5
664
  8
0
  6
CONTINUOUS
 62
     7
 10
246.0265256127
 20
37.8648900802
 30
0.0
  0
VERTEX
  5
665
  8
0
  6
CONTINUOUS
 62
     7
 10
246.0506237706
 20
35.8963155563
 30
0.0
  0
SEQEND
  5
75E
  8
0
  6
CONTINUOUS
 62
     7
  0
ARC
  5
236
  8
0
  6
CONTINUOUS
 62
     7
 10
239.3304763384
 20
35.7029647642
 30
0.0
 40
6.722928382776501
 50
275.3899218463
 51
1.6480485111
  0
ARC
  5
237
  8
0
  6
CONTINUOUS
 62
     7
 10
208.5588194093
 20
368.9407048809
 30
0.0
 40
341.3783893576827
 50
264.7219388975
 51
275.2780611025
  0
ARC
  5
238
  8
0
  6
CONTINUOUS
 62
     7
 10
177.7771684372
 20
35.6941286838
 30
0.0
 40
6.713198793403712
 50
178.2741153836
 51
264.6879142591
  0
POLYLINE
  5
239
  8
0
  6
CONTINUOUS
 62
     7
 66
     1
 10
0.0
 20
0.0
 30
0.0
  0
VERTEX
  5
666
  8
0
  6
CONTINUOUS
 62
     7
 10
171.0670150479
 20
35.8963155563
 30
0.0
  0
VERTEX
  5
667
  8
0
  6
CONTINUOUS
 62
     7
 10
171.0953332147
 20
38.2933401878
 30
0.0
  0
VERTEX
  5
668
  8
0
  6
CONTINUOUS
 62
     7
 10
171.1118735036
 20
40.6330311115
 30
0.0
  0
VERTEX
  5
669
  8
0
  6
CONTINUOUS
 62
     7
 10
171.1196697911
 20
42.9274344261
 30
0.0
  0
VERTEX
  5
66A
  8
0
  6
CONTINUOUS
 62
     7
 10
171.1224622687
 20
45.1853060539
 30
0.0
  0
VERTEX
  5
66B
  8
0
  6
CONTINUOUS
 62
     7
 10
171.1238629779
 20
47.4158370311
 30
0.0
  0
VERTEX
  5
66C
  8
0
  6
CONTINUOUS
 62
     7
 10
171.1267746648
 20
49.6432745273
 30
0.0
  0
VERTEX
  5
66D
  8
0
  6
CONTINUOUS
 62
     7
 10
171.1323149165
 20
51.8841767128
 30
0.0
  0
VERTEX
  5
66E
  8
0
  6
CONTINUOUS
 62
     7
 10
171.1666412314
 20
58.0902361686
 30
0.0
  0
VERTEX
  5
66F
  8
0
  6
CONTINUOUS
 62
     7
 10
171.2126321753
 20
64.2941766794
 30
0.0
  0
VERTEX
  5
670
  8
0
  6
CONTINUOUS
 62
     7
 10
171.2104744872
 20
67.591693383
 30
0.0
  0
VERTEX
  5
671
  8
0
  6
CONTINUOUS
 62
     7
 10
171.1833722552
 20
70.891960841
 30
0.0
  0
VERTEX
  5
672
  8
0
  6
CONTINUOUS
 62
     7
 10
171.1802072486
 20
74.1927826221
 30
0.0
  0
VERTEX
  5
673
  8
0
  6
CONTINUOUS
 62
     7
 10
171.2619550189
 20
77.4909728582
 30
0.0
  0
VERTEX
  5
674
  8
0
  6
CONTINUOUS
 62
     7
 10
171.4767135342
 20
80.78615604
 30
0.0
  0
VERTEX
  5
675
  8
0
  6
CONTINUOUS
 62
     7
 10
171.8342341145
 20
84.0782964046
 30
0.0
  0
VERTEX
  5
676
  8
0
  6
CONTINUOUS
 62
     7
 10
172.435409542
 20
87.3545715029
 30
0.0
  0
VERTEX
  5
677
  8
0
  6
CONTINUOUS
 62
     7
 10
173.3524746856
 20
90.6461754258
 30
0.0
  0
SEQEND
  5
75D
  8
0
  6
CONTINUOUS
 62
     7
  0
ARC
  5
23A
  8
0
  6
CONTINUOUS
 62
     7
 10
208.5588194093
 20
29.0130796534
 30
0.0
 40
73.33969272412412
 50
64.365028314
 51
115.634971686
  0
ARC
  5
23B
  8
0
  6
CONTINUOUS
 62
     7
 10
237.0326066844
 20
88.5274091103
 30
0.0
 40
7.365053893038955
 50
15.544569452
 51
63.7661944591
  0
ARC
  5
23C
  8
0
  6
CONTINUOUS
 62
     7
 10
180.0671837356
 20
88.5422036722
 30
0.0
 40
7.343899690940193
 50
116.159920293
 51
164.5293157959
  0
POLYLINE
  5
23D
  8
0
  6
CONTINUOUS
 62
     7
 66
     1
 10
0.0
 20
0.0
 30
0.0
  0
VERTEX
  5
678
  8
0
  6
CONTINUOUS
 62
     7
 10
244.128263708
 20
90.5011543448
 30
0.0
  0
VERTEX
  5
679
  8
0
  6
CONTINUOUS
 62
     7
 10
244.5621795615
 20
88.9879995401
 30
0.0
  0
VERTEX
  5
67A
  8
0
  6
CONTINUOUS
 62
     7
 10
244.960150834
 20
87.4748417552
 30
0.0
  0
SEQEND
  5
75C
  8
0
  6
CONTINUOUS
 62
     7
  0
ARC
  5
23E
  8
0
  6
CONTINUOUS
 62
     7
 10
186.3138415657
 20
75.53228882
 30
0.0
 40
59.84974357643159
 50
6.6422335737
 51
11.5101505537
  0
POLYLINE
  5
23F
  8
0
  6
CONTINUOUS
 62
     7
 66
     1
 10
0.0
 20
0.0
 30
0.0
  0
VERTEX
  5
67B
  8
0
  6
CONTINUOUS
 62
     7
 10
245.761574026
 20
82.4550399001
 30
0.0
  0
VERTEX
  5
67C
  8
0
  6
CONTINUOUS
 62
     7
 10
245.985836502
 20
79.9516194875
 30
0.0
  0
VERTEX
  5
67D
  8
0
  6
CONTINUOUS
 62
     7
 10
246.130344983
 20
77.4478727396
 30
0.0
  0
SEQEND
  5
75B
  8
0
  6
CONTINUOUS
 62
     7
  0
LINE
  5
240
  8
0
  6
CONTINUOUS
 62
     7
 10
246.1588181218
 20
75.5950027521
 30
0.0
 11
246.1299962958
 21
77.4478578384
 31
0.0
  0
LINE
  5
241
  8
0
  6
CONTINUOUS
 62
     7
 10
246.1588181218
 20
67.4834453876
 30
0.0
 11
246.1588181218
 21
75.5950027521
 31
0.0
  0
POLYLINE
  5
242
  8
0
  6
CONTINUOUS
 62
     7
 66
     1
 10
0.0
 20
0.0
 30
0.0
  0
VERTEX
  5
67E
  8
0
  6
CONTINUOUS
 62
     7
 10
246.1588181218
 20
67.483463269
 30
0.0
  0
VERTEX
  5
67F
  8
0
  6
CONTINUOUS
 62
     7
 10
246.1441106757
 20
64.3115991171
 30
0.0
  0
VERTEX
  5
680
  8
0
  6
CONTINUOUS
 62
     7
 10
246.1588240823
 20
57.4835741337
 30
0.0
  0
SEQEND
  5
75A
  8
0
  6
CONTINUOUS
 62
     7
  0
POLYLINE
  5
243
  8
0
  6
CONTINUOUS
 62
     7
 66
     1
 10
0.0
 20
0.0
 30
0.0
  0
VERTEX
  5
681
  8
0
  6
CONTINUOUS
 62
     7
 10
246.1588896474
 20
35.8290993984
 30
0.0
  0
VERTEX
  5
682
  8
0
  6
CONTINUOUS
 62
     7
 10
246.1588896474
 20
36.1370408352
 30
0.0
  0
VERTEX
  5
683
  8
0
  6
CONTINUOUS
 62
     7
 10
246.1586750707
 20
38.5488891418
 30
0.0
  0
VERTEX
  5
684
  8
0
  6
CONTINUOUS
 62
     7
 10
246.1581982335
 20
40.9334444816
 30
0.0
  0
VERTEX
  5
685
  8
0
  6
CONTINUOUS
 62
     7
 10
246.1578465661
 20
43.2967924888
 30
0.0
  0
VERTEX
  5
686
  8
0
  6
CONTINUOUS
 62
     7
 10
246.159166809
 20
48.0056428726
 30
0.0
  0
VERTEX
  5
687
  8
0
  6
CONTINUOUS
 62
     7
 10
246.1626417598
 20
52.7395450885
 30
0.0
  0
VERTEX
  5
688
  8
0
  6
CONTINUOUS
 62
     7
 10
246.1588181218
 20
57.4835741337
 30
0.0
  0
SEQEND
  5
759
  8
0
  6
CONTINUOUS
 62
     7
  0
LINE
  5
244
  8
0
  6
CONTINUOUS
 62
     7
 10
170.9588206967
 20
57.4835741337
 30
0.0
 11
170.9588206967
 21
47.4857294376
 31
0.0
  0
POLYLINE
  5
245
  8
0
  6
CONTINUOUS
 62
     7
 66
     1
 10
0.0
 20
0.0
 30
0.0
  0
VERTEX
  5
689
  8
0
  6
CONTINUOUS
 62
     7
 10
170.9588147363
 20
57.4835741337
 30
0.0
  0
VERTEX
  5
68A
  8
0
  6
CONTINUOUS
 62
     7
 10
170.9735281428
 20
64.3115991171
 30
0.0
  0
VERTEX
  5
68B
  8
0
  6
CONTINUOUS
 62
     7
 10
170.9588206967
 20
67.483463269
 30
0.0
  0
SEQEND
  5
758
  8
0
  6
CONTINUOUS
 62
     7
  0
LINE
  5
246
  8
0
  6
CONTINUOUS
 62
     7
 10
170.9588206967
 20
75.5950027521
 30
0.0
 11
170.9588206967
 21
67.4834453876
 31
0.0
  0
LINE
  5
247
  8
0
  6
CONTINUOUS
 62
     7
 10
170.9876425227
 20
77.4478578384
 30
0.0
 11
170.9588206967
 21
75.5950027521
 31
0.0
  0
POLYLINE
  5
248
  8
0
  6
CONTINUOUS
 62
     7
 66
     1
 10
0.0
 20
0.0
 30
0.0
  0
VERTEX
  5
68C
  8
0
  6
CONTINUOUS
 62
     7
 10
170.9872938355
 20
77.4478727396
 30
0.0
  0
VERTEX
  5
68D
  8
0
  6
CONTINUOUS
 62
     7
 10
171.1318023166
 20
79.9516194875
 30
0.0
  0
VERTEX
  5
68E
  8
0
  6
CONTINUOUS
 62
     7
 10
171.3560647925
 20
82.4550399001
 30
0.0
  0
SEQEND
  5
757
  8
0
  6
CONTINUOUS
 62
     7
  0
ARC
  5
249
  8
0
  6
CONTINUOUS
 62
     7
 10
230.7591403591
 20
75.5394226646
 30
0.0
 40
59.80456129352201
 50
168.488009485
 51
173.3596063875
  0
POLYLINE
  5
24A
  8
0
  6
CONTINUOUS
 62
     7
 66
     1
 10
0.0
 20
0.0
 30
0.0
  0
VERTEX
  5
68F
  8
0
  6
CONTINUOUS
 62
     7
 10
172.1588201484
 20
87.4804311807
 30
0.0
  0
VERTEX
  5
690
  8
0
  6
CONTINUOUS
 62
     7
 10
172.5562460383
 20
88.9907949979
 30
0.0
  0
VERTEX
  5
691
  8
0
  6
CONTINUOUS
 62
     7
 10
172.9893751105
 20
90.5011543448
 30
0.0
  0
SEQEND
  5
756
  8
0
  6
CONTINUOUS
 62
     7
  0
POLYLINE
  5
24B
  8
0
  6
CONTINUOUS
 62
     7
 66
     1
 10
0.0
 20
0.0
 30
0.0
  0
VERTEX
  5
692
  8
0
  6
CONTINUOUS
 62
     7
 10
170.9587491711
 20
35.8300471122
 30
0.0
  0
VERTEX
  5
693
  8
0
  6
CONTINUOUS
 62
     7
 10
170.9587491711
 20
35.8553731258
 30
0.0
  0
VERTEX
  5
694
  8
0
  6
CONTINUOUS
 62
     7
 10
170.9589190444
 20
38.268383723
 30
0.0
  0
VERTEX
  5
695
  8
0
  6
CONTINUOUS
 62
     7
 10
170.9593839606
 20
40.6568491275
 30
0.0
  0
VERTEX
  5
696
  8
0
  6
CONTINUOUS
 62
     7
 10
170.9597684106
 20
43.0227660949
 30
0.0
  0
VERTEX
  5
697
  8
0
  6
CONTINUOUS
 62
     7
 10
170.9596670827
 20
45.3775906379
 30
0.0
  0
VERTEX
  5
698
  8
0
  6
CONTINUOUS
 62
     7
 10
170.9588206967
 20
47.4857294376
 30
0.0
  0
SEQEND
  5
755
  8
0
  6
CONTINUOUS
 62
     7
  0
ARC
  5
24C
  8
0
  6
CONTINUOUS
 62
     7
 10
239.5144080456
 20
35.6924551593
 30
0.0
 40
6.645886502542972
 50
292.544393283
 51
1.1781257346
  0
ARC
  5
24D
  8
0
  6
CONTINUOUS
 62
     7
 10
177.6062760323
 20
35.6964395213
 30
0.0
 40
6.648869404511411
 50
178.8485762181
 51
250.641800128
  0
LINE
  5
24E
  8
0
  6
CONTINUOUS
 62
     7
 10
245.7588202914
 20
82.4811929281
 30
0.0
 11
245.7618601283
 21
82.4550726826
 31
0.0
  0
POLYLINE
  5
24F
  8
0
  6
CONTINUOUS
 62
     7
 66
     1
 10
0.0
 20
0.0
 30
0.0
  0
VERTEX
  5
699
  8
0
  6
CONTINUOUS
 62
     7
 10
244.9599690398
 20
87.4747985418
 30
0.0
  0
VERTEX
  5
69A
  8
0
  6
CONTINUOUS
 62
     7
 10
245.4121537169
 20
84.9889331873
 30
0.0
  0
VERTEX
  5
69B
  8
0
  6
CONTINUOUS
 62
     7
 10
245.7588202914
 20
82.4811929281
 30
0.0
  0
SEQEND
  5
754
  8
0
  6
CONTINUOUS
 62
     7
  0
POLYLINE
  5
250
  8
0
  6
CONTINUOUS
 62
     7
 66
     1
 10
0.0
 20
0.0
 30
0.0
  0
VERTEX
  5
69C
  8
0
  6
CONTINUOUS
 62
     7
 10
171.3588185271
 20
82.4811929281
 30
0.0
  0
VERTEX
  5
69D
  8
0
  6
CONTINUOUS
 62
     7
 10
171.7047489842
 20
84.9843346889
 30
0.0
  0
VERTEX
  5
69E
  8
0
  6
CONTINUOUS
 62
     7
 10
172.1576697787
 20
87.4747985418
 30
0.0
  0
SEQEND
  5
753
  8
0
  6
CONTINUOUS
 62
     7
  0
LINE
  5
251
  8
0
  6
CONTINUOUS
 62
     7
 10
171.3557786902
 20
82.4550726826
 30
0.0
 11
171.3588185271
 21
82.4811929281
 31
0.0
  0
LINE
  5
252
  8
0
  6
CONTINUOUS
 62
     7
 10
246.1299962958
 20
77.4478578384
 30
0.0
 11
246.1588181218
 21
75.5971664007
 31
0.0
  0
LINE
  5
253
  8
0
  6
CONTINUOUS
 62
     7
 10
170.9588206967
 20
75.5971664007
 30
0.0
 11
170.9876425227
 21
77.4478578384
 31
0.0
  0
ARC
  5
254
  8
0
  6
CONTINUOUS
 62
     7
 10
328.5588211974
 20
29.0130659231
 30
0.0
 40
73.33970639235517
 50
64.3650308557
 51
115.6349691443
  0
ARC
  5
255
  8
0
  6
CONTINUOUS
 62
     7
 10
328.5588211974
 20
29.0007853514
 30
0.0
 40
73.33115103743347
 50
64.705220601
 51
115.294779399
  0
ARC
  5
256
  8
0
  6
CONTINUOUS
 62
     7
 10
300.4365834144
 20
88.6901093032
 30
0.0
 40
7.349220536149542
 50
115.9018429008
 51
164.5640797475
  0
ARC
  5
257
  8
0
  6
CONTINUOUS
 62
     7
 10
356.6971071572
 20
88.703473557
 30
0.0
 40
7.330193511455014
 50
15.3686271333
 51
64.1653635254
  0
POLYLINE
  5
258
  8
0
  6
CONTINUOUS
 62
     7
 66
     1
 10
0.0
 20
0.0
 30
0.0
  0
VERTEX
  5
69F
  8
0
  6
CONTINUOUS
 62
     7
 10
363.7651659211
 20
90.6461754258
 30
0.0
  0
VERTEX
  5
6A0
  8
0
  6
CONTINUOUS
 62
     7
 10
364.6822310647
 20
87.3545715029
 30
0.0
  0
VERTEX
  5
6A1
  8
0
  6
CONTINUOUS
 62
     7
 10
365.2834035119
 20
84.0782964046
 30
0.0
  0
VERTEX
  5
6A2
  8
0
  6
CONTINUOUS
 62
     7
 10
365.6409240922
 20
80.78615604
 30
0.0
  0
VERTEX
  5
6A3
  8
0
  6
CONTINUOUS
 62
     7
 10
365.8556796273
 20
77.4909728582
 30
0.0
  0
VERTEX
  5
6A4
  8
0
  6
CONTINUOUS
 62
     7
 10
365.9374333581
 20
74.1927826221
 30
0.0
  0
VERTEX
  5
6A5
  8
0
  6
CONTINUOUS
 62
     7
 10
365.934262391
 20
70.891960841
 30
0.0
  0
VERTEX
  5
6A6
  8
0
  6
CONTINUOUS
 62
     7
 10
365.9071661195
 20
67.591693383
 30
0.0
  0
VERTEX
  5
6A7
  8
0
  6
CONTINUOUS
 62
     7
 10
365.9050084313
 20
64.2941766794
 30
0.0
  0
VERTEX
  5
6A8
  8
0
  6
CONTINUOUS
 62
     7
 10
365.9519411286
 20
57.974027973
 30
0.0
  0
VERTEX
  5
6A9
  8
0
  6
CONTINUOUS
 62
     7
 10
365.9860349854
 20
51.6532981212
 30
0.0
  0
VERTEX
  5
6AA
  8
0
  6
CONTINUOUS
 62
     7
 10
365.9950352868
 20
45.4000675495
 30
0.0
  0
VERTEX
  5
6AB
  8
0
  6
CONTINUOUS
 62
     7
 10
365.996847268
 20
43.5553455169
 30
0.0
  0
VERTEX
  5
6AC
  8
0
  6
CONTINUOUS
 62
     7
 10
366.0013414582
 20
41.6878187473
 30
0.0
  0
VERTEX
  5
6AD
  8
0
  6
CONTINUOUS
 62
     7
 10
366.0105324944
 20
39.7924566085
 30
0.0
  0
VERTEX
  5
6AE
  8
0
  6
CONTINUOUS
 62
     7
 10
366.0265303811
 20
37.8648900802
 30
0.0
  0
VERTEX
  5
6AF
  8
0
  6
CONTINUOUS
 62
     7
 10
366.0506225785
 20
35.8963155563
 30
0.0
  0
SEQEND
  5
752
  8
0
  6
CONTINUOUS
 62
     7
  0
ARC
  5
259
  8
0
  6
CONTINUOUS
 62
     7
 10
359.330471228
 20
35.7029679551
 30
0.0
 40
6.722932207627603
 50
275.3899778237
 51
1.6480203672
  0
ARC
  5
25A
  8
0
  6
CONTINUOUS
 62
     7
 10
328.5588211974
 20
368.9406701089
 30
0.0
 40
341.3783547331204
 50
264.7219383607
 51
275.2780616393
  0
ARC
  5
25B
  8
0
  6
CONTINUOUS
 62
     7
 10
297.7771700498
 20
35.6941314325
 30
0.0
 40
6.713201514005629
 50
178.2741395531
 51
264.687917923
  0
POLYLINE
  5
25C
  8
0
  6
CONTINUOUS
 62
     7
 66
     1
 10
0.0
 20
0.0
 30
0.0
  0
VERTEX
  5
6B0
  8
0
  6
CONTINUOUS
 62
     7
 10
291.0670138558
 20
35.8963155563
 30
0.0
  0
VERTEX
  5
6B1
  8
0
  6
CONTINUOUS
 62
     7
 10
291.0953320226
 20
38.2933401878
 30
0.0
  0
VERTEX
  5
6B2
  8
0
  6
CONTINUOUS
 62
     7
 10
291.1118723115
 20
40.6330311115
 30
0.0
  0
VERTEX
  5
6B3
  8
0
  6
CONTINUOUS
 62
     7
 10
291.119668599
 20
42.9274344261
 30
0.0
  0
VERTEX
  5
6B4
  8
0
  6
CONTINUOUS
 62
     7
 10
291.1224640569
 20
45.1853060539
 30
0.0
  0
VERTEX
  5
6B5
  8
0
  6
CONTINUOUS
 62
     7
 10
291.123864766
 20
47.4158370311
 30
0.0
  0
VERTEX
  5
6B6
  8
0
  6
CONTINUOUS
 62
     7
 10
291.1267734727
 20
49.6432745273
 30
0.0
  0
VERTEX
  5
6B7
  8
0
  6
CONTINUOUS
 62
     7
 10
291.1323167046
 20
51.8841767128
 30
0.0
  0
VERTEX
  5
6B8
  8
0
  6
CONTINUOUS
 62
     7
 10
291.1666430196
 20
58.0902361686
 30
0.0
  0
VERTEX
  5
6B9
  8
0
  6
CONTINUOUS
 62
     7
 10
291.2126339635
 20
64.2941766794
 30
0.0
  0
VERTEX
  5
6BA
  8
0
  6
CONTINUOUS
 62
     7
 10
291.2104762753
 20
67.591693383
 30
0.0
  0
VERTEX
  5
6BB
  8
0
  6
CONTINUOUS
 62
     7
 10
291.1833740434
 20
70.891960841
 30
0.0
  0
VERTEX
  5
6BC
  8
0
  6
CONTINUOUS
 62
     7
 10
291.1802090367
 20
74.1927826221
 30
0.0
  0
VERTEX
  5
6BD
  8
0
  6
CONTINUOUS
 62
     7
 10
291.261956807
 20
77.4909728582
 30
0.0
  0
VERTEX
  5
6BE
  8
0
  6
CONTINUOUS
 62
     7
 10
291.4767123422
 20
80.78615604
 30
0.0
  0
VERTEX
  5
6BF
  8
0
  6
CONTINUOUS
 62
     7
 10
291.8342329224
 20
84.0782964046
 30
0.0
  0
VERTEX
  5
6C0
  8
0
  6
CONTINUOUS
 62
     7
 10
292.4354113301
 20
87.3545715029
 30
0.0
  0
VERTEX
  5
6C1
  8
0
  6
CONTINUOUS
 62
     7
 10
293.3524764737
 20
90.6461754258
 30
0.0
  0
SEQEND
  5
751
  8
0
  6
CONTINUOUS
 62
     7
  0
ARC
  5
25D
  8
0
  6
CONTINUOUS
 62
     7
 10
357.0325439297
 20
88.527357705
 30
0.0
 40
7.365129851135027
 50
15.5448201664
 51
63.7659000493
  0
ARC
  5
25E
  8
0
  6
CONTINUOUS
 62
     7
 10
300.0671869722
 20
88.5422045545
 30
0.0
 40
7.343900851564881
 50
116.1599543402
 51
164.5293254441
  0
LINE
  5
25F
  8
0
  6
CONTINUOUS
 62
     7
 10
290.9588195046
 20
57.4835741337
 30
0.0
 11
290.9588195046
 21
47.4857294376
 31
0.0
  0
POLYLINE
  5
260
  8
0
  6
CONTINUOUS
 62
     7
 66
     1
 10
0.0
 20
0.0
 30
0.0
  0
VERTEX
  5
6C2
  8
0
  6
CONTINUOUS
 62
     7
 10
290.9588135442
 20
57.4835741337
 30
0.0
  0
VERTEX
  5
6C3
  8
0
  6
CONTINUOUS
 62
     7
 10
290.973529931
 20
64.3115991171
 30
0.0
  0
VERTEX
  5
6C4
  8
0
  6
CONTINUOUS
 62
     7
 10
290.9588195046
 20
67.483463269
 30
0.0
  0
SEQEND
  5
750
  8
0
  6
CONTINUOUS
 62
     7
  0
LINE
  5
261
  8
0
  6
CONTINUOUS
 62
     7
 10
290.9588195046
 20
75.5950027521
 30
0.0
 11
290.9588195046
 21
67.4834453876
 31
0.0
  0
LINE
  5
262
  8
0
  6
CONTINUOUS
 62
     7
 10
290.9876443108
 20
77.4478578384
 30
0.0
 11
290.9588195046
 21
75.5950027521
 31
0.0
  0
POLYLINE
  5
263
  8
0
  6
CONTINUOUS
 62
     7
 66
     1
 10
0.0
 20
0.0
 30
0.0
  0
VERTEX
  5
6C5
  8
0
  6
CONTINUOUS
 62
     7
 10
290.9872926434
 20
77.4478727396
 30
0.0
  0
VERTEX
  5
6C6
  8
0
  6
CONTINUOUS
 62
     7
 10
291.1317981442
 20
79.9516194875
 30
0.0
  0
VERTEX
  5
6C7
  8
0
  6
CONTINUOUS
 62
     7
 10
291.3560665807
 20
82.4550399001
 30
0.0
  0
SEQEND
  5
74F
  8
0
  6
CONTINUOUS
 62
     7
  0
ARC
  5
264
  8
0
  6
CONTINUOUS
 62
     7
 10
350.756685814
 20
75.5398150586
 30
0.0
 40
59.80207606333695
 50
168.4879081981
 51
173.3597076745
  0
POLYLINE
  5
265
  8
0
  6
CONTINUOUS
 62
     7
 66
     1
 10
0.0
 20
0.0
 30
0.0
  0
VERTEX
  5
6C8
  8
0
  6
CONTINUOUS
 62
     7
 10
292.1588219365
 20
87.4804311807
 30
0.0
  0
VERTEX
  5
6C9
  8
0
  6
CONTINUOUS
 62
     7
 10
292.5562478265
 20
88.9907949979
 30
0.0
  0
VERTEX
  5
6CA
  8
0
  6
CONTINUOUS
 62
     7
 10
292.9893768987
 20
90.5011543448
 30
0.0
  0
SEQEND
  5
74E
  8
0
  6
CONTINUOUS
 62
     7
  0
POLYLINE
  5
266
  8
0
  6
CONTINUOUS
 62
     7
 66
     1
 10
0.0
 20
0.0
 30
0.0
  0
VERTEX
  5
6CB
  8
0
  6
CONTINUOUS
 62
     7
 10
290.9587479791
 20
35.8300471122
 30
0.0
  0
VERTEX
  5
6CC
  8
0
  6
CONTINUOUS
 62
     7
 10
290.9587479791
 20
35.8553731258
 30
0.0
  0
VERTEX
  5
6CD
  8
0
  6
CONTINUOUS
 62
     7
 10
290.9589208325
 20
38.268383723
 30
0.0
  0
VERTEX
  5
6CE
  8
0
  6
CONTINUOUS
 62
     7
 10
290.9593857488
 20
40.6568491275
 30
0.0
  0
VERTEX
  5
6CF
  8
0
  6
CONTINUOUS
 62
     7
 10
290.9597672185
 20
43.0227660949
 30
0.0
  0
VERTEX
  5
6D0
  8
0
  6
CONTINUOUS
 62
     7
 10
290.9596658906
 20
45.3775906379
 30
0.0
  0
VERTEX
  5
6D1
  8
0
  6
CONTINUOUS
 62
     7
 10
290.9588195046
 20
47.4857294376
 30
0.0
  0
SEQEND
  5
74D
  8
0
  6
CONTINUOUS
 62
     7
  0
POLYLINE
  5
267
  8
0
  6
CONTINUOUS
 62
     7
 66
     1
 10
0.0
 20
0.0
 30
0.0
  0
VERTEX
  5
6D2
  8
0
  6
CONTINUOUS
 62
     7
 10
364.1282654961
 20
90.5011543448
 30
0.0
  0
VERTEX
  5
6D3
  8
0
  6
CONTINUOUS
 62
     7
 10
364.5621753892
 20
88.9879995401
 30
0.0
  0
VERTEX
  5
6D4
  8
0
  6
CONTINUOUS
 62
     7
 10
364.9601556023
 20
87.4748417552
 30
0.0
  0
SEQEND
  5
74C
  8
0
  6
CONTINUOUS
 62
     7
  0
ARC
  5
268
  8
0
  6
CONTINUOUS
 62
     7
 10
306.3188487813
 20
75.5330187956
 30
0.0
 40
59.84468731089841
 50
6.6420936952
 51
11.5104231132
  0
POLYLINE
  5
269
  8
0
  6
CONTINUOUS
 62
     7
 66
     1
 10
0.0
 20
0.0
 30
0.0
  0
VERTEX
  5
6D5
  8
0
  6
CONTINUOUS
 62
     7
 10
365.7615758141
 20
82.4550399001
 30
0.0
  0
VERTEX
  5
6D6
  8
0
  6
CONTINUOUS
 62
     7
 10
365.9858323296
 20
79.9516194875
 30
0.0
  0
VERTEX
  5
6D7
  8
0
  6
CONTINUOUS
 62
     7
 10
366.1303378304
 20
77.4478727396
 30
0.0
  0
SEQEND
  5
74B
  8
0
  6
CONTINUOUS
 62
     7
  0
LINE
  5
26A
  8
0
  6
CONTINUOUS
 62
     7
 10
366.1588169297
 20
75.5950027521
 30
0.0
 11
366.1299921235
 21
77.4478578384
 31
0.0
  0
LINE
  5
26B
  8
0
  6
CONTINUOUS
 62
     7
 10
366.1588169297
 20
67.4834453876
 30
0.0
 11
366.1588169297
 21
75.5950027521
 31
0.0
  0
POLYLINE
  5
26C
  8
0
  6
CONTINUOUS
 62
     7
 66
     1
 10
0.0
 20
0.0
 30
0.0
  0
VERTEX
  5
6D8
  8
0
  6
CONTINUOUS
 62
     7
 10
366.1588169297
 20
67.483463269
 30
0.0
  0
VERTEX
  5
6D9
  8
0
  6
CONTINUOUS
 62
     7
 10
366.1441065034
 20
64.3115991171
 30
0.0
  0
VERTEX
  5
6DA
  8
0
  6
CONTINUOUS
 62
     7
 10
366.1588169297
 20
57.4835741337
 30
0.0
  0
SEQEND
  5
74A
  8
0
  6
CONTINUOUS
 62
     7
  0
POLYLINE
  5
26D
  8
0
  6
CONTINUOUS
 62
     7
 66
     1
 10
0.0
 20
0.0
 30
0.0
  0
VERTEX
  5
6DB
  8
0
  6
CONTINUOUS
 62
     7
 10
366.1588884553
 20
35.8290993984
 30
0.0
  0
VERTEX
  5
6DC
  8
0
  6
CONTINUOUS
 62
     7
 10
366.1588884553
 20
36.1370408352
 30
0.0
  0
VERTEX
  5
6DD
  8
0
  6
CONTINUOUS
 62
     7
 10
366.1586738786
 20
38.5488891418
 30
0.0
  0
VERTEX
  5
6DE
  8
0
  6
CONTINUOUS
 62
     7
 10
366.1581970414
 20
40.9334444816
 30
0.0
  0
VERTEX
  5
6DF
  8
0
  6
CONTINUOUS
 62
     7
 10
366.1578513345
 20
43.2967924888
 30
0.0
  0
VERTEX
  5
6E0
  8
0
  6
CONTINUOUS
 62
     7
 10
366.1591626366
 20
48.0056428726
 30
0.0
  0
VERTEX
  5
6E1
  8
0
  6
CONTINUOUS
 62
     7
 10
366.1626435479
 20
52.7395450885
 30
0.0
  0
VERTEX
  5
6E2
  8
0
  6
CONTINUOUS
 62
     7
 10
366.1588169297
 20
57.4835741337
 30
0.0
  0
SEQEND
  5
749
  8
0
  6
CONTINUOUS
 62
     7
  0
ARC
  5
26E
  8
0
  6
CONTINUOUS
 62
     7
 10
359.5144038191
 20
35.6924547199
 30
0.0
 40
6.645889545294327
 50
292.5444663561
 51
1.1781289845
  0
ARC
  5
26F
  8
0
  6
CONTINUOUS
 62
     7
 10
297.6062750093
 20
35.6964406638
 30
0.0
 40
6.648869550557066
 50
178.8485860905
 51
250.6418262469
  0
LINE
  5
270
  8
0
  6
CONTINUOUS
 62
     7
 10
365.7588220795
 20
82.4811929281
 30
0.0
 11
365.7618619164
 21
82.4550726826
 31
0.0
  0
POLYLINE
  5
271
  8
0
  6
CONTINUOUS
 62
     7
 66
     1
 10
0.0
 20
0.0
 30
0.0
  0
VERTEX
  5
6E3
  8
0
  6
CONTINUOUS
 62
     7
 10
364.9599648675
 20
87.4747985418
 30
0.0
  0
VERTEX
  5
6E4
  8
0
  6
CONTINUOUS
 62
     7
 10
365.4121495446
 20
84.9889331873
 30
0.0
  0
VERTEX
  5
6E5
  8
0
  6
CONTINUOUS
 62
     7
 10
365.7588220795
 20
82.4811929281
 30
0.0
  0
SEQEND
  5
748
  8
0
  6
CONTINUOUS
 62
     7
  0
POLYLINE
  5
272
  8
0
  6
CONTINUOUS
 62
     7
 66
     1
 10
0.0
 20
0.0
 30
0.0
  0
VERTEX
  5
6E6
  8
0
  6
CONTINUOUS
 62
     7
 10
291.3588203153
 20
82.4811929281
 30
0.0
  0
VERTEX
  5
6E7
  8
0
  6
CONTINUOUS
 62
     7
 10
291.7047477921
 20
84.9843346889
 30
0.0
  0
VERTEX
  5
6E8
  8
0
  6
CONTINUOUS
 62
     7
 10
292.1576715669
 20
87.4747985418
 30
0.0
  0
SEQEND
  5
747
  8
0
  6
CONTINUOUS
 62
     7
  0
LINE
  5
273
  8
0
  6
CONTINUOUS
 62
     7
 10
291.3557804784
 20
82.4550726826
 30
0.0
 11
291.3588203153
 21
82.4811929281
 31
0.0
  0
LINE
  5
274
  8
0
  6
CONTINUOUS
 62
     7
 10
366.1299921235
 20
77.4478578384
 30
0.0
 11
366.1588169297
 21
75.5971664007
 31
0.0
  0
LINE
  5
275
  8
0
  6
CONTINUOUS
 62
     7
 10
290.9588195046
 20
75.5971664007
 30
0.0
 11
290.9876443108
 21
77.4478578384
 31
0.0
  0
ARC
  5
276
  8
0
  6
CONTINUOUS
 62
     7
 10
60.4365873046
 20
88.6901121607
 30
0.0
 40
7.349221227328166
 50
115.901904995
 51
164.5641043464
  0
ARC
  5
277
  8
0
  6
CONTINUOUS
 62
     7
 10
88.5588176211
 20
29.0007859695
 30
0.0
 40
73.33115047861394
 50
64.7052203947
 51
115.2947796053
  0
ARC
  5
278
  8
0
  6
CONTINUOUS
 62
     7
 10
116.6971009096
 20
88.7034622834
 30
0.0
 40
7.330204822447497
 50
15.3686942198
 51
64.1653831319
  0
POLYLINE
  5
279
  8
0
  6
CONTINUOUS
 62
     7
 66
     1
 10
0.0
 20
0.0
 30
0.0
  0
VERTEX
  5
6E9
  8
0
  6
CONTINUOUS
 62
     7
 10
123.7651623448
 20
90.6461754258
 30
0.0
  0
VERTEX
  5
6EA
  8
0
  6
CONTINUOUS
 62
     7
 10
124.6822274884
 20
87.3545715029
 30
0.0
  0
VERTEX
  5
6EB
  8
0
  6
CONTINUOUS
 62
     7
 10
125.2834058961
 20
84.0782964046
 30
0.0
  0
VERTEX
  5
6EC
  8
0
  6
CONTINUOUS
 62
     7
 10
125.6409264764
 20
80.78615604
 30
0.0
  0
VERTEX
  5
6ED
  8
0
  6
CONTINUOUS
 62
     7
 10
125.8556820115
 20
77.4909728582
 30
0.0
  0
VERTEX
  5
6EE
  8
0
  6
CONTINUOUS
 62
     7
 10
125.9374297818
 20
74.1927826221
 30
0.0
  0
VERTEX
  5
6EF
  8
0
  6
CONTINUOUS
 62
     7
 10
125.9342647752
 20
70.891960841
 30
0.0
  0
VERTEX
  5
6F0
  8
0
  6
CONTINUOUS
 62
     7
 10
125.9071625432
 20
67.591693383
 30
0.0
  0
VERTEX
  5
6F1
  8
0
  6
CONTINUOUS
 62
     7
 10
125.905004855
 20
64.2941766794
 30
0.0
  0
VERTEX
  5
6F2
  8
0
  6
CONTINUOUS
 62
     7
 10
125.9519435128
 20
57.974027973
 30
0.0
  0
VERTEX
  5
6F3
  8
0
  6
CONTINUOUS
 62
     7
 10
125.9860314092
 20
51.6532981212
 30
0.0
  0
VERTEX
  5
6F4
  8
0
  6
CONTINUOUS
 62
     7
 10
125.995037671
 20
45.4000675495
 30
0.0
  0
VERTEX
  5
6F5
  8
0
  6
CONTINUOUS
 62
     7
 10
125.9968556126
 20
43.5553455169
 30
0.0
  0
VERTEX
  5
6F6
  8
0
  6
CONTINUOUS
 62
     7
 10
126.0013438424
 20
41.6878187473
 30
0.0
  0
VERTEX
  5
6F7
  8
0
  6
CONTINUOUS
 62
     7
 10
126.0105408391
 20
39.7924566085
 30
0.0
  0
VERTEX
  5
6F8
  8
0
  6
CONTINUOUS
 62
     7
 10
126.0265268048
 20
37.8648900802
 30
0.0
  0
VERTEX
  5
6F9
  8
0
  6
CONTINUOUS
 62
     7
 10
126.0506249627
 20
35.8963155563
 30
0.0
  0
SEQEND
  5
746
  8
0
  6
CONTINUOUS
 62
     7
  0
ARC
  5
27A
  8
0
  6
CONTINUOUS
 62
     7
 10
119.3304781632
 20
35.7029644781
 30
0.0
 40
6.722927758566268
 50
275.3898914204
 51
1.6480511034
  0
ARC
  5
27B
  8
0
  6
CONTINUOUS
 62
     7
 10
88.5588176211
 20
368.9406827439
 30
0.0
 40
341.3783673145867
 50
264.7219385558
 51
275.2780614442
  0
ARC
  5
27C
  8
0
  6
CONTINUOUS
 62
     7
 10
57.7771629238
 20
35.6941224862
 30
0.0
 40
6.713192277529902
 50
178.2740607887
 51
264.6879410205
  0
POLYLINE
  5
27D
  8
0
  6
CONTINUOUS
 62
     7
 66
     1
 10
0.0
 20
0.0
 30
0.0
  0
VERTEX
  5
6FA
  8
0
  6
CONTINUOUS
 62
     7
 10
51.06701624
 20
35.8963155563
 30
0.0
  0
VERTEX
  5
6FB
  8
0
  6
CONTINUOUS
 62
     7
 10
51.0953284463
 20
38.2933401878
 30
0.0
  0
VERTEX
  5
6FC
  8
0
  6
CONTINUOUS
 62
     7
 10
51.1118746957
 20
40.6330311115
 30
0.0
  0
VERTEX
  5
6FD
  8
0
  6
CONTINUOUS
 62
     7
 10
51.1196709832
 20
42.9274344261
 30
0.0
  0
VERTEX
  5
6FE
  8
0
  6
CONTINUOUS
 62
     7
 10
51.1224604806
 20
45.1853060539
 30
0.0
  0
VERTEX
  5
6FF
  8
0
  6
CONTINUOUS
 62
     7
 10
51.1238671502
 20
47.4158370311
 30
0.0
  0
VERTEX
  5
700
  8
0
  6
CONTINUOUS
 62
     7
 10
51.1267758569
 20
49.6432745273
 30
0.0
  0
VERTEX
  5
701
  8
0
  6
CONTINUOUS
 62
     7
 10
51.1323190888
 20
51.8841767128
 30
0.0
  0
VERTEX
  5
702
  8
0
  6
CONTINUOUS
 62
     7
 10
51.1666394433
 20
58.0902361686
 30
0.0
  0
VERTEX
  5
703
  8
0
  6
CONTINUOUS
 62
     7
 10
51.2126303872
 20
64.2941766794
 30
0.0
  0
VERTEX
  5
704
  8
0
  6
CONTINUOUS
 62
     7
 10
51.2104726991
 20
67.591693383
 30
0.0
  0
VERTEX
  5
705
  8
0
  6
CONTINUOUS
 62
     7
 10
51.1833764275
 20
70.891960841
 30
0.0
  0
VERTEX
  5
706
  8
0
  6
CONTINUOUS
 62
     7
 10
51.1802054604
 20
74.1927826221
 30
0.0
  0
VERTEX
  5
707
  8
0
  6
CONTINUOUS
 62
     7
 10
51.2619591912
 20
77.4909728582
 30
0.0
  0
VERTEX
  5
708
  8
0
  6
CONTINUOUS
 62
     7
 10
51.4767147263
 20
80.78615604
 30
0.0
  0
VERTEX
  5
709
  8
0
  6
CONTINUOUS
 62
     7
 10
51.8342353066
 20
84.0782964046
 30
0.0
  0
VERTEX
  5
70A
  8
0
  6
CONTINUOUS
 62
     7
 10
52.4354077538
 20
87.3545715029
 30
0.0
  0
VERTEX
  5
70B
  8
0
  6
CONTINUOUS
 62
     7
 10
53.3524728974
 20
90.6461754258
 30
0.0
  0
SEQEND
  5
745
  8
0
  6
CONTINUOUS
 62
     7
  0
ARC
  5
27E
  8
0
  6
CONTINUOUS
 62
     7
 10
88.5588176211
 20
29.0130661298
 30
0.0
 40
73.33970620599399
 50
64.3650307858
 51
115.6349692142
  0
ARC
  5
27F
  8
0
  6
CONTINUOUS
 62
     7
 10
117.032596083
 20
88.5274038993
 30
0.0
 40
7.365063780396201
 50
15.5445901336
 51
63.7661300822
  0
ARC
  5
280
  8
0
  6
CONTINUOUS
 62
     7
 10
60.0672222614
 20
88.5421723388
 30
0.0
 40
7.343946902240992
 50
116.16011569
 51
164.5291640942
  0
POLYLINE
  5
281
  8
0
  6
CONTINUOUS
 62
     7
 66
     1
 10
0.0
 20
0.0
 30
0.0
  0
VERTEX
  5
70C
  8
0
  6
CONTINUOUS
 62
     7
 10
124.1282619199
 20
90.5011543448
 30
0.0
  0
VERTEX
  5
70D
  8
0
  6
CONTINUOUS
 62
     7
 10
124.5621777734
 20
88.9879995401
 30
0.0
  0
VERTEX
  5
70E
  8
0
  6
CONTINUOUS
 62
     7
 10
124.9601520261
 20
87.4748417552
 30
0.0
  0
SEQEND
  5
744
  8
0
  6
CONTINUOUS
 62
     7
  0
ARC
  5
282
  8
0
  6
CONTINUOUS
 62
     7
 10
66.3175199114
 20
75.5328767136
 30
0.0
 40
59.84602014343868
 50
6.6420820492
 51
11.5103020782
  0
POLYLINE
  5
283
  8
0
  6
CONTINUOUS
 62
     7
 66
     1
 10
0.0
 20
0.0
 30
0.0
  0
VERTEX
  5
70F
  8
0
  6
CONTINUOUS
 62
     7
 10
125.7615722379
 20
82.4550399001
 30
0.0
  0
VERTEX
  5
710
  8
0
  6
CONTINUOUS
 62
     7
 10
125.9858406743
 20
79.9516194875
 30
0.0
  0
VERTEX
  5
711
  8
0
  6
CONTINUOUS
 62
     7
 10
126.1303461751
 20
77.4478727396
 30
0.0
  0
SEQEND
  5
743
  8
0
  6
CONTINUOUS
 62
     7
  0
LINE
  5
284
  8
0
  6
CONTINUOUS
 62
     7
 10
126.1588193139
 20
75.5950027521
 30
0.0
 11
126.1299945077
 21
77.4478578384
 31
0.0
  0
LINE
  5
285
  8
0
  6
CONTINUOUS
 62
     7
 10
126.1588193139
 20
67.4834453876
 30
0.0
 11
126.1588193139
 21
75.5950027521
 31
0.0
  0
POLYLINE
  5
286
  8
0
  6
CONTINUOUS
 62
     7
 66
     1
 10
0.0
 20
0.0
 30
0.0
  0
VERTEX
  5
712
  8
0
  6
CONTINUOUS
 62
     7
 10
126.1588193139
 20
67.483463269
 30
0.0
  0
VERTEX
  5
713
  8
0
  6
CONTINUOUS
 62
     7
 10
126.1441088876
 20
64.3115991171
 30
0.0
  0
VERTEX
  5
714
  8
0
  6
CONTINUOUS
 62
     7
 10
126.1588252744
 20
57.4835741337
 30
0.0
  0
SEQEND
  5
742
  8
0
  6
CONTINUOUS
 62
     7
  0
POLYLINE
  5
287
  8
0
  6
CONTINUOUS
 62
     7
 66
     1
 10
0.0
 20
0.0
 30
0.0
  0
VERTEX
  5
715
  8
0
  6
CONTINUOUS
 62
     7
 10
126.1588908395
 20
35.8290993984
 30
0.0
  0
VERTEX
  5
716
  8
0
  6
CONTINUOUS
 62
     7
 10
126.1588908395
 20
36.1370408352
 30
0.0
  0
VERTEX
  5
717
  8
0
  6
CONTINUOUS
 62
     7
 10
126.1586762627
 20
38.5488891418
 30
0.0
  0
VERTEX
  5
718
  8
0
  6
CONTINUOUS
 62
     7
 10
126.1581994256
 20
40.9334444816
 30
0.0
  0
VERTEX
  5
719
  8
0
  6
CONTINUOUS
 62
     7
 10
126.1578477582
 20
43.2967924888
 30
0.0
  0
VERTEX
  5
71A
  8
0
  6
CONTINUOUS
 62
     7
 10
126.1591650208
 20
48.0056428726
 30
0.0
  0
VERTEX
  5
71B
  8
0
  6
CONTINUOUS
 62
     7
 10
126.1626399716
 20
52.7395450885
 30
0.0
  0
VERTEX
  5
71C
  8
0
  6
CONTINUOUS
 62
     7
 10
126.1588193139
 20
57.4835741337
 30
0.0
  0
SEQEND
  5
741
  8
0
  6
CONTINUOUS
 62
     7
  0
LINE
  5
288
  8
0
  6
CONTINUOUS
 62
     7
 10
50.9588218888
 20
57.4835741337
 30
0.0
 11
50.9588218888
 21
47.4857294376
 31
0.0
  0
POLYLINE
  5
289
  8
0
  6
CONTINUOUS
 62
     7
 66
     1
 10
0.0
 20
0.0
 30
0.0
  0
VERTEX
  5
71D
  8
0
  6
CONTINUOUS
 62
     7
 10
50.9588218888
 20
57.4835741337
 30
0.0
  0
VERTEX
  5
71E
  8
0
  6
CONTINUOUS
 62
     7
 10
50.9735323151
 20
64.3115991171
 30
0.0
  0
VERTEX
  5
71F
  8
0
  6
CONTINUOUS
 62
     7
 10
50.9588218888
 20
67.483463269
 30
0.0
  0
SEQEND
  5
740
  8
0
  6
CONTINUOUS
 62
     7
  0
LINE
  5
28A
  8
0
  6
CONTINUOUS
 62
     7
 10
50.9588218888
 20
75.5950027521
 30
0.0
 11
50.9588218888
 21
67.4834453876
 31
0.0
  0
LINE
  5
28B
  8
0
  6
CONTINUOUS
 62
     7
 10
50.987646695
 20
77.4478578384
 30
0.0
 11
50.9588218888
 21
75.5950027521
 31
0.0
  0
POLYLINE
  5
28C
  8
0
  6
CONTINUOUS
 62
     7
 66
     1
 10
0.0
 20
0.0
 30
0.0
  0
VERTEX
  5
720
  8
0
  6
CONTINUOUS
 62
     7
 10
50.9873009881
 20
77.4478727396
 30
0.0
  0
VERTEX
  5
721
  8
0
  6
CONTINUOUS
 62
     7
 10
51.1318064889
 20
79.9516194875
 30
0.0
  0
VERTEX
  5
722
  8
0
  6
CONTINUOUS
 62
     7
 10
51.3560630044
 20
82.4550399001
 30
0.0
  0
SEQEND
  5
73F
  8
0
  6
CONTINUOUS
 62
     7
  0
ARC
  5
28D
  8
0
  6
CONTINUOUS
 62
     7
 10
110.7553357996
 20
75.53996057
 30
0.0
 40
59.80072183118389
 50
168.4877862107
 51
173.3596969809
  0
POLYLINE
  5
28E
  8
0
  6
CONTINUOUS
 62
     7
 66
     1
 10
0.0
 20
0.0
 30
0.0
  0
VERTEX
  5
723
  8
0
  6
CONTINUOUS
 62
     7
 10
52.1588183602
 20
87.4804311807
 30
0.0
  0
VERTEX
  5
724
  8
0
  6
CONTINUOUS
 62
     7
 10
52.5562502107
 20
88.9907949979
 30
0.0
  0
VERTEX
  5
725
  8
0
  6
CONTINUOUS
 62
     7
 10
52.9893733224
 20
90.5011543448
 30
0.0
  0
SEQEND
  5
73E
  8
0
  6
CONTINUOUS
 62
     7
  0
POLYLINE
  5
28F
  8
0
  6
CONTINUOUS
 62
     7
 66
     1
 10
0.0
 20
0.0
 30
0.0
  0
VERTEX
  5
726
  8
0
  6
CONTINUOUS
 62
     7
 10
50.9587503632
 20
35.8300471122
 30
0.0
  0
VERTEX
  5
727
  8
0
  6
CONTINUOUS
 62
     7
 10
50.9587503632
 20
35.8553731258
 30
0.0
  0
VERTEX
  5
728
  8
0
  6
CONTINUOUS
 62
     7
 10
50.9589172562
 20
38.268383723
 30
0.0
  0
VERTEX
  5
729
  8
0
  6
CONTINUOUS
 62
     7
 10
50.9593821725
 20
40.6568491275
 30
0.0
  0
VERTEX
  5
72A
  8
0
  6
CONTINUOUS
 62
     7
 10
50.9597755631
 20
43.0227660949
 30
0.0
  0
VERTEX
  5
72B
  8
0
  6
CONTINUOUS
 62
     7
 10
50.9596682748
 20
45.3775906379
 30
0.0
  0
VERTEX
  5
72C
  8
0
  6
CONTINUOUS
 62
     7
 10
50.9588218888
 20
47.4857294376
 30
0.0
  0
SEQEND
  5
73D
  8
0
  6
CONTINUOUS
 62
     7
  0
ARC
  5
290
  8
0
  6
CONTINUOUS
 62
     7
 10
119.5144045317
 20
35.6924582316
 30
0.0
 40
6.645891144309186
 50
292.5444205985
 51
1.1780984191
  0
ARC
  5
291
  8
0
  6
CONTINUOUS
 62
     7
 10
57.6062700284
 20
35.6964355554
 30
0.0
 40
6.648862289679414
 50
178.8485408031
 51
250.6418715343
  0
LINE
  5
292
  8
0
  6
CONTINUOUS
 62
     7
 10
125.7588185033
 20
82.4811929281
 30
0.0
 11
125.7618583402
 21
82.4550726826
 31
0.0
  0
POLYLINE
  5
293
  8
0
  6
CONTINUOUS
 62
     7
 66
     1
 10
0.0
 20
0.0
 30
0.0
  0
VERTEX
  5
72D
  8
0
  6
CONTINUOUS
 62
     7
 10
124.9599672517
 20
87.4747985418
 30
0.0
  0
VERTEX
  5
72E
  8
0
  6
CONTINUOUS
 62
     7
 10
125.4121519288
 20
84.9889331873
 30
0.0
  0
VERTEX
  5
72F
  8
0
  6
CONTINUOUS
 62
     7
 10
125.7588185033
 20
82.4811929281
 30
0.0
  0
SEQEND
  5
73C
  8
0
  6
CONTINUOUS
 62
     7
  0
POLYLINE
  5
294
  8
0
  6
CONTINUOUS
 62
     7
 66
     1
 10
0.0
 20
0.0
 30
0.0
  0
VERTEX
  5
730
  8
0
  6
CONTINUOUS
 62
     7
 10
51.358816739
 20
82.4811929281
 30
0.0
  0
VERTEX
  5
731
  8
0
  6
CONTINUOUS
 62
     7
 10
51.7047501763
 20
84.9843346889
 30
0.0
  0
VERTEX
  5
732
  8
0
  6
CONTINUOUS
 62
     7
 10
52.157673951
 20
87.4747985418
 30
0.0
  0
SEQEND
  5
73B
  8
0
  6
CONTINUOUS
 62
     7
  0
LINE
  5
295
  8
0
  6
CONTINUOUS
 62
     7
 10
51.3557769021
 20
82.4550726826
 30
0.0
 11
51.358816739
 21
82.4811929281
 31
0.0
  0
LINE
  5
296
  8
0
  6
CONTINUOUS
 62
     7
 10
126.1299945077
 20
77.4478578384
 30
0.0
 11
126.1588193139
 21
75.5971664007
 31
0.0
  0
LINE
  5
297
  8
0
  6
CONTINUOUS
 62
     7
 10
50.9588218888
 20
75.5971664007
 30
0.0
 11
50.987646695
 21
77.4478578384
 31
0.0
  0
LINE
  5
298
  8
0
  6
CONTINUOUS
 62
     7
 10
291.7331434449
 20
101.2895700897
 30
0.0
 11
291.7331434449
 21
101.2327508445
 31
0.0
  0
LINE
  5
299
  8
0
  6
CONTINUOUS
 62
     7
 10
290.955398198
 20
40.0895678814
 30
0.0
 11
290.8588207921
 21
40.0895678814
 31
0.0
  0
LINE
  5
29A
  8
0
  6
CONTINUOUS
 62
     7
 10
290.8588207921
 20
40.0895678814
 30
0.0
 11
290.8588207921
 21
101.2895700897
 31
0.0
  0
LINE
  5
29B
  8
0
  6
CONTINUOUS
 62
     7
 10
290.8588207921
 20
101.2895700897
 30
0.0
 11
291.7331434449
 21
101.2895700897
 31
0.0
  0
LINE
  5
29C
  8
0
  6
CONTINUOUS
 62
     7
 10
291.7331434449
 20
101.2327508445
 30
0.0
 11
291.9546641072
 21
101.2175129171
 31
0.0
  0
ARC
  5
29D
  8
0
  6
CONTINUOUS
 62
     7
 10
292.5227807993
 20
99.1779866396
 30
0.0
 40
1.996145080097164
 50
359.8798522284
 51
86.029573014
  0
LINE
  5
29E
  8
0
  6
CONTINUOUS
 62
     7
 10
294.5189214906
 20
99.1738007779
 30
0.0
 11
294.5189214906
 21
94.7712795253
 31
0.0
  0
ARC
  5
29F
  8
0
  6
CONTINUOUS
 62
     7
 10
295.7207140663
 20
94.7704961731
 30
0.0
 40
1.201792831047055
 50
179.9626534821
 51
232.2494355137
  0
LINE
  5
2A0
  8
0
  6
CONTINUOUS
 62
     7
 10
292.6609970292
 20
101.1693408157
 30
0.0
 11
291.9546641072
 21
101.2175129171
 31
0.0
  0
LINE
  5
2A1
  8
0
  6
CONTINUOUS
 62
     7
 10
290.8588207921
 20
101.2895700897
 30
0.0
 11
290.8588207921
 21
114.0096866901
 31
0.0
  0
LINE
  5
2A2
  8
0
  6
CONTINUOUS
 62
     7
 10
291.6588164529
 20
114.0096866901
 30
0.0
 11
291.6588164529
 21
101.2895700897
 31
0.0
  0
LINE
  5
2A3
  8
0
  6
CONTINUOUS
 62
     7
 10
290.8588207921
 20
115.1895703192
 30
0.0
 11
291.6588164529
 21
115.1895703192
 31
0.0
  0
LINE
  5
2A4
  8
0
  6
CONTINUOUS
 62
     7
 10
290.8588207921
 20
114.0096866901
 30
0.0
 11
290.8588207921
 21
115.1895703192
 31
0.0
  0
LINE
  5
2A5
  8
0
  6
CONTINUOUS
 62
     7
 10
291.6588164529
 20
115.1895703192
 30
0.0
 11
291.6588164529
 21
114.0096866901
 31
0.0
  0
LINE
  5
2A6
  8
0
  6
CONTINUOUS
 62
     7
 10
296.0588194093
 20
112.1895702
 30
0.0
 11
296.0588194093
 21
111.1895700361
 31
0.0
  0
LINE
  5
2A7
  8
0
  6
CONTINUOUS
 62
     7
 10
296.0588194093
 20
112.1895702
 30
0.0
 11
291.6588164529
 21
112.1895702
 31
0.0
  0
LINE
  5
2A8
  8
0
  6
CONTINUOUS
 62
     7
 10
290.8588207921
 20
112.1895702
 30
0.0
 11
286.0588170251
 21
112.1895702
 31
0.0
  0
LINE
  5
2A9
  8
0
  6
CONTINUOUS
 62
     7
 10
286.0588170251
 20
112.1895702
 30
0.0
 11
286.0588170251
 21
111.1895700361
 31
0.0
  0
LINE
  5
2AA
  8
0
  6
CONTINUOUS
 62
     7
 10
286.0588170251
 20
111.1895700361
 30
0.0
 11
286.0588170251
 21
101.9895700182
 31
0.0
  0
LINE
  5
2AB
  8
0
  6
CONTINUOUS
 62
     7
 10
296.0588194093
 20
111.1895700361
 30
0.0
 11
296.0588194093
 21
101.9895700182
 31
0.0
  0
LINE
  5
2AC
  8
0
  6
CONTINUOUS
 62
     7
 10
296.0588194093
 20
100.9895698543
 30
0.0
 11
293.3627105912
 21
100.9895698543
 31
0.0
  0
LINE
  5
2AD
  8
0
  6
CONTINUOUS
 62
     7
 10
296.0588194093
 20
101.9895700182
 30
0.0
 11
296.0588194093
 21
100.9895698543
 31
0.0
  0
LINE
  5
2AE
  8
0
  6
CONTINUOUS
 62
     7
 10
290.8588207921
 20
100.9895698543
 30
0.0
 11
286.0588170251
 21
100.9895698543
 31
0.0
  0
LINE
  5
2AF
  8
0
  6
CONTINUOUS
 62
     7
 10
286.0588170251
 20
101.9895700182
 30
0.0
 11
286.0588170251
 21
100.9895698543
 31
0.0
  0
LINE
  5
2B0
  8
0
  6
CONTINUOUS
 62
     7
 10
171.733144637
 20
101.2895700897
 30
0.0
 11
171.733144637
 21
101.2327508445
 31
0.0
  0
LINE
  5
2B1
  8
0
  6
CONTINUOUS
 62
     7
 10
170.9553964099
 20
40.0895678814
 30
0.0
 11
170.8588190039
 21
40.0895678814
 31
0.0
  0
LINE
  5
2B2
  8
0
  6
CONTINUOUS
 62
     7
 10
170.8588190039
 20
40.0895678814
 30
0.0
 11
170.8588190039
 21
101.2895700897
 31
0.0
  0
LINE
  5
2B3
  8
0
  6
CONTINUOUS
 62
     7
 10
170.8588190039
 20
101.2895700897
 30
0.0
 11
171.733144637
 21
101.2895700897
 31
0.0
  0
LINE
  5
2B4
  8
0
  6
CONTINUOUS
 62
     7
 10
171.733144637
 20
101.2327508445
 30
0.0
 11
171.9546652993
 21
101.2175129171
 31
0.0
  0
ARC
  5
2B5
  8
0
  6
CONTINUOUS
 62
     7
 10
172.5227804305
 20
99.1779851863
 30
0.0
 40
1.996146637964908
 50
359.8798940358
 51
86.0295312065
  0
LINE
  5
2B6
  8
0
  6
CONTINUOUS
 62
     7
 10
174.5189226827
 20
99.1738007779
 30
0.0
 11
174.5189226827
 21
94.7712795253
 31
0.0
  0
ARC
  5
2B7
  8
0
  6
CONTINUOUS
 62
     7
 10
175.7207152584
 20
94.7704961731
 30
0.0
 40
1.201792831047215
 50
179.9626534821
 51
232.2494355137
  0
LINE
  5
2B8
  8
0
  6
CONTINUOUS
 62
     7
 10
172.6609982213
 20
101.1693408157
 30
0.0
 11
171.9546652993
 21
101.2175129171
 31
0.0
  0
LINE
  5
2B9
  8
0
  6
CONTINUOUS
 62
     7
 10
170.8588190039
 20
101.2895700897
 30
0.0
 11
170.8588190039
 21
114.0096866901
 31
0.0
  0
LINE
  5
2BA
  8
0
  6
CONTINUOUS
 62
     7
 10
171.6588206252
 20
114.0096866901
 30
0.0
 11
171.6588206252
 21
101.2895700897
 31
0.0
  0
LINE
  5
2BB
  8
0
  6
CONTINUOUS
 62
     7
 10
170.8588190039
 20
115.1895703192
 30
0.0
 11
171.6588206252
 21
115.1895703192
 31
0.0
  0
LINE
  5
2BC
  8
0
  6
CONTINUOUS
 62
     7
 10
170.8588190039
 20
114.0096866901
 30
0.0
 11
170.8588190039
 21
115.1895703192
 31
0.0
  0
LINE
  5
2BD
  8
0
  6
CONTINUOUS
 62
     7
 10
171.6588206252
 20
115.1895703192
 30
0.0
 11
171.6588206252
 21
114.0096866901
 31
0.0
  0
LINE
  5
2BE
  8
0
  6
CONTINUOUS
 62
     7
 10
176.0588206014
 20
112.1895702
 30
0.0
 11
176.0588206014
 21
111.1895700361
 31
0.0
  0
LINE
  5
2BF
  8
0
  6
CONTINUOUS
 62
     7
 10
176.0588206014
 20
112.1895702
 30
0.0
 11
171.6588206252
 21
112.1895702
 31
0.0
  0
LINE
  5
2C0
  8
0
  6
CONTINUOUS
 62
     7
 10
166.0588182172
 20
112.1895702
 30
0.0
 11
166.0588182172
 21
111.1895700361
 31
0.0
  0
LINE
  5
2C1
  8
0
  6
CONTINUOUS
 62
     7
 10
170.8588190039
 20
112.1895702
 30
0.0
 11
166.0588182172
 21
112.1895702
 31
0.0
  0
LINE
  5
2C2
  8
0
  6
CONTINUOUS
 62
     7
 10
176.0588206014
 20
111.1895700361
 30
0.0
 11
176.0588206014
 21
101.9895700182
 31
0.0
  0
LINE
  5
2C3
  8
0
  6
CONTINUOUS
 62
     7
 10
166.0588182172
 20
111.1895700361
 30
0.0
 11
166.0588182172
 21
101.9895700182
 31
0.0
  0
LINE
  5
2C4
  8
0
  6
CONTINUOUS
 62
     7
 10
170.8588190039
 20
100.9895698543
 30
0.0
 11
166.0588182172
 21
100.9895698543
 31
0.0
  0
LINE
  5
2C5
  8
0
  6
CONTINUOUS
 62
     7
 10
166.0588182172
 20
101.9895700182
 30
0.0
 11
166.0588182172
 21
100.9895698543
 31
0.0
  0
LINE
  5
2C6
  8
0
  6
CONTINUOUS
 62
     7
 10
176.0588206014
 20
100.9895698543
 30
0.0
 11
173.3627088031
 21
100.9895698543
 31
0.0
  0
LINE
  5
2C7
  8
0
  6
CONTINUOUS
 62
     7
 10
176.0588206014
 20
101.9895700182
 30
0.0
 11
176.0588206014
 21
100.9895698543
 31
0.0
  0
LINE
  5
2C8
  8
0
  6
CONTINUOUS
 62
     7
 10
51.7331458291
 20
101.2895700897
 30
0.0
 11
51.7331458291
 21
101.2327508445
 31
0.0
  0
LINE
  5
2C9
  8
0
  6
CONTINUOUS
 62
     7
 10
50.9554005822
 20
40.0895678814
 30
0.0
 11
50.8588172158
 21
40.0895678814
 31
0.0
  0
LINE
  5
2CA
  8
0
  6
CONTINUOUS
 62
     7
 10
50.8588172158
 20
40.0895678814
 30
0.0
 11
50.8588172158
 21
101.2895700897
 31
0.0
  0
LINE
  5
2CB
  8
0
  6
CONTINUOUS
 62
     7
 10
50.8588172158
 20
101.2895700897
 30
0.0
 11
51.7331458291
 21
101.2895700897
 31
0.0
  0
LINE
  5
2CC
  8
0
  6
CONTINUOUS
 62
     7
 10
51.7331458291
 20
101.2327508445
 30
0.0
 11
51.9546605309
 21
101.2175129171
 31
0.0
  0
ARC
  5
2CD
  8
0
  6
CONTINUOUS
 62
     7
 10
52.5227764005
 20
99.1779803244
 30
0.0
 40
1.996151849803424
 50
359.8800339019
 51
86.0293913405
  0
LINE
  5
2CE
  8
0
  6
CONTINUOUS
 62
     7
 10
54.5189238747
 20
99.1738007779
 30
0.0
 11
54.5189238747
 21
94.7712795253
 31
0.0
  0
ARC
  5
2CF
  8
0
  6
CONTINUOUS
 62
     7
 10
55.7206792112
 20
94.7704779249
 30
0.0
 40
1.201755603831562
 50
179.9617823107
 51
232.2503066851
  0
LINE
  5
2D0
  8
0
  6
CONTINUOUS
 62
     7
 10
52.6609994134
 20
101.1693408157
 30
0.0
 11
51.9546605309
 21
101.2175129171
 31
0.0
  0
LINE
  5
2D1
  8
0
  6
CONTINUOUS
 62
     7
 10
50.8588172158
 20
101.2895700897
 30
0.0
 11
50.8588172158
 21
114.0096866901
 31
0.0
  0
LINE
  5
2D2
  8
0
  6
CONTINUOUS
 62
     7
 10
51.6588188371
 20
114.0096866901
 30
0.0
 11
51.6588188371
 21
101.2895700897
 31
0.0
  0
LINE
  5
2D3
  8
0
  6
CONTINUOUS
 62
     7
 10
50.8588172158
 20
115.1895703192
 30
0.0
 11
51.6588188371
 21
115.1895703192
 31
0.0
  0
LINE
  5
2D4
  8
0
  6
CONTINUOUS
 62
     7
 10
50.8588172158
 20
114.0096866901
 30
0.0
 11
50.8588172158
 21
115.1895703192
 31
0.0
  0
LINE
  5
2D5
  8
0
  6
CONTINUOUS
 62
     7
 10
51.6588188371
 20
115.1895703192
 30
0.0
 11
51.6588188371
 21
114.0096866901
 31
0.0
  0
LINE
  5
2D6
  8
0
  6
CONTINUOUS
 62
     7
 10
56.0588217934
 20
112.1895702
 30
0.0
 11
56.0588217934
 21
111.1895700361
 31
0.0
  0
LINE
  5
2D7
  8
0
  6
CONTINUOUS
 62
     7
 10
56.0588217934
 20
112.1895702
 30
0.0
 11
51.6588188371
 21
112.1895702
 31
0.0
  0
LINE
  5
2D8
  8
0
  6
CONTINUOUS
 62
     7
 10
46.0588194093
 20
112.1895702
 30
0.0
 11
46.0588194093
 21
111.1895700361
 31
0.0
  0
LINE
  5
2D9
  8
0
  6
CONTINUOUS
 62
     7
 10
50.8588172158
 20
112.1895702
 30
0.0
 11
46.0588194093
 21
112.1895702
 31
0.0
  0
LINE
  5
2DA
  8
0
  6
CONTINUOUS
 62
     7
 10
46.0588194093
 20
111.1895700361
 30
0.0
 11
46.0588194093
 21
101.9895700182
 31
0.0
  0
LINE
  5
2DB
  8
0
  6
CONTINUOUS
 62
     7
 10
56.0588217934
 20
111.1895700361
 30
0.0
 11
56.0588217934
 21
101.9895700182
 31
0.0
  0
LINE
  5
2DC
  8
0
  6
CONTINUOUS
 62
     7
 10
56.0588217934
 20
100.9895698543
 30
0.0
 11
53.3627129754
 21
100.9895698543
 31
0.0
  0
LINE
  5
2DD
  8
0
  6
CONTINUOUS
 62
     7
 10
56.0588217934
 20
101.9895700182
 30
0.0
 11
56.0588217934
 21
100.9895698543
 31
0.0
  0
LINE
  5
2DE
  8
0
  6
CONTINUOUS
 62
     7
 10
50.8588172158
 20
100.9895698543
 30
0.0
 11
46.0588194093
 21
100.9895698543
 31
0.0
  0
LINE
  5
2DF
  8
0
  6
CONTINUOUS
 62
     7
 10
46.0588194093
 20
101.9895700182
 30
0.0
 11
46.0588194093
 21
100.9895698543
 31
0.0
  0
LINE
  5
2E0
  8
0
  6
CONTINUOUS
 62
     7
 10
366.2588216027
 20
40.0895678814
 30
0.0
 11
366.2588216027
 21
101.2895700897
 31
0.0
  0
LINE
  5
2E1
  8
0
  6
CONTINUOUS
 62
     7
 10
366.1622382363
 20
40.0895678814
 30
0.0
 11
366.2588216027
 21
40.0895678814
 31
0.0
  0
LINE
  5
2E2
  8
0
  6
CONTINUOUS
 62
     7
 10
365.3844929894
 20
101.2327508445
 30
0.0
 11
365.1629782876
 21
101.2175129171
 31
0.0
  0
LINE
  5
2E3
  8
0
  6
CONTINUOUS
 62
     7
 10
365.3844929894
 20
101.2895700897
 30
0.0
 11
365.3844929894
 21
101.2327508445
 31
0.0
  0
LINE
  5
2E4
  8
0
  6
CONTINUOUS
 62
     7
 10
366.2588216027
 20
101.2895700897
 30
0.0
 11
365.3844929894
 21
101.2895700897
 31
0.0
  0
ARC
  5
2E5
  8
0
  6
CONTINUOUS
 62
     7
 10
361.3969182986
 20
94.7704883984
 30
0.0
 40
1.201796905601688
 50
308.241064846
 51
0.0377170493
  0
LINE
  5
2E6
  8
0
  6
CONTINUOUS
 62
     7
 10
362.5987149438
 20
99.1738007779
 30
0.0
 11
362.5987149438
 21
94.7712795253
 31
0.0
  0
ARC
  5
2E7
  8
0
  6
CONTINUOUS
 62
     7
 10
364.594862418
 20
99.1779803244
 30
0.0
 40
1.996151849803541
 50
93.9706086595
 51
180.1199660981
  0
LINE
  5
2E8
  8
0
  6
CONTINUOUS
 62
     7
 10
364.4566394051
 20
101.1693408157
 30
0.0
 11
365.1629782876
 21
101.2175129171
 31
0.0
  0
LINE
  5
2E9
  8
0
  6
CONTINUOUS
 62
     7
 10
366.2588216027
 20
101.2895700897
 30
0.0
 11
366.2588216027
 21
114.0096866901
 31
0.0
  0
LINE
  5
2EA
  8
0
  6
CONTINUOUS
 62
     7
 10
365.4588199815
 20
114.0096866901
 30
0.0
 11
365.4588199815
 21
101.2895700897
 31
0.0
  0
LINE
  5
2EB
  8
0
  6
CONTINUOUS
 62
     7
 10
366.2588216027
 20
115.1895703192
 30
0.0
 11
365.4588199815
 21
115.1895703192
 31
0.0
  0
LINE
  5
2EC
  8
0
  6
CONTINUOUS
 62
     7
 10
366.2588216027
 20
114.0096866901
 30
0.0
 11
366.2588216027
 21
115.1895703192
 31
0.0
  0
LINE
  5
2ED
  8
0
  6
CONTINUOUS
 62
     7
 10
365.4588199815
 20
115.1895703192
 30
0.0
 11
365.4588199815
 21
114.0096866901
 31
0.0
  0
LINE
  5
2EE
  8
0
  6
CONTINUOUS
 62
     7
 10
366.2588216027
 20
112.1895702
 30
0.0
 11
371.0588194093
 21
112.1895702
 31
0.0
  0
LINE
  5
2EF
  8
0
  6
CONTINUOUS
 62
     7
 10
371.0588194093
 20
112.1895702
 30
0.0
 11
371.0588194093
 21
111.1895700361
 31
0.0
  0
LINE
  5
2F0
  8
0
  6
CONTINUOUS
 62
     7
 10
361.0588170251
 20
112.1895702
 30
0.0
 11
361.0588170251
 21
111.1895700361
 31
0.0
  0
LINE
  5
2F1
  8
0
  6
CONTINUOUS
 62
     7
 10
361.0588170251
 20
112.1895702
 30
0.0
 11
365.4588199815
 21
112.1895702
 31
0.0
  0
LINE
  5
2F2
  8
0
  6
CONTINUOUS
 62
     7
 10
361.0588170251
 20
111.1895700361
 30
0.0
 11
361.0588170251
 21
101.9895700182
 31
0.0
  0
LINE
  5
2F3
  8
0
  6
CONTINUOUS
 62
     7
 10
371.0588194093
 20
111.1895700361
 30
0.0
 11
371.0588194093
 21
101.9895700182
 31
0.0
  0
LINE
  5
2F4
  8
0
  6
CONTINUOUS
 62
     7
 10
366.2588216027
 20
100.9895698543
 30
0.0
 11
371.0588194093
 21
100.9895698543
 31
0.0
  0
LINE
  5
2F5
  8
0
  6
CONTINUOUS
 62
     7
 10
371.0588194093
 20
101.9895700182
 30
0.0
 11
371.0588194093
 21
100.9895698543
 31
0.0
  0
LINE
  5
2F6
  8
0
  6
CONTINUOUS
 62
     7
 10
361.0588170251
 20
100.9895698543
 30
0.0
 11
363.7549258431
 21
100.9895698543
 31
0.0
  0
LINE
  5
2F7
  8
0
  6
CONTINUOUS
 62
     7
 10
361.0588170251
 20
101.9895700182
 30
0.0
 11
361.0588170251
 21
100.9895698543
 31
0.0
  0
LINE
  5
2F8
  8
0
  6
CONTINUOUS
 62
     7
 10
246.2588198146
 20
40.0895678814
 30
0.0
 11
246.2588198146
 21
101.2895700897
 31
0.0
  0
LINE
  5
2F9
  8
0
  6
CONTINUOUS
 62
     7
 10
246.1622424086
 20
40.0895678814
 30
0.0
 11
246.2588198146
 21
40.0895678814
 31
0.0
  0
LINE
  5
2FA
  8
0
  6
CONTINUOUS
 62
     7
 10
245.3844941815
 20
101.2327508445
 30
0.0
 11
245.1629735192
 21
101.2175129171
 31
0.0
  0
LINE
  5
2FB
  8
0
  6
CONTINUOUS
 62
     7
 10
245.3844941815
 20
101.2895700897
 30
0.0
 11
245.3844941815
 21
101.2327508445
 31
0.0
  0
LINE
  5
2FC
  8
0
  6
CONTINUOUS
 62
     7
 10
246.2588198146
 20
101.2895700897
 30
0.0
 11
245.3844941815
 21
101.2895700897
 31
0.0
  0
ARC
  5
2FD
  8
0
  6
CONTINUOUS
 62
     7
 10
241.3968815858
 20
94.7705067719
 30
0.0
 40
1.201834798489518
 50
308.2419419619
 51
0.0368399334
  0
LINE
  5
2FE
  8
0
  6
CONTINUOUS
 62
     7
 10
242.5987161359
 20
99.1738007779
 30
0.0
 11
242.5987161359
 21
94.7712795253
 31
0.0
  0
ARC
  5
2FF
  8
0
  6
CONTINUOUS
 62
     7
 10
244.5948583881
 20
99.1779851863
 30
0.0
 40
1.996146637964888
 50
93.9704687935
 51
180.1201059642
  0
LINE
  5
300
  8
0
  6
CONTINUOUS
 62
     7
 10
244.4566405972
 20
101.1693408157
 30
0.0
 11
245.1629735192
 21
101.2175129171
 31
0.0
  0
LINE
  5
301
  8
0
  6
CONTINUOUS
 62
     7
 10
246.2588198146
 20
101.2895700897
 30
0.0
 11
246.2588198146
 21
114.0096866901
 31
0.0
  0
LINE
  5
302
  8
0
  6
CONTINUOUS
 62
     7
 10
245.4588181933
 20
114.0096866901
 30
0.0
 11
245.4588181933
 21
101.2895700897
 31
0.0
  0
LINE
  5
303
  8
0
  6
CONTINUOUS
 62
     7
 10
246.2588198146
 20
115.1895703192
 30
0.0
 11
245.4588181933
 21
115.1895703192
 31
0.0
  0
LINE
  5
304
  8
0
  6
CONTINUOUS
 62
     7
 10
246.2588198146
 20
114.0096866901
 30
0.0
 11
246.2588198146
 21
115.1895703192
 31
0.0
  0
LINE
  5
305
  8
0
  6
CONTINUOUS
 62
     7
 10
245.4588181933
 20
115.1895703192
 30
0.0
 11
245.4588181933
 21
114.0096866901
 31
0.0
  0
LINE
  5
306
  8
0
  6
CONTINUOUS
 62
     7
 10
241.0588182172
 20
112.1895702
 30
0.0
 11
241.0588182172
 21
111.1895700361
 31
0.0
  0
LINE
  5
307
  8
0
  6
CONTINUOUS
 62
     7
 10
241.0588182172
 20
112.1895702
 30
0.0
 11
245.4588181933
 21
112.1895702
 31
0.0
  0
LINE
  5
308
  8
0
  6
CONTINUOUS
 62
     7
 10
246.2588198146
 20
112.1895702
 30
0.0
 11
251.0588206014
 21
112.1895702
 31
0.0
  0
LINE
  5
309
  8
0
  6
CONTINUOUS
 62
     7
 10
251.0588206014
 20
112.1895702
 30
0.0
 11
251.0588206014
 21
111.1895700361
 31
0.0
  0
LINE
  5
30A
  8
0
  6
CONTINUOUS
 62
     7
 10
251.0588206014
 20
111.1895700361
 30
0.0
 11
251.0588206014
 21
101.9895700182
 31
0.0
  0
LINE
  5
30B
  8
0
  6
CONTINUOUS
 62
     7
 10
241.0588182172
 20
111.1895700361
 30
0.0
 11
241.0588182172
 21
101.9895700182
 31
0.0
  0
LINE
  5
30C
  8
0
  6
CONTINUOUS
 62
     7
 10
246.2588198146
 20
100.9895698543
 30
0.0
 11
251.0588206014
 21
100.9895698543
 31
0.0
  0
LINE
  5
30D
  8
0
  6
CONTINUOUS
 62
     7
 10
251.0588206014
 20
101.9895700182
 30
0.0
 11
251.0588206014
 21
100.9895698543
 31
0.0
  0
LINE
  5
30E
  8
0
  6
CONTINUOUS
 62
     7
 10
241.0588182172
 20
100.9895698543
 30
0.0
 11
243.7549300155
 21
100.9895698543
 31
0.0
  0
LINE
  5
30F
  8
0
  6
CONTINUOUS
 62
     7
 10
241.0588182172
 20
101.9895700182
 30
0.0
 11
241.0588182172
 21
100.9895698543
 31
0.0
  0
LINE
  5
310
  8
0
  6
CONTINUOUS
 62
     7
 10
126.2588180264
 20
40.0895678814
 30
0.0
 11
126.2588180264
 21
101.2895700897
 31
0.0
  0
LINE
  5
311
  8
0
  6
CONTINUOUS
 62
     7
 10
126.1622406205
 20
40.0895678814
 30
0.0
 11
126.2588180264
 21
40.0895678814
 31
0.0
  0
LINE
  5
312
  8
0
  6
CONTINUOUS
 62
     7
 10
125.3844953736
 20
101.2895700897
 30
0.0
 11
125.3844953736
 21
101.2327508445
 31
0.0
  0
LINE
  5
313
  8
0
  6
CONTINUOUS
 62
     7
 10
126.2588180264
 20
101.2895700897
 30
0.0
 11
125.3844953736
 21
101.2895700897
 31
0.0
  0
LINE
  5
314
  8
0
  6
CONTINUOUS
 62
     7
 10
125.3844953736
 20
101.2327508445
 30
0.0
 11
125.1629747113
 21
101.2175129171
 31
0.0
  0
ARC
  5
315
  8
0
  6
CONTINUOUS
 62
     7
 10
121.3968827779
 20
94.7705067719
 30
0.0
 40
1.201834798489432
 50
308.2419419619
 51
0.0368399334
  0
LINE
  5
316
  8
0
  6
CONTINUOUS
 62
     7
 10
122.598717328
 20
99.1738007779
 30
0.0
 11
122.598717328
 21
94.7712795253
 31
0.0
  0
ARC
  5
317
  8
0
  6
CONTINUOUS
 62
     7
 10
124.5948580192
 20
99.1779866396
 30
0.0
 40
1.996145080097167
 50
93.970426986
 51
180.1201477716
  0
LINE
  5
318
  8
0
  6
CONTINUOUS
 62
     7
 10
124.4566417893
 20
101.1693408157
 30
0.0
 11
125.1629747113
 21
101.2175129171
 31
0.0
  0
LINE
  5
319
  8
0
  6
CONTINUOUS
 62
     7
 10
126.2588180264
 20
101.2895700897
 30
0.0
 11
126.2588180264
 21
114.0096866901
 31
0.0
  0
LINE
  5
31A
  8
0
  6
CONTINUOUS
 62
     7
 10
125.4588223657
 20
114.0096866901
 30
0.0
 11
125.4588223657
 21
101.2895700897
 31
0.0
  0
LINE
  5
31B
  8
0
  6
CONTINUOUS
 62
     7
 10
126.2588180264
 20
115.1895703192
 30
0.0
 11
125.4588223657
 21
115.1895703192
 31
0.0
  0
LINE
  5
31C
  8
0
  6
CONTINUOUS
 62
     7
 10
126.2588180264
 20
114.0096866901
 30
0.0
 11
126.2588180264
 21
115.1895703192
 31
0.0
  0
LINE
  5
31D
  8
0
  6
CONTINUOUS
 62
     7
 10
125.4588223657
 20
115.1895703192
 30
0.0
 11
125.4588223657
 21
114.0096866901
 31
0.0
  0
LINE
  5
31E
  8
0
  6
CONTINUOUS
 62
     7
 10
121.0588194093
 20
112.1895702
 30
0.0
 11
121.0588194093
 21
111.1895700361
 31
0.0
  0
LINE
  5
31F
  8
0
  6
CONTINUOUS
 62
     7
 10
121.0588194093
 20
112.1895702
 30
0.0
 11
125.4588223657
 21
112.1895702
 31
0.0
  0
LINE
  5
320
  8
0
  6
CONTINUOUS
 62
     7
 10
126.2588180264
 20
112.1895702
 30
0.0
 11
131.0588217934
 21
112.1895702
 31
0.0
  0
LINE
  5
321
  8
0
  6
CONTINUOUS
 62
     7
 10
131.0588217934
 20
112.1895702
 30
0.0
 11
131.0588217934
 21
111.1895700361
 31
0.0
  0
LINE
  5
322
  8
0
  6
CONTINUOUS
 62
     7
 10
121.0588194093
 20
111.1895700361
 30
0.0
 11
121.0588194093
 21
101.9895700182
 31
0.0
  0
LINE
  5
323
  8
0
  6
CONTINUOUS
 62
     7
 10
131.0588217934
 20
111.1895700361
 30
0.0
 11
131.0588217934
 21
101.9895700182
 31
0.0
  0
LINE
  5
324
  8
0
  6
CONTINUOUS
 62
     7
 10
121.0588194093
 20
100.9895698543
 30
0.0
 11
123.7549282273
 21
100.9895698543
 31
0.0
  0
LINE
  5
325
  8
0
  6
CONTINUOUS
 62
     7
 10
121.0588194093
 20
101.9895700182
 30
0.0
 11
121.0588194093
 21
100.9895698543
 31
0.0
  0
LINE
  5
326
  8
0
  6
CONTINUOUS
 62
     7
 10
126.2588180264
 20
100.9895698543
 30
0.0
 11
131.0588217934
 21
100.9895698543
 31
0.0
  0
LINE
  5
327
  8
0
  6
CONTINUOUS
 62
     7
 10
131.0588217934
 20
101.9895700182
 30
0.0
 11
131.0588217934
 21
100.9895698543
 31
0.0
  0
ARC
  5
328
  8
0
  6
CONTINUOUS
 62
     7
 10
28.5588194093
 20
106.3895700271
 30
0.0
 40
2.699999999999982
 50
0.0
 51
180.0
  0
ARC
  5
329
  8
0
  6
CONTINUOUS
 62
     7
 10
28.5588194093
 20
56.3895700271
 30
0.0
 40
2.699999999999982
 50
180.0
 51
0.0
  0
LINE
  5
32A
  8
0
  6
CONTINUOUS
 62
     7
 10
22.5588179787
 20
111.1895700361
 30
0.0
 11
22.5588179787
 21
112.3895698602
 31
0.0
  0
LINE
  5
32B
  8
0
  6
CONTINUOUS
 62
     7
 10
22.5588179787
 20
112.3895698602
 30
0.0
 11
34.5588184556
 21
112.3895698602
 31
0.0
  0
LINE
  5
32C
  8
0
  6
CONTINUOUS
 62
     7
 10
34.5588184556
 20
112.3895698602
 30
0.0
 11
34.5588184556
 21
111.1895700361
 31
0.0
  0
LINE
  5
32D
  8
0
  6
CONTINUOUS
 62
     7
 10
34.5588184556
 20
111.1895700361
 30
0.0
 11
34.5588184556
 21
101.5895699526
 31
0.0
  0
LINE
  5
32E
  8
0
  6
CONTINUOUS
 62
     7
 10
22.5588179787
 20
111.1895700361
 30
0.0
 11
22.5588179787
 21
101.5895699526
 31
0.0
  0
LINE
  5
32F
  8
0
  6
CONTINUOUS
 62
     7
 10
34.5588184556
 20
100.3895701285
 30
0.0
 11
31.2588192185
 21
100.3895701285
 31
0.0
  0
LINE
  5
330
  8
0
  6
CONTINUOUS
 62
     7
 10
25.8588172158
 20
100.3895701285
 30
0.0
 11
22.5588179787
 21
100.3895701285
 31
0.0
  0
LINE
  5
331
  8
0
  6
CONTINUOUS
 62
     7
 10
34.5588184556
 20
101.5895699526
 30
0.0
 11
34.5588184556
 21
100.3895701285
 31
0.0
  0
LINE
  5
332
  8
0
  6
CONTINUOUS
 62
     7
 10
22.5588179787
 20
100.3895701285
 30
0.0
 11
22.5588179787
 21
101.5895699526
 31
0.0
  0
ARC
  5
333
  8
0
  6
CONTINUOUS
 62
     7
 10
388.5588194093
 20
106.3895700271
 30
0.0
 40
2.699999999999989
 50
0.0
 51
180.0
  0
ARC
  5
334
  8
0
  6
CONTINUOUS
 62
     7
 10
388.5588194093
 20
56.3895700271
 30
0.0
 40
2.699999999999989
 50
180.0
 51
0.0
  0
LINE
  5
335
  8
0
  6
CONTINUOUS
 62
     7
 10
382.5588203629
 20
112.3895698602
 30
0.0
 11
394.5588208398
 21
112.3895698602
 31
0.0
  0
LINE
  5
336
  8
0
  6
CONTINUOUS
 62
     7
 10
394.5588208398
 20
112.3895698602
 30
0.0
 11
394.5588208398
 21
111.1895700361
 31
0.0
  0
LINE
  5
337
  8
0
  6
CONTINUOUS
 62
     7
 10
382.5588203629
 20
111.1895700361
 30
0.0
 11
382.5588203629
 21
112.3895698602
 31
0.0
  0
LINE
  5
338
  8
0
  6
CONTINUOUS
 62
     7
 10
394.5588208398
 20
111.1895700361
 30
0.0
 11
394.5588208398
 21
101.5895699526
 31
0.0
  0
LINE
  5
339
  8
0
  6
CONTINUOUS
 62
     7
 10
382.5588203629
 20
111.1895700361
 30
0.0
 11
382.5588203629
 21
101.5895699526
 31
0.0
  0
LINE
  5
33A
  8
0
  6
CONTINUOUS
 62
     7
 10
394.5588208398
 20
100.3895701285
 30
0.0
 11
391.2588216027
 21
100.3895701285
 31
0.0
  0
LINE
  5
33B
  8
0
  6
CONTINUOUS
 62
     7
 10
385.8588196
 20
100.3895701285
 30
0.0
 11
382.5588203629
 21
100.3895701285
 31
0.0
  0
LINE
  5
33C
  8
0
  6
CONTINUOUS
 62
     7
 10
394.5588208398
 20
101.5895699526
 30
0.0
 11
394.5588208398
 21
100.3895701285
 31
0.0
  0
LINE
  5
33D
  8
0
  6
CONTINUOUS
 62
     7
 10
382.5588203629
 20
100.3895701285
 30
0.0
 11
382.5588203629
 21
101.5895699526
 31
0.0
  0
ARC
  5
33E
  8
0
  6
CONTINUOUS
 62
     7
 10
148.5588194093
 20
106.3895700271
 30
0.0
 40
2.700000000000017
 50
0.0
 51
180.0
  0
ARC
  5
33F
  8
0
  6
CONTINUOUS
 62
     7
 10
148.5588194093
 20
56.3895700271
 30
0.0
 40
2.700000000000017
 50
180.0
 51
0.0
  0
LINE
  5
340
  8
0
  6
CONTINUOUS
 62
     7
 10
142.5588167867
 20
111.1895700361
 30
0.0
 11
142.5588167867
 21
112.3895698602
 31
0.0
  0
LINE
  5
341
  8
0
  6
CONTINUOUS
 62
     7
 10
142.5588167867
 20
112.3895698602
 30
0.0
 11
154.5588172635
 21
112.3895698602
 31
0.0
  0
LINE
  5
342
  8
0
  6
CONTINUOUS
 62
     7
 10
154.5588172635
 20
112.3895698602
 30
0.0
 11
154.5588172635
 21
111.1895700361
 31
0.0
  0
LINE
  5
343
  8
0
  6
CONTINUOUS
 62
     7
 10
142.5588167867
 20
111.1895700361
 30
0.0
 11
142.5588167867
 21
101.5895699526
 31
0.0
  0
LINE
  5
344
  8
0
  6
CONTINUOUS
 62
     7
 10
154.5588172635
 20
111.1895700361
 30
0.0
 11
154.5588172635
 21
101.5895699526
 31
0.0
  0
LINE
  5
345
  8
0
  6
CONTINUOUS
 62
     7
 10
154.5588172635
 20
100.3895701285
 30
0.0
 11
151.2588180264
 21
100.3895701285
 31
0.0
  0
LINE
  5
346
  8
0
  6
CONTINUOUS
 62
     7
 10
145.8588219842
 20
100.3895701285
 30
0.0
 11
142.5588167867
 21
100.3895701285
 31
0.0
  0
LINE
  5
347
  8
0
  6
CONTINUOUS
 62
     7
 10
142.5588167867
 20
100.3895701285
 30
0.0
 11
142.5588167867
 21
101.5895699526
 31
0.0
  0
LINE
  5
348
  8
0
  6
CONTINUOUS
 62
     7
 10
154.5588172635
 20
101.5895699526
 30
0.0
 11
154.5588172635
 21
100.3895701285
 31
0.0
  0
ARC
  5
349
  8
0
  6
CONTINUOUS
 62
     7
 10
268.5588194093
 20
106.3895700271
 30
0.0
 40
2.700000000000045
 50
0.0
 51
180.0
  0
ARC
  5
34A
  8
0
  6
CONTINUOUS
 62
     7
 10
268.5588194093
 20
56.3895700271
 30
0.0
 40
2.700000000000045
 50
180.0
 51
0.0
  0
LINE
  5
34B
  8
0
  6
CONTINUOUS
 62
     7
 10
262.558821555
 20
111.1895700361
 30
0.0
 11
262.558821555
 21
112.3895698602
 31
0.0
  0
LINE
  5
34C
  8
0
  6
CONTINUOUS
 62
     7
 10
262.558821555
 20
112.3895698602
 30
0.0
 11
274.5588220319
 21
112.3895698602
 31
0.0
  0
LINE
  5
34D
  8
0
  6
CONTINUOUS
 62
     7
 10
274.5588220319
 20
112.3895698602
 30
0.0
 11
274.5588220319
 21
111.1895700361
 31
0.0
  0
LINE
  5
34E
  8
0
  6
CONTINUOUS
 62
     7
 10
262.558821555
 20
111.1895700361
 30
0.0
 11
262.558821555
 21
101.5895699526
 31
0.0
  0
LINE
  5
34F
  8
0
  6
CONTINUOUS
 62
     7
 10
274.5588220319
 20
111.1895700361
 30
0.0
 11
274.5588220319
 21
101.5895699526
 31
0.0
  0
LINE
  5
350
  8
0
  6
CONTINUOUS
 62
     7
 10
274.5588220319
 20
100.3895701285
 30
0.0
 11
271.2588168343
 21
100.3895701285
 31
0.0
  0
LINE
  5
351
  8
0
  6
CONTINUOUS
 62
     7
 10
265.8588207921
 20
100.3895701285
 30
0.0
 11
262.558821555
 21
100.3895701285
 31
0.0
  0
LINE
  5
352
  8
0
  6
CONTINUOUS
 62
     7
 10
262.558821555
 20
100.3895701285
 30
0.0
 11
262.558821555
 21
101.5895699526
 31
0.0
  0
LINE
  5
353
  8
0
  6
CONTINUOUS
 62
     7
 10
274.5588220319
 20
101.5895699526
 30
0.0
 11
274.5588220319
 21
100.3895701285
 31
0.0
  0
LINE
  5
354
  8
0
  6
CONTINUOUS
 62
     7
 10
20.1588250359
 20
111.5895701016
 30
0.0
 11
22.5588179787
 21
111.5895701016
 31
0.0
  0
LINE
  5
355
  8
0
  6
CONTINUOUS
 62
     7
 10
34.5588184556
 20
111.5895701016
 30
0.0
 11
46.0588194093
 21
111.5895701016
 31
0.0
  0
LINE
  5
356
  8
0
  6
CONTINUOUS
 62
     7
 10
56.0588217934
 20
111.5895701016
 30
0.0
 11
121.0588194093
 21
111.5895701016
 31
0.0
  0
LINE
  5
357
  8
0
  6
CONTINUOUS
 62
     7
 10
131.0588217934
 20
111.5895701016
 30
0.0
 11
142.5588167867
 21
111.5895701016
 31
0.0
  0
LINE
  5
358
  8
0
  6
CONTINUOUS
 62
     7
 10
154.5588172635
 20
111.5895701016
 30
0.0
 11
166.0588182172
 21
111.5895701016
 31
0.0
  0
LINE
  5
359
  8
0
  6
CONTINUOUS
 62
     7
 10
176.0588206014
 20
111.5895701016
 30
0.0
 11
241.0588182172
 21
111.5895701016
 31
0.0
  0
LINE
  5
35A
  8
0
  6
CONTINUOUS
 62
     7
 10
251.0588206014
 20
111.5895701016
 30
0.0
 11
262.558821555
 21
111.5895701016
 31
0.0
  0
LINE
  5
35B
  8
0
  6
CONTINUOUS
 62
     7
 10
274.5588220319
 20
111.5895701016
 30
0.0
 11
286.0588170251
 21
111.5895701016
 31
0.0
  0
LINE
  5
35C
  8
0
  6
CONTINUOUS
 62
     7
 10
296.0588194093
 20
111.5895701016
 30
0.0
 11
361.0588170251
 21
111.5895701016
 31
0.0
  0
LINE
  5
35D
  8
0
  6
CONTINUOUS
 62
     7
 10
371.0588194093
 20
111.5895701016
 30
0.0
 11
382.5588203629
 21
111.5895701016
 31
0.0
  0
LINE
  5
35E
  8
0
  6
CONTINUOUS
 62
     7
 10
394.5588208398
 20
111.5895701016
 30
0.0
 11
396.9588137826
 21
111.5895701016
 31
0.0
  0
LINE
  5
35F
  8
0
  6
CONTINUOUS
 62
     7
 10
397.3588205537
 20
111.1895700361
 30
0.0
 11
397.3588205537
 21
110.5895699377
 31
0.0
  0
ARC
  5
360
  8
0
  6
CONTINUOUS
 62
     7
 10
396.9588194093
 20
111.1895700271
 30
0.0
 40
0.3999999999999915
 50
0.0
 51
90.0
  0
LINE
  5
361
  8
0
  6
CONTINUOUS
 62
     7
 10
19.7588182649
 20
110.5895699377
 30
0.0
 11
19.7588182649
 21
111.1895700361
 31
0.0
  0
ARC
  5
362
  8
0
  6
CONTINUOUS
 62
     7
 10
20.1588194093
 20
111.1895700271
 30
0.0
 40
0.3999999999999915
 50
90.0
 51
180.0
  0
LINE
  5
363
  8
0
  6
CONTINUOUS
 62
     7
 10
397.3588205537
 20
110.5895699377
 30
0.0
 11
397.3588205537
 21
102.5895701165
 31
0.0
  0
LINE
  5
364
  8
0
  6
CONTINUOUS
 62
     7
 10
19.7588182649
 20
102.5895701165
 30
0.0
 11
19.7588182649
 21
110.5895699377
 31
0.0
  0
LINE
  5
365
  8
0
  6
CONTINUOUS
 62
     7
 10
396.9588137826
 20
101.5895699526
 30
0.0
 11
394.5588208398
 21
101.5895699526
 31
0.0
  0
LINE
  5
366
  8
0
  6
CONTINUOUS
 62
     7
 10
382.5588203629
 20
101.5895699526
 30
0.0
 11
371.0588194093
 21
101.5895699526
 31
0.0
  0
LINE
  5
367
  8
0
  6
CONTINUOUS
 62
     7
 10
361.0588170251
 20
101.5895699526
 30
0.0
 11
338.9216161927
 21
101.5895699526
 31
0.0
  0
LINE
  5
368
  8
0
  6
CONTINUOUS
 62
     7
 10
318.1613303384
 20
101.5895699526
 30
0.0
 11
296.0588194093
 21
101.5895699526
 31
0.0
  0
LINE
  5
369
  8
0
  6
CONTINUOUS
 62
     7
 10
286.0588170251
 20
101.5895699526
 30
0.0
 11
274.5588220319
 21
101.5895699526
 31
0.0
  0
LINE
  5
36A
  8
0
  6
CONTINUOUS
 62
     7
 10
262.558821555
 20
101.5895699526
 30
0.0
 11
251.0588206014
 21
101.5895699526
 31
0.0
  0
LINE
  5
36B
  8
0
  6
CONTINUOUS
 62
     7
 10
241.0588182172
 20
101.5895699526
 30
0.0
 11
218.9216211101
 21
101.5895699526
 31
0.0
  0
LINE
  5
36C
  8
0
  6
CONTINUOUS
 62
     7
 10
198.1613307854
 20
101.5895699526
 30
0.0
 11
176.0588206014
 21
101.5895699526
 31
0.0
  0
LINE
  5
36D
  8
0
  6
CONTINUOUS
 62
     7
 10
166.0588182172
 20
101.5895699526
 30
0.0
 11
154.5588172635
 21
101.5895699526
 31
0.0
  0
LINE
  5
36E
  8
0
  6
CONTINUOUS
 62
     7
 10
142.5588167867
 20
101.5895699526
 30
0.0
 11
131.0588217934
 21
101.5895699526
 31
0.0
  0
LINE
  5
36F
  8
0
  6
CONTINUOUS
 62
     7
 10
121.0588194093
 20
101.5895699526
 30
0.0
 11
98.9216185769
 21
101.5895699526
 31
0.0
  0
LINE
  5
370
  8
0
  6
CONTINUOUS
 62
     7
 10
78.1613327226
 20
101.5895699526
 30
0.0
 11
56.0588217934
 21
101.5895699526
 31
0.0
  0
LINE
  5
371
  8
0
  6
CONTINUOUS
 62
     7
 10
46.0588194093
 20
101.5895699526
 30
0.0
 11
34.5588184556
 21
101.5895699526
 31
0.0
  0
LINE
  5
372
  8
0
  6
CONTINUOUS
 62
     7
 10
22.5588179787
 20
101.5895699526
 30
0.0
 11
20.1588250359
 21
101.5895699526
 31
0.0
  0
ARC
  5
373
  8
0
  6
CONTINUOUS
 62
     7
 10
20.1588194093
 20
101.9895700271
 30
0.0
 40
0.4000000000000057
 50
180.0
 51
270.0
  0
LINE
  5
374
  8
0
  6
CONTINUOUS
 62
     7
 10
19.7588182649
 20
101.9895700182
 30
0.0
 11
19.7588182649
 21
102.5895701165
 31
0.0
  0
LINE
  5
375
  8
0
  6
CONTINUOUS
 62
     7
 10
397.3588205537
 20
102.5895701165
 30
0.0
 11
397.3588205537
 21
101.9895700182
 31
0.0
  0
ARC
  5
376
  8
0
  6
CONTINUOUS
 62
     7
 10
396.9588194093
 20
101.9895700271
 30
0.0
 40
0.4000000000000057
 50
270.0
 51
0.0
  0
ARC
  5
377
  8
0
  6
CONTINUOUS
 62
     7
 10
351.5588194093
 20
114.5895700271
 30
0.0
 40
4.0
 50
0.0
 51
90.0
  0
LINE
  5
378
  8
0
  6
CONTINUOUS
 62
     7
 10
355.5588222703
 20
112.589569893
 30
0.0
 11
355.5588222703
 21
114.5895698483
 31
0.0
  0
LINE
  5
379
  8
0
  6
CONTINUOUS
 62
     7
 10
355.5588222703
 20
112.589569893
 30
0.0
 11
355.5525637826
 21
111.5895701016
 31
0.0
  0
POLYLINE
  5
37A
  8
0
  6
CONTINUOUS
 62
     7
 66
     1
 10
0.0
 20
0.0
 30
0.0
  0
VERTEX
  5
733
  8
0
  6
CONTINUOUS
 62
     7
 10
354.7989584168
 20
101.5895699526
 30
0.0
  0
VERTEX
  5
734
  8
0
  6
CONTINUOUS
 62
     7
 10
354.5534111222
 20
99.9462054486
 30
0.0
  0
VERTEX
  5
735
  8
0
  6
CONTINUOUS
 62
     7
 10
354.1672683915
 20
97.7332131381
 30
0.0
  0
SEQEND
  5
73A
  8
0
  6
CONTINUOUS
 62
     7
  0
LINE
  5
37B
  8
0
  6
CONTINUOUS
 62
     7
 10
331.5650678834
 20
111.5895701016
 30
0.0
 11
331.5588213166
 21
112.589569893
 31
0.0
  0
LINE
  5
37C
  8
0
  6
CONTINUOUS
 62
     7
 10
331.5588213166
 20
114.5895698483
 30
0.0
 11
331.5588213166
 21
112.589569893
 31
0.0
  0
ARC
  5
37D
  8
0
  6
CONTINUOUS
 62
     7
 10
335.5588194093
 20
114.5895700271
 30
0.0
 40
4.000000000000057
 50
90.0
 51
180.0
  0
LINE
  5
37E
  8
0
  6
CONTINUOUS
 62
     7
 10
351.5588141641
 20
118.5895697589
 30
0.0
 11
335.5588175019
 21
118.5895697589
 31
0.0
  0
CIRCLE
  5
37F
  8
0
  6
CONTINUOUS
 62
     7
 10
351.5588194093
 20
114.5895700271
 30
0.0
 40
1.500000000000014
  0
CIRCLE
  5
380
  8
0
  6
CONTINUOUS
 62
     7
 10
335.5588194093
 20
114.5895700271
 30
0.0
 40
1.500000000000014
  0
POLYLINE
  5
381
  8
0
  6
CONTINUOUS
 62
     7
 66
     1
 10
0.0
 20
0.0
 30
0.0
  0
VERTEX
  5
736
  8
0
  6
CONTINUOUS
 62
     7
 10
62.950203534
 20
97.7340632494
 30
0.0
  0
VERTEX
  5
737
  8
0
  6
CONTINUOUS
 62
     7
 10
62.5642276963
 20
99.9462054486
 30
0.0
  0
VERTEX
  5
738
  8
0
  6
CONTINUOUS
 62
     7
 10
62.3186804017
 20
101.5895699526
 30
0.0
  0
SEQEND
  5
739
  8
0
  6
CONTINUOUS
 62
     7
  0
LINE
  5
382
  8
0
  6
CONTINUOUS
 62
     7
 10
61.5650750359
 20
111.5895701016
 30
0.0
 11
61.5588165482
 21
112.589569893
 31
0.0
  0
LINE
  5
383
  8
0
  6
CONTINUOUS
 62
     7
 10
61.5588165482
 20
114.5895698483
 30
0.0
 11
61.5588165482
 21
112.589569893
 31
0.0
  0
ARC
  5
384
  8
0
  6
CONTINUOUS
 62
     7
 10
65.5588194093
 20
114.5895700271
 30
0.0
 40
4.000000000000007
 50
90.0
 51
180.0
  0
LINE
  5
385
  8
0
  6
CONTINUOUS
 62
     7
 10
81.5588213166
 20
118.5895697589
 30
0.0
 11
65.5588246545
 21
118.5895697589
 31
0.0
  0
ARC
  5
386
  8
0
  6
CONTINUOUS
 62
     7
 10
81.5588194093
 20
114.5895700271
 30
0.0
 40
4.0
 50
0.0
 51
90.0
  0
LINE
  5
387
  8
0
  6
CONTINUOUS
 62
     7
 10
85.5588175019
 20
112.589569893
 30
0.0
 11
85.5588175019
 21
114.5895698483
 31
0.0
  0
LINE
  5
388
  8
0
  6
CONTINUOUS
 62
     7
 10
85.5588175019
 20
112.589569893
 30
0.0
 11
85.5525709351
 21
111.5895701016
 31
0.0
  0
CIRCLE
  5
389
  8
0
  6
CONTINUOUS
 62
     7
 10
65.5588194093
 20
114.5895700271
 30
0.0
 40
1.500000000000014
  0
CIRCLE
  5
38A
  8
0
  6
CONTINUOUS
 62
     7
 10
81.5588194093
 20
114.5895700271
 30
0.0
 40
1.500000000000014
  0
ENDSEC
  0
EOF
