  0
SECTION
  2
HEADER
  9
$ACADVER
  1
AC1009
  9
$DWGCODEPAGE
  3
ansi_1252
  9
$INSBASE
 10
0.0
 20
0.0
 30
0.0
  9
$EXTMIN
 10
0.0
 20
0.0
 30
0.0
  9
$EXTMAX
 10
420.0
 20
297.0
 30
0.0
  9
$LIMMIN
 10
0.0
 20
0.0
  9
$LIMMAX
 10
420.0
 20
297.0
  9
$ORTHOMODE
 70
     0
  9
$REGENMODE
 70
     1
  9
$FILLMODE
 70
     1
  9
$QTEXTMODE
 70
     0
  9
$MIRRTEXT
 70
     1
  9
$DRAGMODE
 70
     2
  9
$LTSCALE
 40
1.0
  9
$OSMODE
 70
    37
  9
$ATTMODE
 70
     1
  9
$TEXTSIZE
 40
3.5
  9
$TRACEWID
 40
1.0
  9
$TEXTSTYLE
  7
STANDARD
  9
$CLAYER
  8
0
  9
$CELTYPE
  6
BYLAYER
  9
$CECOLOR
 62
   256
  9
$DIMSCALE
 40
1.0
  9
$DIMASZ
 40
4.0
  9
$DIMEXO
 40
0.0
  9
$DIMDLI
 40
3.75
  9
$DIMRND
 40
0.0
  9
$DIMDLE
 40
0.0
  9
$DIMEXE
 40
2.0
  9
$DIMTP
 40
0.0
  9
$DIMTM
 40
0.0
  9
$DIMTXT
 40
3.5
  9
$DIMCEN
 40
2.5
  9
$DIMTSZ
 40
0.0
  9
$DIMTOL
 70
     0
  9
$DIMLIM
 70
     0
  9
$DIMTIH
 70
     1
  9
$DIMTOH
 70
     1
  9
$DIMSE1
 70
     0
  9
$DIMSE2
 70
     0
  9
$DIMTAD
 70
     1
  9
$DIMZIN
 70
     0
  9
$DIMBLK
  1

  9
$DIMASO
 70
     1
  9
$DIMSHO
 70
     1
  9
$DIMPOST
  1

  9
$DIMAPOST
  1

  9
$DIMALT
 70
     0
  9
$DIMALTD
 70
     3
  9
$DIMALTF
 40
0.0393700787
  9
$DIMLFAC
 40
5.0
  9
$DIMTOFL
 70
     1
  9
$DIMTVP
 40
0.0
  9
$DIMTIX
 70
     0
  9
$DIMSOXD
 70
     0
  9
$DIMSAH
 70
     0
  9
$DIMBLK1
  1

  9
$DIMBLK2
  1

  9
$DIMSTYLE
  2
ISO-25
  9
$DIMCLRD
 70
     0
  9
$DIMCLRE
 70
     0
  9
$DIMCLRT
 70
     0
  9
$DIMTFAC
 40
1.0
  9
$DIMGAP
 40
1.524
  9
$LUNITS
 70
     2
  9
$LUPREC
 70
     2
  9
$SKETCHINC
 40
1.0
  9
$FILLETRAD
 40
10.0
  9
$AUNITS
 70
     0
  9
$AUPREC
 70
     2
  9
$MENU
  1
.
  9
$ELEVATION
 40
0.0
  9
$PELEVATION
 40
0.0
  9
$THICKNESS
 40
0.0
  9
$LIMCHECK
 70
     0
  9
$CHAMFERA
 40
10.0
  9
$CHAMFERB
 40
10.0
  9
$SKPOLY
 70
     0
  9
$TDCREATE
 40
2457802.469917836
  9
$TDUPDATE
 40
2457802.469918032
  9
$TDINDWG
 40
0.0000000116
  9
$TDUSRTIMER
 40
0.0000000116
  9
$USRTIMER
 70
     1
  9
$ANGBASE
 50
0.0
  9
$ANGDIR
 70
     0
  9
$PDMODE
 70
     0
  9
$PDSIZE
 40
-1.0
  9
$PLINEWID
 40
0.0
  9
$COORDS
 70
     1
  9
$SPLFRAME
 70
     0
  9
$SPLINETYPE
 70
     6
  9
$SPLINESEGS
 70
     8
  9
$ATTDIA
 70
     0
  9
$ATTREQ
 70
     1
  9
$HANDLING
 70
     1
  9
$HANDSEED
  5
52C
  9
$SURFTAB1
 70
     6
  9
$SURFTAB2
 70
     6
  9
$SURFTYPE
 70
     6
  9
$SURFU
 70
     6
  9
$SURFV
 70
     6
  9
$UCSNAME
  2

  9
$UCSORG
 10
0.0
 20
0.0
 30
0.0
  9
$UCSXDIR
 10
1.0
 20
0.0
 30
0.0
  9
$UCSYDIR
 10
0.0
 20
1.0
 30
0.0
  9
$PUCSNAME
  2

  9
$PUCSORG
 10
0.0
 20
0.0
 30
0.0
  9
$PUCSXDIR
 10
1.0
 20
0.0
 30
0.0
  9
$PUCSYDIR
 10
0.0
 20
1.0
 30
0.0
  9
$USERI1
 70
     0
  9
$USERI2
 70
     0
  9
$USERI3
 70
     0
  9
$USERI4
 70
     0
  9
$USERI5
 70
     0
  9
$USERR1
 40
0.0
  9
$USERR2
 40
0.0
  9
$USERR3
 40
0.0
  9
$USERR4
 40
0.0
  9
$USERR5
 40
0.0
  9
$WORLDVIEW
 70
     1
  9
$SHADEDGE
 70
     3
  9
$SHADEDIF
 70
    70
  9
$TILEMODE
 70
     1
  9
$MAXACTVP
 70
    64
  9
$PLIMCHECK
 70
     0
  9
$PEXTMIN
 10
1.0000000000E+20
 20
1.0000000000E+20
 30
1.0000000000E+20
  9
$PEXTMAX
 10
-1.0000000000E+20
 20
-1.0000000000E+20
 30
-1.0000000000E+20
  9
$PLIMMIN
 10
0.0
 20
0.0
  9
$PLIMMAX
 10
420.0
 20
297.0
  9
$UNITMODE
 70
     0
  9
$VISRETAIN
 70
     1
  9
$PLINEGEN
 70
     0
  9
$PSLTSCALE
 70
     1
  0
ENDSEC
  0
SECTION
  2
TABLES
  0
TABLE
  2
VPORT
 70
     1
  0
VPORT
  2
*ACTIVE
 70
     0
 10
0.0
 20
0.0
 11
1.0
 21
1.0
 12
210.0
 22
148.5
 13
0.0
 23
0.0
 14
10.0
 24
10.0
 15
10.0
 25
10.0
 16
0.0
 26
0.0
 36
1.0
 17
0.0
 27
0.0
 37
0.0
 40
297.0
 41
1.4141414141
 42
50.0
 43
0.0
 44
0.0
 50
0.0
 51
0.0
 71
     0
 72
  2000
 73
     1
 74
     3
 75
     0
 76
     0
 77
     0
 78
     0
  0
ENDTAB
  0
TABLE
  2
LTYPE
 70
     6
  0
LTYPE
  2
CONTINUOUS
 70
     0
  3
Solid line
 72
    65
 73
     0
 40
0.0
  0
LTYPE
  2
HIDDEN
 70
     0
  3
Hidden __ __ __ __ __ __ __ __ __ __ __ __ __ __
 72
    65
 73
     2
 40
1.905
 49
1.27
 49
-0.635
  0
LTYPE
  2
PHANTOM
 70
     0
  3
Phantom ______  __  __  ______  __  __  ______
 72
    65
 73
     6
 40
12.7
 49
6.35
 49
-1.27
 49
1.27
 49
-1.27
 49
1.27
 49
-1.27
  0
LTYPE
  2
CENTER
 70
     0
  3
Center ____ _ ____ _ ____ _ ____ _ ____ _ ____
 72
    65
 73
     4
 40
10.16
 49
6.35
 49
-1.27
 49
1.27
 49
-1.27
  0
LTYPE
  2
CENTERX2
 70
     0
  3
Center (2x) ________  __  ________  __  _____
 72
    65
 73
     4
 40
20.32
 49
12.7
 49
-2.54
 49
2.54
 49
-2.54
  0
LTYPE
  2
DOT2
 70
     0
  3
Dot (.5x) ........................................
 72
    65
 73
     2
 40
0.635
 49
0.0
 49
-0.635
  0
ENDTAB
  0
TABLE
  2
LAYER
 70
     2
  0
LAYER
  2
0
 70
     0
 62
     7
  6
CONTINUOUS
  0
LAYER
  2
FORMAT
 70
     0
 62
     7
  6
CONTINUOUS
  0
ENDTAB
  0
TABLE
  2
STYLE
 70
     1
  0
STYLE
  2
STANDARD
 70
     0
 40
0.0
 41
1.0
 50
0.0
 71
     0
 42
3.5
  3
txt
  4

  0
ENDTAB
  0
TABLE
  2
VIEW
 70
     0
  0
ENDTAB
  0
TABLE
  2
UCS
 70
     0
  0
ENDTAB
  0
TABLE
  2
APPID
 70
     1
  0
APPID
  2
ACAD
 70
     0
  0
ENDTAB
  0
TABLE
  2
DIMSTYLE
 70
     1
  0
DIMSTYLE
  2
ISO-25
 70
     0
  3

  4

  5

  6

  7

 40
1.0
 41
2.5
 42
0.625
 43
3.75
 44
1.25
 45
0.0
 46
0.0
 47
0.0
 48
0.0
140
2.5
141
2.5
142
0.0
143
0.0393700787
144
1.0
145
0.0
146
1.0
147
0.625
 71
     0
 72
     0
 73
     0
 74
     0
 75
     0
 76
     0
 77
     1
 78
     8
170
     0
171
     3
172
     1
173
     0
174
     0
175
     0
176
     0
177
     0
178
     0
  0
ENDTAB
  0
ENDSEC
  0
SECTION
  2
BLOCKS
  0
BLOCK
  8
0
  2
$MODEL_SPACE
 70
     0
 10
0.0
 20
0.0
 30
0.0
  3
$MODEL_SPACE
  1

  0
ENDBLK
  5
21
  8
0
  0
BLOCK
 67
     1
  8
0
  2
$PAPER_SPACE
 70
     0
 10
0.0
 20
0.0
 30
0.0
  3
$PAPER_SPACE
  1

  0
ENDBLK
  5
1D
 67
     1
  8
0
  0
ENDSEC
  0
SECTION
  2
ENTITIES
  0
POLYLINE
  5
45
  8
0
  6
CONTINUOUS
 62
     7
 66
     1
 10
0.0
 20
0.0
 30
0.0
  0
VERTEX
  5
236
  8
0
  6
CONTINUOUS
 62
     7
 10
231.9568897831
 20
249.1036580705
 30
0.0
  0
VERTEX
  5
237
  8
0
  6
CONTINUOUS
 62
     7
 10
230.6820298778
 20
248.9334450864
 30
0.0
  0
VERTEX
  5
238
  8
0
  6
CONTINUOUS
 62
     7
 10
229.5891846763
 20
248.7923787737
 30
0.0
  0
VERTEX
  5
239
  8
0
  6
CONTINUOUS
 62
     7
 10
228.6786581623
 20
248.6782477998
 30
0.0
  0
VERTEX
  5
23A
  8
0
  6
CONTINUOUS
 62
     7
 10
227.9506827938
 20
248.5892163419
 30
0.0
  0
VERTEX
  5
23B
  8
0
  6
CONTINUOUS
 62
     7
 10
227.3522938835
 20
248.5175000333
 30
0.0
  0
VERTEX
  5
23C
  8
0
  6
CONTINUOUS
 62
     7
 10
226.9312466728
 20
248.4679089689
 30
0.0
  0
VERTEX
  5
23D
  8
0
  6
CONTINUOUS
 62
     7
 10
226.4950598823
 20
248.4176801347
 30
0.0
  0
VERTEX
  5
23E
  8
0
  6
CONTINUOUS
 62
     7
 10
226.025715028
 20
248.3648763799
 30
0.0
  0
VERTEX
  5
23F
  8
0
  6
CONTINUOUS
 62
     7
 10
225.5231823074
 20
248.3096943998
 30
0.0
  0
VERTEX
  5
240
  8
0
  6
CONTINUOUS
 62
     7
 10
224.9874438392
 20
248.2523249292
 30
0.0
  0
VERTEX
  5
241
  8
0
  6
CONTINUOUS
 62
     7
 10
223.5931421863
 20
248.1097088956
 30
0.0
  0
VERTEX
  5
242
  8
0
  6
CONTINUOUS
 62
     7
 10
222.0139767276
 20
247.9592131281
 30
0.0
  0
VERTEX
  5
243
  8
0
  6
CONTINUOUS
 62
     7
 10
220.6944133388
 20
247.8420900011
 30
0.0
  0
VERTEX
  5
244
  8
0
  6
CONTINUOUS
 62
     7
 10
219.3677033531
 20
247.7329121732
 30
0.0
  0
VERTEX
  5
245
  8
0
  6
CONTINUOUS
 62
     7
 10
218.1341435062
 20
247.640244832
 30
0.0
  0
VERTEX
  5
246
  8
0
  6
CONTINUOUS
 62
     7
 10
216.9938947307
 20
247.5629674101
 30
0.0
  0
VERTEX
  5
247
  8
0
  6
CONTINUOUS
 62
     7
 10
215.9471179592
 20
247.500138154
 30
0.0
  0
VERTEX
  5
248
  8
0
  6
CONTINUOUS
 62
     7
 10
214.9939622032
 20
247.4510179662
 30
0.0
  0
VERTEX
  5
249
  8
0
  6
CONTINUOUS
 62
     7
 10
214.1345645534
 20
247.415070405
 30
0.0
  0
VERTEX
  5
24A
  8
0
  6
CONTINUOUS
 62
     7
 10
213.3683587658
 20
247.3918067121
 30
0.0
  0
VERTEX
  5
24B
  8
0
  6
CONTINUOUS
 62
     7
 10
213.0077447044
 20
247.3823593759
 30
0.0
  0
VERTEX
  5
24C
  8
0
  6
CONTINUOUS
 62
     7
 10
212.6540745842
 20
247.371606698
 30
0.0
  0
VERTEX
  5
24D
  8
0
  6
CONTINUOUS
 62
     7
 10
212.3073364841
 20
247.3591493272
 30
0.0
  0
VERTEX
  5
24E
  8
0
  6
CONTINUOUS
 62
     7
 10
211.9675244438
 20
247.3456011915
 30
0.0
  0
VERTEX
  5
24F
  8
0
  6
CONTINUOUS
 62
     7
 10
211.4118601429
 20
247.3225639963
 30
0.0
  0
VERTEX
  5
250
  8
0
  6
CONTINUOUS
 62
     7
 10
210.7966984855
 20
247.2976790571
 30
0.0
  0
VERTEX
  5
251
  8
0
  6
CONTINUOUS
 62
     7
 10
210.0638236152
 20
247.2694145345
 30
0.0
  0
VERTEX
  5
252
  8
0
  6
CONTINUOUS
 62
     7
 10
209.2132116901
 20
247.2384618425
 30
0.0
  0
VERTEX
  5
253
  8
0
  6
CONTINUOUS
 62
     7
 10
208.1957902061
 20
247.203974595
 30
0.0
  0
VERTEX
  5
254
  8
0
  6
CONTINUOUS
 62
     7
 10
207.0490981685
 20
247.1683548593
 30
0.0
  0
VERTEX
  5
255
  8
0
  6
CONTINUOUS
 62
     7
 10
205.7732965099
 20
247.1326993608
 30
0.0
  0
VERTEX
  5
256
  8
0
  6
CONTINUOUS
 62
     7
 10
199.7257377254
 20
247.0180438661
 30
0.0
  0
VERTEX
  5
257
  8
0
  6
CONTINUOUS
 62
     7
 10
193.7086905586
 20
246.988539567
 30
0.0
  0
VERTEX
  5
258
  8
0
  6
CONTINUOUS
 62
     7
 10
191.3341487991
 20
246.9994829797
 30
0.0
  0
VERTEX
  5
259
  8
0
  6
CONTINUOUS
 62
     7
 10
189.0990938293
 20
247.0215128564
 30
0.0
  0
VERTEX
  5
25A
  8
0
  6
CONTINUOUS
 62
     7
 10
187.0178605663
 20
247.0523403787
 30
0.0
  0
VERTEX
  5
25B
  8
0
  6
CONTINUOUS
 62
     7
 10
185.0904728519
 20
247.0898972654
 30
0.0
  0
VERTEX
  5
25C
  8
0
  6
CONTINUOUS
 62
     7
 10
183.3072091686
 20
247.1325324678
 30
0.0
  0
VERTEX
  5
25D
  8
0
  6
CONTINUOUS
 62
     7
 10
182.3977853405
 20
247.1572564745
 30
0.0
  0
VERTEX
  5
25E
  8
0
  6
CONTINUOUS
 62
     7
 10
181.4456458437
 20
247.1853719854
 30
0.0
  0
VERTEX
  5
25F
  8
0
  6
CONTINUOUS
 62
     7
 10
180.4508085596
 20
247.2172664308
 30
0.0
  0
VERTEX
  5
260
  8
0
  6
CONTINUOUS
 62
     7
 10
179.4132973301
 20
247.2533689642
 30
0.0
  0
VERTEX
  5
261
  8
0
  6
CONTINUOUS
 62
     7
 10
178.3889408456
 20
247.2919570112
 30
0.0
  0
VERTEX
  5
262
  8
0
  6
CONTINUOUS
 62
     7
 10
177.7206207859
 20
247.3187552595
 30
0.0
  0
VERTEX
  5
263
  8
0
  6
CONTINUOUS
 62
     7
 10
177.239951049
 20
247.3388360643
 30
0.0
  0
VERTEX
  5
264
  8
0
  6
CONTINUOUS
 62
     7
 10
176.9259120571
 20
247.3523126745
 30
0.0
  0
VERTEX
  5
265
  8
0
  6
CONTINUOUS
 62
     7
 10
176.4450307237
 20
247.373120656
 30
0.0
  0
VERTEX
  5
266
  8
0
  6
CONTINUOUS
 62
     7
 10
175.8891190635
 20
247.3961876535
 30
0.0
  0
VERTEX
  5
267
  8
0
  6
CONTINUOUS
 62
     7
 10
175.2582366811
 20
247.4203156137
 30
0.0
  0
VERTEX
  5
268
  8
0
  6
CONTINUOUS
 62
     7
 10
174.552389537
 20
247.4477218294
 30
0.0
  0
VERTEX
  5
269
  8
0
  6
CONTINUOUS
 62
     7
 10
173.7706597196
 20
247.4819408559
 30
0.0
  0
VERTEX
  5
26A
  8
0
  6
CONTINUOUS
 62
     7
 10
172.9085083353
 20
247.5267754697
 30
0.0
  0
VERTEX
  5
26B
  8
0
  6
CONTINUOUS
 62
     7
 10
171.9653631794
 20
247.5831257009
 30
0.0
  0
VERTEX
  5
26C
  8
0
  6
CONTINUOUS
 62
     7
 10
170.941340481
 20
247.6515518331
 30
0.0
  0
VERTEX
  5
26D
  8
0
  6
CONTINUOUS
 62
     7
 10
169.8365594494
 20
247.7327512407
 30
0.0
  0
VERTEX
  5
26E
  8
0
  6
CONTINUOUS
 62
     7
 10
168.6511512148
 20
247.8275405073
 30
0.0
  0
VERTEX
  5
26F
  8
0
  6
CONTINUOUS
 62
     7
 10
166.5871675359
 20
248.0099068784
 30
0.0
  0
VERTEX
  5
270
  8
0
  6
CONTINUOUS
 62
     7
 10
164.3319065916
 20
248.2326017522
 30
0.0
  0
VERTEX
  5
271
  8
0
  6
CONTINUOUS
 62
     7
 10
161.9860644685
 20
248.4889970922
 30
0.0
  0
VERTEX
  5
272
  8
0
  6
CONTINUOUS
 62
     7
 10
159.5696355449
 20
248.7788485193
 30
0.0
  0
VERTEX
  5
273
  8
0
  6
CONTINUOUS
 62
     7
 10
157.0829863893
 20
249.1036580705
 30
0.0
  0
SEQEND
  5
52B
  8
0
  6
CONTINUOUS
 62
     7
  0
POLYLINE
  5
46
  8
0
  6
CONTINUOUS
 62
     7
 66
     1
 10
0.0
 20
0.0
 30
0.0
  0
VERTEX
  5
274
  8
0
  6
CONTINUOUS
 62
     7
 10
232.120003854
 20
248.5199021005
 30
0.0
  0
VERTEX
  5
275
  8
0
  6
CONTINUOUS
 62
     7
 10
232.0377852069
 20
248.8808976316
 30
0.0
  0
VERTEX
  5
276
  8
0
  6
CONTINUOUS
 62
     7
 10
231.9037701236
 20
249.469880929
 30
0.0
  0
SEQEND
  5
52A
  8
0
  6
CONTINUOUS
 62
     7
  0
POLYLINE
  5
47
  8
0
  6
CONTINUOUS
 62
     7
 66
     1
 10
0.0
 20
0.0
 30
0.0
  0
VERTEX
  5
277
  8
0
  6
CONTINUOUS
 62
     7
 10
157.1361030685
 20
249.469880929
 30
0.0
  0
VERTEX
  5
278
  8
0
  6
CONTINUOUS
 62
     7
 10
157.0034156787
 20
248.8867329263
 30
0.0
  0
VERTEX
  5
279
  8
0
  6
CONTINUOUS
 62
     7
 10
156.9176654565
 20
248.5102103853
 30
0.0
  0
SEQEND
  5
529
  8
0
  6
CONTINUOUS
 62
     7
  0
POLYLINE
  5
48
  8
0
  6
CONTINUOUS
 62
     7
 66
     1
 10
0.0
 20
0.0
 30
0.0
  0
VERTEX
  5
27A
  8
0
  6
CONTINUOUS
 62
     7
 10
111.9568879949
 20
249.1036580705
 30
0.0
  0
VERTEX
  5
27B
  8
0
  6
CONTINUOUS
 62
     7
 10
110.6820280897
 20
248.9334450864
 30
0.0
  0
VERTEX
  5
27C
  8
0
  6
CONTINUOUS
 62
     7
 10
109.5891873585
 20
248.7923787737
 30
0.0
  0
VERTEX
  5
27D
  8
0
  6
CONTINUOUS
 62
     7
 10
108.6786593544
 20
248.6782477998
 30
0.0
  0
VERTEX
  5
27E
  8
0
  6
CONTINUOUS
 62
     7
 10
107.9506839859
 20
248.5892163419
 30
0.0
  0
VERTEX
  5
27F
  8
0
  6
CONTINUOUS
 62
     7
 10
107.3522920953
 20
248.5175000333
 30
0.0
  0
VERTEX
  5
280
  8
0
  6
CONTINUOUS
 62
     7
 10
106.9312448846
 20
248.4679089689
 30
0.0
  0
VERTEX
  5
281
  8
0
  6
CONTINUOUS
 62
     7
 10
106.4950640546
 20
248.4176801347
 30
0.0
  0
VERTEX
  5
282
  8
0
  6
CONTINUOUS
 62
     7
 10
106.0257162201
 20
248.3648763799
 30
0.0
  0
VERTEX
  5
283
  8
0
  6
CONTINUOUS
 62
     7
 10
105.5231834995
 20
248.3096943998
 30
0.0
  0
VERTEX
  5
284
  8
0
  6
CONTINUOUS
 62
     7
 10
104.9874450313
 20
248.2523249292
 30
0.0
  0
VERTEX
  5
285
  8
0
  6
CONTINUOUS
 62
     7
 10
103.5931403982
 20
248.1097088956
 30
0.0
  0
VERTEX
  5
286
  8
0
  6
CONTINUOUS
 62
     7
 10
102.0139749395
 20
247.9592131281
 30
0.0
  0
VERTEX
  5
287
  8
0
  6
CONTINUOUS
 62
     7
 10
100.6944145309
 20
247.8420900011
 30
0.0
  0
VERTEX
  5
288
  8
0
  6
CONTINUOUS
 62
     7
 10
99.3677045452
 20
247.7329121732
 30
0.0
  0
VERTEX
  5
289
  8
0
  6
CONTINUOUS
 62
     7
 10
98.1341417181
 20
247.640244832
 30
0.0
  0
VERTEX
  5
28A
  8
0
  6
CONTINUOUS
 62
     7
 10
96.9938929426
 20
247.5629674101
 30
0.0
  0
VERTEX
  5
28B
  8
0
  6
CONTINUOUS
 62
     7
 10
95.9471191513
 20
247.500138154
 30
0.0
  0
VERTEX
  5
28C
  8
0
  6
CONTINUOUS
 62
     7
 10
94.9939633953
 20
247.4510179662
 30
0.0
  0
VERTEX
  5
28D
  8
0
  6
CONTINUOUS
 62
     7
 10
94.1345657455
 20
247.415070405
 30
0.0
  0
VERTEX
  5
28E
  8
0
  6
CONTINUOUS
 62
     7
 10
93.3683569776
 20
247.3918067121
 30
0.0
  0
VERTEX
  5
28F
  8
0
  6
CONTINUOUS
 62
     7
 10
93.0077458965
 20
247.3823593759
 30
0.0
  0
VERTEX
  5
290
  8
0
  6
CONTINUOUS
 62
     7
 10
92.6540757763
 20
247.371606698
 30
0.0
  0
VERTEX
  5
291
  8
0
  6
CONTINUOUS
 62
     7
 10
92.307334696
 20
247.3591493272
 30
0.0
  0
VERTEX
  5
292
  8
0
  6
CONTINUOUS
 62
     7
 10
91.9675256359
 20
247.3456011915
 30
0.0
  0
VERTEX
  5
293
  8
0
  6
CONTINUOUS
 62
     7
 10
91.4118643152
 20
247.3225639963
 30
0.0
  0
VERTEX
  5
294
  8
0
  6
CONTINUOUS
 62
     7
 10
90.7966966974
 20
247.2976790571
 30
0.0
  0
VERTEX
  5
295
  8
0
  6
CONTINUOUS
 62
     7
 10
90.0638218271
 20
247.2694145345
 30
0.0
  0
VERTEX
  5
296
  8
0
  6
CONTINUOUS
 62
     7
 10
89.2132128822
 20
247.2384618425
 30
0.0
  0
VERTEX
  5
297
  8
0
  6
CONTINUOUS
 62
     7
 10
88.1957913982
 20
247.203974595
 30
0.0
  0
VERTEX
  5
298
  8
0
  6
CONTINUOUS
 62
     7
 10
87.0490993606
 20
247.1683548593
 30
0.0
  0
VERTEX
  5
299
  8
0
  6
CONTINUOUS
 62
     7
 10
85.7732947218
 20
247.1326993608
 30
0.0
  0
VERTEX
  5
29A
  8
0
  6
CONTINUOUS
 62
     7
 10
79.7257389175
 20
247.0180438661
 30
0.0
  0
VERTEX
  5
29B
  8
0
  6
CONTINUOUS
 62
     7
 10
73.7086917507
 20
246.988539567
 30
0.0
  0
VERTEX
  5
29C
  8
0
  6
CONTINUOUS
 62
     7
 10
71.3341499912
 20
246.9994829797
 30
0.0
  0
VERTEX
  5
29D
  8
0
  6
CONTINUOUS
 62
     7
 10
69.0990950214
 20
247.0215128564
 30
0.0
  0
VERTEX
  5
29E
  8
0
  6
CONTINUOUS
 62
     7
 10
67.0178617584
 20
247.0523403787
 30
0.0
  0
VERTEX
  5
29F
  8
0
  6
CONTINUOUS
 62
     7
 10
65.090474044
 20
247.0898972654
 30
0.0
  0
VERTEX
  5
2A0
  8
0
  6
CONTINUOUS
 62
     7
 10
63.3072103607
 20
247.1325324678
 30
0.0
  0
VERTEX
  5
2A1
  8
0
  6
CONTINUOUS
 62
     7
 10
62.3977865326
 20
247.1572564745
 30
0.0
  0
VERTEX
  5
2A2
  8
0
  6
CONTINUOUS
 62
     7
 10
61.4456440555
 20
247.1853719854
 30
0.0
  0
VERTEX
  5
2A3
  8
0
  6
CONTINUOUS
 62
     7
 10
60.4508067714
 20
247.2172664308
 30
0.0
  0
VERTEX
  5
2A4
  8
0
  6
CONTINUOUS
 62
     7
 10
59.4132985222
 20
247.2533689642
 30
0.0
  0
VERTEX
  5
2A5
  8
0
  6
CONTINUOUS
 62
     7
 10
58.3889390575
 20
247.2919570112
 30
0.0
  0
VERTEX
  5
2A6
  8
0
  6
CONTINUOUS
 62
     7
 10
57.720621978
 20
247.3187552595
 30
0.0
  0
VERTEX
  5
2A7
  8
0
  6
CONTINUOUS
 62
     7
 10
57.2399522411
 20
247.3388360643
 30
0.0
  0
VERTEX
  5
2A8
  8
0
  6
CONTINUOUS
 62
     7
 10
56.9259132492
 20
247.3523126745
 30
0.0
  0
VERTEX
  5
2A9
  8
0
  6
CONTINUOUS
 62
     7
 10
56.4450289356
 20
247.373120656
 30
0.0
  0
VERTEX
  5
2AA
  8
0
  6
CONTINUOUS
 62
     7
 10
55.8891202556
 20
247.3961876535
 30
0.0
  0
VERTEX
  5
2AB
  8
0
  6
CONTINUOUS
 62
     7
 10
55.258234893
 20
247.4203156137
 30
0.0
  0
VERTEX
  5
2AC
  8
0
  6
CONTINUOUS
 62
     7
 10
54.5523907291
 20
247.4477218294
 30
0.0
  0
VERTEX
  5
2AD
  8
0
  6
CONTINUOUS
 62
     7
 10
53.7706579315
 20
247.4819408559
 30
0.0
  0
VERTEX
  5
2AE
  8
0
  6
CONTINUOUS
 62
     7
 10
52.9085065471
 20
247.5267754697
 30
0.0
  0
VERTEX
  5
2AF
  8
0
  6
CONTINUOUS
 62
     7
 10
51.9653643715
 20
247.5831257009
 30
0.0
  0
VERTEX
  5
2B0
  8
0
  6
CONTINUOUS
 62
     7
 10
50.9413386928
 20
247.6515518331
 30
0.0
  0
VERTEX
  5
2B1
  8
0
  6
CONTINUOUS
 62
     7
 10
49.8365606414
 20
247.7327512407
 30
0.0
  0
VERTEX
  5
2B2
  8
0
  6
CONTINUOUS
 62
     7
 10
48.6511494266
 20
247.8275405073
 30
0.0
  0
VERTEX
  5
2B3
  8
0
  6
CONTINUOUS
 62
     7
 10
46.5871657478
 20
248.0099068784
 30
0.0
  0
VERTEX
  5
2B4
  8
0
  6
CONTINUOUS
 62
     7
 10
44.3319048034
 20
248.2326017522
 30
0.0
  0
VERTEX
  5
2B5
  8
0
  6
CONTINUOUS
 62
     7
 10
41.9860626804
 20
248.4889970922
 30
0.0
  0
VERTEX
  5
2B6
  8
0
  6
CONTINUOUS
 62
     7
 10
39.569636737
 20
248.7788485193
 30
0.0
  0
VERTEX
  5
2B7
  8
0
  6
CONTINUOUS
 62
     7
 10
37.0829846012
 20
249.1036580705
 30
0.0
  0
SEQEND
  5
528
  8
0
  6
CONTINUOUS
 62
     7
  0
POLYLINE
  5
49
  8
0
  6
CONTINUOUS
 62
     7
 66
     1
 10
0.0
 20
0.0
 30
0.0
  0
VERTEX
  5
2B8
  8
0
  6
CONTINUOUS
 62
     7
 10
112.1200005757
 20
248.5199021005
 30
0.0
  0
VERTEX
  5
2B9
  8
0
  6
CONTINUOUS
 62
     7
 10
112.0377849089
 20
248.8808976316
 30
0.0
  0
VERTEX
  5
2BA
  8
0
  6
CONTINUOUS
 62
     7
 10
111.9037713157
 20
249.469880929
 30
0.0
  0
SEQEND
  5
527
  8
0
  6
CONTINUOUS
 62
     7
  0
POLYLINE
  5
4A
  8
0
  6
CONTINUOUS
 62
     7
 66
     1
 10
0.0
 20
0.0
 30
0.0
  0
VERTEX
  5
2BB
  8
0
  6
CONTINUOUS
 62
     7
 10
37.1361042606
 20
249.469880929
 30
0.0
  0
VERTEX
  5
2BC
  8
0
  6
CONTINUOUS
 62
     7
 10
37.0034183609
 20
248.8867329263
 30
0.0
  0
VERTEX
  5
2BD
  8
0
  6
CONTINUOUS
 62
     7
 10
36.9176651584
 20
248.5102103853
 30
0.0
  0
SEQEND
  5
526
  8
0
  6
CONTINUOUS
 62
     7
  0
LINE
  5
4B
  8
0
  6
CONTINUOUS
 62
     7
 10
52.3470069515
 20
157.1156047114
 30
0.0
 11
56.1056520092
 21
157.1156047114
 31
0.0
  0
LINE
  5
4C
  8
0
  6
CONTINUOUS
 62
     7
 10
56.1056520092
 20
155.915604701
 30
0.0
 11
52.3470069515
 21
155.915604701
 31
0.0
  0
LINE
  5
4D
  8
0
  6
CONTINUOUS
 62
     7
 10
62.9342223751
 20
157.1156047114
 30
0.0
 11
66.6928674327
 21
157.1156047114
 31
0.0
  0
LINE
  5
4E
  8
0
  6
CONTINUOUS
 62
     7
 10
66.6928674327
 20
155.915604701
 30
0.0
 11
62.9342223751
 21
155.915604701
 31
0.0
  0
LINE
  5
4F
  8
0
  6
CONTINUOUS
 62
     7
 10
56.1056520092
 20
157.1156047114
 30
0.0
 11
62.9342223751
 21
157.1156047114
 31
0.0
  0
LINE
  5
50
  8
0
  6
CONTINUOUS
 62
     7
 10
56.1056520092
 20
155.915604701
 30
0.0
 11
62.9342223751
 21
155.915604701
 31
0.0
  0
LINE
  5
51
  8
0
  6
CONTINUOUS
 62
     7
 10
202.3470069515
 20
157.1156047114
 30
0.0
 11
206.1056520092
 21
157.1156047114
 31
0.0
  0
LINE
  5
52
  8
0
  6
CONTINUOUS
 62
     7
 10
206.1056520092
 20
155.915604701
 30
0.0
 11
202.3470069515
 21
155.915604701
 31
0.0
  0
LINE
  5
53
  8
0
  6
CONTINUOUS
 62
     7
 10
212.9342223751
 20
157.1156047114
 30
0.0
 11
216.6928674327
 21
157.1156047114
 31
0.0
  0
LINE
  5
54
  8
0
  6
CONTINUOUS
 62
     7
 10
216.6928674327
 20
155.915604701
 30
0.0
 11
212.9342223751
 21
155.915604701
 31
0.0
  0
LINE
  5
55
  8
0
  6
CONTINUOUS
 62
     7
 10
206.1056520092
 20
157.1156047114
 30
0.0
 11
212.9342223751
 21
157.1156047114
 31
0.0
  0
LINE
  5
56
  8
0
  6
CONTINUOUS
 62
     7
 10
206.1056520092
 20
155.915604701
 30
0.0
 11
212.9342223751
 21
155.915604701
 31
0.0
  0
LINE
  5
57
  8
0
  6
CONTINUOUS
 62
     7
 10
47.5199367153
 20
155.915604701
 30
0.0
 11
47.5199367153
 21
157.1156047114
 31
0.0
  0
LINE
  5
58
  8
0
  6
CONTINUOUS
 62
     7
 10
52.3470069515
 20
157.1156047114
 30
0.0
 11
47.5199367153
 21
157.1156047114
 31
0.0
  0
LINE
  5
59
  8
0
  6
CONTINUOUS
 62
     7
 10
47.5199367153
 20
155.915604701
 30
0.0
 11
52.3470069515
 21
155.915604701
 31
0.0
  0
LINE
  5
5A
  8
0
  6
CONTINUOUS
 62
     7
 10
71.519937669
 20
155.915604701
 30
0.0
 11
71.519937669
 21
157.1156047114
 31
0.0
  0
LINE
  5
5B
  8
0
  6
CONTINUOUS
 62
     7
 10
71.519937669
 20
157.1156047114
 30
0.0
 11
66.6928674327
 21
157.1156047114
 31
0.0
  0
LINE
  5
5C
  8
0
  6
CONTINUOUS
 62
     7
 10
66.6928674327
 20
155.915604701
 30
0.0
 11
71.519937669
 21
155.915604701
 31
0.0
  0
LINE
  5
5D
  8
0
  6
CONTINUOUS
 62
     7
 10
197.5199367153
 20
155.915604701
 30
0.0
 11
197.5199367153
 21
157.1156047114
 31
0.0
  0
LINE
  5
5E
  8
0
  6
CONTINUOUS
 62
     7
 10
202.3470069515
 20
157.1156047114
 30
0.0
 11
197.5199367153
 21
157.1156047114
 31
0.0
  0
LINE
  5
5F
  8
0
  6
CONTINUOUS
 62
     7
 10
197.5199367153
 20
155.915604701
 30
0.0
 11
202.3470069515
 21
155.915604701
 31
0.0
  0
LINE
  5
60
  8
0
  6
CONTINUOUS
 62
     7
 10
221.519937669
 20
155.915604701
 30
0.0
 11
221.519937669
 21
157.1156047114
 31
0.0
  0
LINE
  5
61
  8
0
  6
CONTINUOUS
 62
     7
 10
221.519937669
 20
157.1156047114
 30
0.0
 11
216.6928674327
 21
157.1156047114
 31
0.0
  0
LINE
  5
62
  8
0
  6
CONTINUOUS
 62
     7
 10
216.6928674327
 20
155.915604701
 30
0.0
 11
221.519937669
 21
155.915604701
 31
0.0
  0
LINE
  5
63
  8
0
  6
CONTINUOUS
 62
     7
 10
238.1199385273
 20
222.1156047487
 30
0.0
 11
238.1199385273
 21
221.515606513
 31
0.0
  0
ARC
  5
64
  8
0
  6
CONTINUOUS
 62
     7
 10
237.7199371921
 20
221.515604701
 30
0.0
 40
0.4000000000000057
 50
270.0
 51
0.0
  0
POLYLINE
  5
65
  8
0
  6
CONTINUOUS
 62
     7
 66
     1
 10
0.0
 20
0.0
 30
0.0
  0
VERTEX
  5
2BE
  8
0
  6
CONTINUOUS
 62
     7
 10
214.5199383842
 20
221.1156057024
 30
0.0
  0
VERTEX
  5
2BF
  8
0
  6
CONTINUOUS
 62
     7
 10
214.5007218467
 20
221.1348222398
 30
0.0
  0
VERTEX
  5
2C0
  8
0
  6
CONTINUOUS
 62
     7
 10
214.4438172924
 20
221.1917267942
 30
0.0
  0
VERTEX
  5
2C1
  8
0
  6
CONTINUOUS
 62
     7
 10
214.3514062511
 20
221.2841378355
 30
0.0
  0
VERTEX
  5
2C2
  8
0
  6
CONTINUOUS
 62
     7
 10
214.2270411598
 20
221.4084969663
 30
0.0
  0
VERTEX
  5
2C3
  8
0
  6
CONTINUOUS
 62
     7
 10
214.0755082714
 20
221.5600358152
 30
0.0
  0
VERTEX
  5
2C4
  8
0
  6
CONTINUOUS
 62
     7
 10
213.9026190387
 20
221.7329190874
 30
0.0
  0
VERTEX
  5
2C5
  8
0
  6
CONTINUOUS
 62
     7
 10
213.7150253402
 20
221.9205127859
 30
0.0
  0
VERTEX
  5
2C6
  8
0
  6
CONTINUOUS
 62
     7
 10
213.5199393379
 20
222.1156047487
 30
0.0
  0
SEQEND
  5
525
  8
0
  6
CONTINUOUS
 62
     7
  0
LINE
  5
66
  8
0
  6
CONTINUOUS
 62
     7
 10
237.7199317562
 20
221.1156057024
 30
0.0
 11
214.5199383842
 21
221.1156057024
 31
0.0
  0
LINE
  5
67
  8
0
  6
CONTINUOUS
 62
     7
 10
238.1199385273
 20
230.1156030798
 30
0.0
 11
238.1199385273
 21
222.1156047487
 31
0.0
  0
LINE
  5
68
  8
0
  6
CONTINUOUS
 62
     7
 10
54.519936
 20
157.1156047114
 30
0.0
 11
54.519936
 21
221.1156057024
 31
0.0
  0
POLYLINE
  5
69
  8
0
  6
CONTINUOUS
 62
     7
 66
     1
 10
0.0
 20
0.0
 30
0.0
  0
VERTEX
  5
2C7
  8
0
  6
CONTINUOUS
 62
     7
 10
54.519936
 20
221.1156057024
 30
0.0
  0
VERTEX
  5
2C8
  8
0
  6
CONTINUOUS
 62
     7
 10
54.5391525375
 20
221.1348222398
 30
0.0
  0
VERTEX
  5
2C9
  8
0
  6
CONTINUOUS
 62
     7
 10
54.5960570919
 20
221.1917267942
 30
0.0
  0
VERTEX
  5
2CA
  8
0
  6
CONTINUOUS
 62
     7
 10
54.6884681331
 20
221.2841378355
 30
0.0
  0
VERTEX
  5
2CB
  8
0
  6
CONTINUOUS
 62
     7
 10
54.8128332245
 20
221.4084969663
 30
0.0
  0
VERTEX
  5
2CC
  8
0
  6
CONTINUOUS
 62
     7
 10
54.9643661129
 20
221.5600358152
 30
0.0
  0
VERTEX
  5
2CD
  8
0
  6
CONTINUOUS
 62
     7
 10
55.1372553455
 20
221.7329190874
 30
0.0
  0
VERTEX
  5
2CE
  8
0
  6
CONTINUOUS
 62
     7
 10
55.324849044
 20
221.9205127859
 30
0.0
  0
VERTEX
  5
2CF
  8
0
  6
CONTINUOUS
 62
     7
 10
55.5199350464
 20
222.1156047487
 30
0.0
  0
SEQEND
  5
524
  8
0
  6
CONTINUOUS
 62
     7
  0
ARC
  5
6A
  8
0
  6
CONTINUOUS
 62
     7
 10
237.7199371921
 20
230.715604701
 30
0.0
 40
0.4000000000000057
 50
0.0
 51
90.0
  0
LINE
  5
6B
  8
0
  6
CONTINUOUS
 62
     7
 10
238.1199385273
 20
230.7156072759
 30
0.0
 11
238.1199385273
 21
230.1156030798
 31
0.0
  0
LINE
  5
6C
  8
0
  6
CONTINUOUS
 62
     7
 10
54.519936
 20
221.1156057024
 30
0.0
 11
31.3199426281
 21
221.1156057024
 31
0.0
  0
LINE
  5
6D
  8
0
  6
CONTINUOUS
 62
     7
 10
30.919935857
 20
221.515606513
 30
0.0
 11
30.919935857
 21
222.1156047487
 31
0.0
  0
ARC
  5
6E
  8
0
  6
CONTINUOUS
 62
     7
 10
31.3199371921
 20
221.515604701
 30
0.0
 40
0.4000000000000057
 50
180.0
 51
270.0
  0
POLYLINE
  5
6F
  8
0
  6
CONTINUOUS
 62
     7
 66
     1
 10
0.0
 20
0.0
 30
0.0
  0
VERTEX
  5
2D0
  8
0
  6
CONTINUOUS
 62
     7
 10
205.5199350464
 20
222.1156047487
 30
0.0
  0
VERTEX
  5
2D1
  8
0
  6
CONTINUOUS
 62
     7
 10
205.324849044
 20
221.9205127859
 30
0.0
  0
VERTEX
  5
2D2
  8
0
  6
CONTINUOUS
 62
     7
 10
205.1372553455
 20
221.7329190874
 30
0.0
  0
VERTEX
  5
2D3
  8
0
  6
CONTINUOUS
 62
     7
 10
204.9643661129
 20
221.5600358152
 30
0.0
  0
VERTEX
  5
2D4
  8
0
  6
CONTINUOUS
 62
     7
 10
204.8128332245
 20
221.4084969663
 30
0.0
  0
VERTEX
  5
2D5
  8
0
  6
CONTINUOUS
 62
     7
 10
204.6884681331
 20
221.2841378355
 30
0.0
  0
VERTEX
  5
2D6
  8
0
  6
CONTINUOUS
 62
     7
 10
204.5960570919
 20
221.1917267942
 30
0.0
  0
VERTEX
  5
2D7
  8
0
  6
CONTINUOUS
 62
     7
 10
204.5391525375
 20
221.1348222398
 30
0.0
  0
VERTEX
  5
2D8
  8
0
  6
CONTINUOUS
 62
     7
 10
204.519936
 20
221.1156057024
 30
0.0
  0
SEQEND
  5
523
  8
0
  6
CONTINUOUS
 62
     7
  0
LINE
  5
70
  8
0
  6
CONTINUOUS
 62
     7
 10
204.519936
 20
221.1156057024
 30
0.0
 11
64.5199383842
 21
221.1156057024
 31
0.0
  0
POLYLINE
  5
71
  8
0
  6
CONTINUOUS
 62
     7
 66
     1
 10
0.0
 20
0.0
 30
0.0
  0
VERTEX
  5
2D9
  8
0
  6
CONTINUOUS
 62
     7
 10
63.5199393379
 20
222.1156047487
 30
0.0
  0
VERTEX
  5
2DA
  8
0
  6
CONTINUOUS
 62
     7
 10
63.7150253402
 20
221.9205127859
 30
0.0
  0
VERTEX
  5
2DB
  8
0
  6
CONTINUOUS
 62
     7
 10
63.9026190387
 20
221.7329190874
 30
0.0
  0
VERTEX
  5
2DC
  8
0
  6
CONTINUOUS
 62
     7
 10
64.0755082714
 20
221.5600358152
 30
0.0
  0
VERTEX
  5
2DD
  8
0
  6
CONTINUOUS
 62
     7
 10
64.2270411598
 20
221.4084969663
 30
0.0
  0
VERTEX
  5
2DE
  8
0
  6
CONTINUOUS
 62
     7
 10
64.3514062511
 20
221.2841378355
 30
0.0
  0
VERTEX
  5
2DF
  8
0
  6
CONTINUOUS
 62
     7
 10
64.4438172924
 20
221.1917267942
 30
0.0
  0
VERTEX
  5
2E0
  8
0
  6
CONTINUOUS
 62
     7
 10
64.5007218467
 20
221.1348222398
 30
0.0
  0
VERTEX
  5
2E1
  8
0
  6
CONTINUOUS
 62
     7
 10
64.5199383842
 20
221.1156057024
 30
0.0
  0
SEQEND
  5
522
  8
0
  6
CONTINUOUS
 62
     7
  0
LINE
  5
72
  8
0
  6
CONTINUOUS
 62
     7
 10
31.3199426281
 20
231.1156021261
 30
0.0
 11
32.0199395763
 21
231.1156021261
 31
0.0
  0
LINE
  5
73
  8
0
  6
CONTINUOUS
 62
     7
 10
42.019936
 20
231.1156021261
 30
0.0
 11
107.0199365961
 21
231.1156021261
 31
0.0
  0
LINE
  5
74
  8
0
  6
CONTINUOUS
 62
     7
 10
117.0199374901
 20
231.1156021261
 30
0.0
 11
152.0199368941
 21
231.1156021261
 31
0.0
  0
LINE
  5
75
  8
0
  6
CONTINUOUS
 62
     7
 10
162.0199377882
 20
231.1156021261
 30
0.0
 11
227.0199383842
 21
231.1156021261
 31
0.0
  0
LINE
  5
76
  8
0
  6
CONTINUOUS
 62
     7
 10
237.0199348079
 20
231.1156021261
 30
0.0
 11
237.7199317562
 21
231.1156021261
 31
0.0
  0
LINE
  5
77
  8
0
  6
CONTINUOUS
 62
     7
 10
30.919935857
 20
222.1156047487
 30
0.0
 11
30.919935857
 21
230.1156030798
 31
0.0
  0
LINE
  5
78
  8
0
  6
CONTINUOUS
 62
     7
 10
30.919935857
 20
230.1156030798
 30
0.0
 11
30.919935857
 21
230.7156072759
 31
0.0
  0
ARC
  5
79
  8
0
  6
CONTINUOUS
 62
     7
 10
31.3199371921
 20
230.715604701
 30
0.0
 40
0.4000000000000057
 50
90.0
 51
180.0
  0
LINE
  5
7A
  8
0
  6
CONTINUOUS
 62
     7
 10
64.5199383842
 20
221.1156057024
 30
0.0
 11
64.5199383842
 21
157.1156047114
 31
0.0
  0
LINE
  5
7B
  8
0
  6
CONTINUOUS
 62
     7
 10
214.5199383842
 20
221.1156057024
 30
0.0
 11
214.5199383842
 21
157.1156047114
 31
0.0
  0
LINE
  5
7C
  8
0
  6
CONTINUOUS
 62
     7
 10
204.519936
 20
157.1156047114
 30
0.0
 11
204.519936
 21
221.1156057024
 31
0.0
  0
POLYLINE
  5
7D
  8
0
  6
CONTINUOUS
 62
     7
 66
     1
 10
0.0
 20
0.0
 30
0.0
  0
VERTEX
  5
2E2
  8
0
  6
CONTINUOUS
 62
     7
 10
232.1200098144
 20
247.4463032388
 30
0.0
  0
VERTEX
  5
2E3
  8
0
  6
CONTINUOUS
 62
     7
 10
232.0321346866
 20
247.1922145986
 30
0.0
  0
VERTEX
  5
2E4
  8
0
  6
CONTINUOUS
 62
     7
 10
231.7668224918
 20
246.8372033739
 30
0.0
  0
VERTEX
  5
2E5
  8
0
  6
CONTINUOUS
 62
     7
 10
231.3578213798
 20
246.4054571294
 30
0.0
  0
VERTEX
  5
2E6
  8
0
  6
CONTINUOUS
 62
     7
 10
230.7994033443
 20
245.9035204553
 30
0.0
  0
VERTEX
  5
2E7
  8
0
  6
CONTINUOUS
 62
     7
 10
230.0634469139
 20
245.3480409288
 30
0.0
  0
VERTEX
  5
2E8
  8
0
  6
CONTINUOUS
 62
     7
 10
229.161366378
 20
244.7998391294
 30
0.0
  0
VERTEX
  5
2E9
  8
0
  6
CONTINUOUS
 62
     7
 10
228.2949890243
 20
244.3920122289
 30
0.0
  0
VERTEX
  5
2EA
  8
0
  6
CONTINUOUS
 62
     7
 10
227.3113097297
 20
244.0545307302
 30
0.0
  0
VERTEX
  5
2EB
  8
0
  6
CONTINUOUS
 62
     7
 10
226.6862477409
 20
243.9042614603
 30
0.0
  0
VERTEX
  5
2EC
  8
0
  6
CONTINUOUS
 62
     7
 10
226.0324384319
 20
243.7978075647
 30
0.0
  0
SEQEND
  5
521
  8
0
  6
CONTINUOUS
 62
     7
  0
POLYLINE
  5
7E
  8
0
  6
CONTINUOUS
 62
     7
 66
     1
 10
0.0
 20
0.0
 30
0.0
  0
VERTEX
  5
2ED
  8
0
  6
CONTINUOUS
 62
     7
 10
232.1200098144
 20
247.4463032388
 30
0.0
  0
VERTEX
  5
2EE
  8
0
  6
CONTINUOUS
 62
     7
 10
232.120003854
 20
247.5010918283
 30
0.0
  0
VERTEX
  5
2EF
  8
0
  6
CONTINUOUS
 62
     7
 10
232.1197892772
 20
247.7937863969
 30
0.0
  0
VERTEX
  5
2F0
  8
0
  6
CONTINUOUS
 62
     7
 10
232.1193124401
 20
247.9164944791
 30
0.0
  0
VERTEX
  5
2F1
  8
0
  6
CONTINUOUS
 62
     7
 10
232.1189667331
 20
247.9301260614
 30
0.0
  0
VERTEX
  5
2F2
  8
0
  6
CONTINUOUS
 62
     7
 10
232.1192111122
 20
247.9172693395
 30
0.0
  0
SEQEND
  5
520
  8
0
  6
CONTINUOUS
 62
     7
  0
POLYLINE
  5
7F
  8
0
  6
CONTINUOUS
 62
     7
 66
     1
 10
0.0
 20
0.0
 30
0.0
  0
VERTEX
  5
2F3
  8
0
  6
CONTINUOUS
 62
     7
 10
232.1199382888
 20
248.2137011194
 30
0.0
  0
VERTEX
  5
2F4
  8
0
  6
CONTINUOUS
 62
     7
 10
232.1052278625
 20
248.1659399175
 30
0.0
  0
VERTEX
  5
2F5
  8
0
  6
CONTINUOUS
 62
     7
 10
232.1199382888
 20
248.0391429567
 30
0.0
  0
SEQEND
  5
51F
  8
0
  6
CONTINUOUS
 62
     7
  0
POLYLINE
  5
80
  8
0
  6
CONTINUOUS
 62
     7
 66
     1
 10
0.0
 20
0.0
 30
0.0
  0
VERTEX
  5
2F6
  8
0
  6
CONTINUOUS
 62
     7
 10
156.9199334132
 20
248.0391429567
 30
0.0
  0
VERTEX
  5
2F7
  8
0
  6
CONTINUOUS
 62
     7
 10
156.9346468197
 20
248.1659399175
 30
0.0
  0
VERTEX
  5
2F8
  8
0
  6
CONTINUOUS
 62
     7
 10
156.9199378835
 20
248.2137011194
 30
0.0
  0
SEQEND
  5
51E
  8
0
  6
CONTINUOUS
 62
     7
  0
POLYLINE
  5
81
  8
0
  6
CONTINUOUS
 62
     7
 66
     1
 10
0.0
 20
0.0
 30
0.0
  0
VERTEX
  5
2F9
  8
0
  6
CONTINUOUS
 62
     7
 10
156.919866358
 20
247.4464820528
 30
0.0
  0
VERTEX
  5
2FA
  8
0
  6
CONTINUOUS
 62
     7
 10
156.919866358
 20
247.4511788988
 30
0.0
  0
VERTEX
  5
2FB
  8
0
  6
CONTINUOUS
 62
     7
 10
156.9200362312
 20
247.7696763181
 30
0.0
  0
VERTEX
  5
2FC
  8
0
  6
CONTINUOUS
 62
     7
 10
156.9205011474
 20
247.9089187288
 30
0.0
  0
VERTEX
  5
2FD
  8
0
  6
CONTINUOUS
 62
     7
 10
156.9208870875
 20
247.9322837495
 30
0.0
  0
VERTEX
  5
2FE
  8
0
  6
CONTINUOUS
 62
     7
 10
156.9208349334
 20
247.9148732328
 30
0.0
  0
SEQEND
  5
51D
  8
0
  6
CONTINUOUS
 62
     7
  0
POLYLINE
  5
82
  8
0
  6
CONTINUOUS
 62
     7
 66
     1
 10
0.0
 20
0.0
 30
0.0
  0
VERTEX
  5
2FF
  8
0
  6
CONTINUOUS
 62
     7
 10
163.0074377405
 20
243.7978075647
 30
0.0
  0
VERTEX
  5
300
  8
0
  6
CONTINUOUS
 62
     7
 10
161.9933898794
 20
243.9849721098
 30
0.0
  0
VERTEX
  5
301
  8
0
  6
CONTINUOUS
 62
     7
 10
161.008083378
 20
244.2891524934
 30
0.0
  0
VERTEX
  5
302
  8
0
  6
CONTINUOUS
 62
     7
 10
160.1392443525
 20
244.6655439043
 30
0.0
  0
VERTEX
  5
303
  8
0
  6
CONTINUOUS
 62
     7
 10
159.3459735858
 20
245.1071129942
 30
0.0
  0
VERTEX
  5
304
  8
0
  6
CONTINUOUS
 62
     7
 10
158.5885013687
 20
245.6274794244
 30
0.0
  0
VERTEX
  5
305
  8
0
  6
CONTINUOUS
 62
     7
 10
157.947207545
 20
246.1570368909
 30
0.0
  0
VERTEX
  5
306
  8
0
  6
CONTINUOUS
 62
     7
 10
157.4009712087
 20
246.6940449381
 30
0.0
  0
VERTEX
  5
307
  8
0
  6
CONTINUOUS
 62
     7
 10
157.1928288089
 20
246.9326661729
 30
0.0
  0
VERTEX
  5
308
  8
0
  6
CONTINUOUS
 62
     7
 10
157.0407147752
 20
247.1386955881
 30
0.0
  0
VERTEX
  5
309
  8
0
  6
CONTINUOUS
 62
     7
 10
156.919866358
 20
247.4464820528
 30
0.0
  0
SEQEND
  5
51C
  8
0
  6
CONTINUOUS
 62
     7
  0
POLYLINE
  5
83
  8
0
  6
CONTINUOUS
 62
     7
 66
     1
 10
0.0
 20
0.0
 30
0.0
  0
VERTEX
  5
30A
  8
0
  6
CONTINUOUS
 62
     7
 10
226.0324384319
 20
243.7978075647
 30
0.0
  0
VERTEX
  5
30B
  8
0
  6
CONTINUOUS
 62
     7
 10
218.943109666
 20
242.9968939924
 30
0.0
  0
VERTEX
  5
30C
  8
0
  6
CONTINUOUS
 62
     7
 10
211.8260408985
 20
242.3694537782
 30
0.0
  0
VERTEX
  5
30D
  8
0
  6
CONTINUOUS
 62
     7
 10
204.6531344997
 20
241.9428871774
 30
0.0
  0
VERTEX
  5
30E
  8
0
  6
CONTINUOUS
 62
     7
 10
197.4662090885
 20
241.7356716299
 30
0.0
  0
VERTEX
  5
30F
  8
0
  6
CONTINUOUS
 62
     7
 10
192.4031759845
 20
241.7264746332
 30
0.0
  0
VERTEX
  5
310
  8
0
  6
CONTINUOUS
 62
     7
 10
187.3416508781
 20
241.8301449918
 30
0.0
  0
VERTEX
  5
311
  8
0
  6
CONTINUOUS
 62
     7
 10
182.2709824192
 20
242.0460806989
 30
0.0
  0
VERTEX
  5
312
  8
0
  6
CONTINUOUS
 62
     7
 10
177.2087062942
 20
242.369835248
 30
0.0
  0
VERTEX
  5
313
  8
0
  6
CONTINUOUS
 62
     7
 10
170.0978244888
 20
242.9963873529
 30
0.0
  0
VERTEX
  5
314
  8
0
  6
CONTINUOUS
 62
     7
 10
163.0074377405
 20
243.7978075647
 30
0.0
  0
SEQEND
  5
51B
  8
0
  6
CONTINUOUS
 62
     7
  0
POLYLINE
  5
84
  8
0
  6
CONTINUOUS
 62
     7
 66
     1
 10
0.0
 20
0.0
 30
0.0
  0
VERTEX
  5
315
  8
0
  6
CONTINUOUS
 62
     7
 10
163.1873364793
 20
249.1303788328
 30
0.0
  0
VERTEX
  5
316
  8
0
  6
CONTINUOUS
 62
     7
 10
162.1808643686
 20
249.3480251932
 30
0.0
  0
VERTEX
  5
317
  8
0
  6
CONTINUOUS
 62
     7
 10
161.2562681781
 20
249.5378361845
 30
0.0
  0
VERTEX
  5
318
  8
0
  6
CONTINUOUS
 62
     7
 10
160.4887779104
 20
249.6758090162
 30
0.0
  0
VERTEX
  5
319
  8
0
  6
CONTINUOUS
 62
     7
 10
159.8532970297
 20
249.759732356
 30
0.0
  0
VERTEX
  5
31A
  8
0
  6
CONTINUOUS
 62
     7
 10
159.5515663969
 20
249.7804866933
 30
0.0
  0
VERTEX
  5
31B
  8
0
  6
CONTINUOUS
 62
     7
 10
159.3135754811
 20
249.7790621423
 30
0.0
  0
SEQEND
  5
51A
  8
0
  6
CONTINUOUS
 62
     7
  0
ARC
  5
85
  8
0
  6
CONTINUOUS
 62
     7
 10
194.4037719184
 20
388.3634314156
 30
0.0
 40
142.6895538329345
 50
257.3631010656
 51
260.3830639281
  0
ARC
  5
86
  8
0
  6
CONTINUOUS
 62
     7
 10
193.9180047919
 20
391.9940158863
 30
0.0
 40
146.3893210296548
 50
279.6013645076
 51
282.6002782923
  0
POLYLINE
  5
87
  8
0
  6
CONTINUOUS
 62
     7
 66
     1
 10
0.0
 20
0.0
 30
0.0
  0
VERTEX
  5
31C
  8
0
  6
CONTINUOUS
 62
     7
 10
229.7262992012
 20
249.7790621423
 30
0.0
  0
VERTEX
  5
31D
  8
0
  6
CONTINUOUS
 62
     7
 10
229.3072129833
 20
249.7701512479
 30
0.0
  0
VERTEX
  5
31E
  8
0
  6
CONTINUOUS
 62
     7
 10
228.697582637
 20
249.6984349393
 30
0.0
  0
VERTEX
  5
31F
  8
0
  6
CONTINUOUS
 62
     7
 10
227.9463376152
 20
249.5691763067
 30
0.0
  0
VERTEX
  5
320
  8
0
  6
CONTINUOUS
 62
     7
 10
227.0289625274
 20
249.3839846754
 30
0.0
  0
VERTEX
  5
321
  8
0
  6
CONTINUOUS
 62
     7
 10
225.852539693
 20
249.1303788328
 30
0.0
  0
SEQEND
  5
519
  8
0
  6
CONTINUOUS
 62
     7
  0
POLYLINE
  5
88
  8
0
  6
CONTINUOUS
 62
     7
 66
     1
 10
0.0
 20
0.0
 30
0.0
  0
VERTEX
  5
322
  8
0
  6
CONTINUOUS
 62
     7
 10
229.7262813198
 20
249.7791396284
 30
0.0
  0
VERTEX
  5
323
  8
0
  6
CONTINUOUS
 62
     7
 10
230.6433464634
 20
249.724327197
 30
0.0
  0
VERTEX
  5
324
  8
0
  6
CONTINUOUS
 62
     7
 10
231.2445189106
 20
249.6697889471
 30
0.0
  0
VERTEX
  5
325
  8
0
  6
CONTINUOUS
 62
     7
 10
231.6020454513
 20
249.6140586042
 30
0.0
  0
VERTEX
  5
326
  8
0
  6
CONTINUOUS
 62
     7
 10
231.8168009864
 20
249.5574461126
 30
0.0
  0
VERTEX
  5
327
  8
0
  6
CONTINUOUS
 62
     7
 10
231.8985487568
 20
249.4990156793
 30
0.0
  0
VERTEX
  5
328
  8
0
  6
CONTINUOUS
 62
     7
 10
231.8953837501
 20
249.4414614343
 30
0.0
  0
VERTEX
  5
329
  8
0
  6
CONTINUOUS
 62
     7
 10
231.8682815181
 20
249.3886099958
 30
0.0
  0
VERTEX
  5
32A
  8
0
  6
CONTINUOUS
 62
     7
 10
231.86612383
 20
249.3417488241
 30
0.0
  0
VERTEX
  5
32B
  8
0
  6
CONTINUOUS
 62
     7
 10
231.9130624878
 20
249.233453145
 30
0.0
  0
VERTEX
  5
32C
  8
0
  6
CONTINUOUS
 62
     7
 10
231.9222952472
 20
249.1918967867
 30
0.0
  0
SEQEND
  5
518
  8
0
  6
CONTINUOUS
 62
     7
  0
ARC
  5
89
  8
0
  6
CONTINUOUS
 62
     7
 10
227.0719318468
 20
248.3626819212
 30
0.0
 40
4.949505315899234
 50
3.5875281047
 51
8.4264629008
  0
POLYLINE
  5
8A
  8
0
  6
CONTINUOUS
 62
     7
 66
     1
 10
0.0
 20
0.0
 30
0.0
  0
VERTEX
  5
32D
  8
0
  6
CONTINUOUS
 62
     7
 10
225.9230996715
 20
245.294557681
 30
0.0
  0
VERTEX
  5
32E
  8
0
  6
CONTINUOUS
 62
     7
 10
226.9467975246
 20
245.4734848642
 30
0.0
  0
VERTEX
  5
32F
  8
0
  6
CONTINUOUS
 62
     7
 10
227.9427732574
 20
245.7642661237
 30
0.0
  0
VERTEX
  5
330
  8
0
  6
CONTINUOUS
 62
     7
 10
228.8230265724
 20
246.123211255
 30
0.0
  0
VERTEX
  5
331
  8
0
  6
CONTINUOUS
 62
     7
 10
229.6276594745
 20
246.5420173311
 30
0.0
  0
VERTEX
  5
332
  8
0
  6
CONTINUOUS
 62
     7
 10
230.3873802768
 20
247.0257209444
 30
0.0
  0
VERTEX
  5
333
  8
0
  6
CONTINUOUS
 62
     7
 10
231.0287798988
 20
247.5122975015
 30
0.0
  0
VERTEX
  5
334
  8
0
  6
CONTINUOUS
 62
     7
 10
231.5565015422
 20
247.9855941438
 30
0.0
  0
VERTEX
  5
335
  8
0
  6
CONTINUOUS
 62
     7
 10
231.8997348892
 20
248.3787225389
 30
0.0
  0
VERTEX
  5
336
  8
0
  6
CONTINUOUS
 62
     7
 10
231.9878126728
 20
248.5393868589
 30
0.0
  0
VERTEX
  5
337
  8
0
  6
CONTINUOUS
 62
     7
 10
232.0117379772
 20
248.6723827028
 30
0.0
  0
SEQEND
  5
517
  8
0
  6
CONTINUOUS
 62
     7
  0
POLYLINE
  5
8B
  8
0
  6
CONTINUOUS
 62
     7
 66
     1
 10
0.0
 20
0.0
 30
0.0
  0
VERTEX
  5
338
  8
0
  6
CONTINUOUS
 62
     7
 10
225.9230996715
 20
245.294557681
 30
0.0
  0
VERTEX
  5
339
  8
0
  6
CONTINUOUS
 62
     7
 10
220.5722774612
 20
244.70796453
 30
0.0
  0
VERTEX
  5
33A
  8
0
  6
CONTINUOUS
 62
     7
 10
215.2061189758
 20
244.2099617624
 30
0.0
  0
VERTEX
  5
33B
  8
0
  6
CONTINUOUS
 62
     7
 10
209.8138655769
 20
243.8128100538
 30
0.0
  0
VERTEX
  5
33C
  8
0
  6
CONTINUOUS
 62
     7
 10
204.4107700931
 20
243.5278283262
 30
0.0
  0
VERTEX
  5
33D
  8
0
  6
CONTINUOUS
 62
     7
 10
198.5092784511
 20
243.3541642332
 30
0.0
  0
VERTEX
  5
33E
  8
0
  6
CONTINUOUS
 62
     7
 10
192.6041330444
 20
243.3278309011
 30
0.0
  0
VERTEX
  5
33F
  8
0
  6
CONTINUOUS
 62
     7
 10
186.6789664375
 20
243.4511052274
 30
0.0
  0
VERTEX
  5
340
  8
0
  6
CONTINUOUS
 62
     7
 10
180.7609225856
 20
243.7198744917
 30
0.0
  0
VERTEX
  5
341
  8
0
  6
CONTINUOUS
 62
     7
 10
176.3396377908
 20
244.0118895673
 30
0.0
  0
VERTEX
  5
342
  8
0
  6
CONTINUOUS
 62
     7
 10
171.9266946661
 20
244.3757878446
 30
0.0
  0
VERTEX
  5
343
  8
0
  6
CONTINUOUS
 62
     7
 10
167.5164516317
 20
244.8060082101
 30
0.0
  0
VERTEX
  5
344
  8
0
  6
CONTINUOUS
 62
     7
 10
163.1167735206
 20
245.294557681
 30
0.0
  0
SEQEND
  5
516
  8
0
  6
CONTINUOUS
 62
     7
  0
POLYLINE
  5
8C
  8
0
  6
CONTINUOUS
 62
     7
 66
     1
 10
0.0
 20
0.0
 30
0.0
  0
VERTEX
  5
345
  8
0
  6
CONTINUOUS
 62
     7
 10
157.0281337248
 20
248.6723827028
 30
0.0
  0
VERTEX
  5
346
  8
0
  6
CONTINUOUS
 62
     7
 10
157.102475618
 20
248.4377251768
 30
0.0
  0
VERTEX
  5
347
  8
0
  6
CONTINUOUS
 62
     7
 10
157.3597188341
 20
248.1123195791
 30
0.0
  0
VERTEX
  5
348
  8
0
  6
CONTINUOUS
 62
     7
 10
157.7694709646
 20
247.718690505
 30
0.0
  0
VERTEX
  5
349
  8
0
  6
CONTINUOUS
 62
     7
 10
158.3372320282
 20
247.2548710012
 30
0.0
  0
VERTEX
  5
34A
  8
0
  6
CONTINUOUS
 62
     7
 10
159.0699563967
 20
246.7486308717
 30
0.0
  0
VERTEX
  5
34B
  8
0
  6
CONTINUOUS
 62
     7
 10
159.9661494838
 20
246.24402987
 30
0.0
  0
VERTEX
  5
34C
  8
0
  6
CONTINUOUS
 62
     7
 10
160.8462657081
 20
245.8564864301
 30
0.0
  0
VERTEX
  5
34D
  8
0
  6
CONTINUOUS
 62
     7
 10
161.8439997779
 20
245.5351637506
 30
0.0
  0
VERTEX
  5
34E
  8
0
  6
CONTINUOUS
 62
     7
 10
162.4668087112
 20
245.394395461
 30
0.0
  0
VERTEX
  5
34F
  8
0
  6
CONTINUOUS
 62
     7
 10
163.1167735206
 20
245.294557681
 30
0.0
  0
SEQEND
  5
515
  8
0
  6
CONTINUOUS
 62
     7
  0
POLYLINE
  5
8D
  8
0
  6
CONTINUOUS
 62
     7
 66
     1
 10
0.0
 20
0.0
 30
0.0
  0
VERTEX
  5
350
  8
0
  6
CONTINUOUS
 62
     7
 10
157.0281337248
 20
248.6723886633
 30
0.0
  0
VERTEX
  5
351
  8
0
  6
CONTINUOUS
 62
     7
 10
157.0564518916
 20
248.9687250757
 30
0.0
  0
VERTEX
  5
352
  8
0
  6
CONTINUOUS
 62
     7
 10
157.0722784149
 20
249.0934001112
 30
0.0
  0
SEQEND
  5
514
  8
0
  6
CONTINUOUS
 62
     7
  0
POLYLINE
  5
8E
  8
0
  6
CONTINUOUS
 62
     7
 66
     1
 10
0.0
 20
0.0
 30
0.0
  0
VERTEX
  5
353
  8
0
  6
CONTINUOUS
 62
     7
 10
157.1176479804
 20
249.1913901472
 30
0.0
  0
VERTEX
  5
354
  8
0
  6
CONTINUOUS
 62
     7
 10
157.1277584182
 20
249.2360340261
 30
0.0
  0
VERTEX
  5
355
  8
0
  6
CONTINUOUS
 62
     7
 10
157.1737493621
 20
249.3417488241
 30
0.0
  0
VERTEX
  5
356
  8
0
  6
CONTINUOUS
 62
     7
 10
157.171591674
 20
249.3886099958
 30
0.0
  0
VERTEX
  5
357
  8
0
  6
CONTINUOUS
 62
     7
 10
157.1444909321
 20
249.4414614343
 30
0.0
  0
VERTEX
  5
358
  8
0
  6
CONTINUOUS
 62
     7
 10
157.1413259255
 20
249.4990156793
 30
0.0
  0
VERTEX
  5
359
  8
0
  6
CONTINUOUS
 62
     7
 10
157.2230722057
 20
249.5574461126
 30
0.0
  0
VERTEX
  5
35A
  8
0
  6
CONTINUOUS
 62
     7
 10
157.4378307211
 20
249.6140586042
 30
0.0
  0
VERTEX
  5
35B
  8
0
  6
CONTINUOUS
 62
     7
 10
157.7953527915
 20
249.6697889471
 30
0.0
  0
VERTEX
  5
35C
  8
0
  6
CONTINUOUS
 62
     7
 10
158.3965267288
 20
249.724327197
 30
0.0
  0
VERTEX
  5
35D
  8
0
  6
CONTINUOUS
 62
     7
 10
159.3135933625
 20
249.7791396284
 30
0.0
  0
SEQEND
  5
513
  8
0
  6
CONTINUOUS
 62
     7
  0
LINE
  5
8F
  8
0
  6
CONTINUOUS
 62
     7
 10
232.1199382888
 20
248.2141898775
 30
0.0
 11
232.1199382888
 21
248.5198901796
 31
0.0
  0
LINE
  5
90
  8
0
  6
CONTINUOUS
 62
     7
 10
156.9199378835
 20
248.0391429567
 30
0.0
 11
156.9199378835
 21
247.8646801614
 31
0.0
  0
LINE
  5
91
  8
0
  6
CONTINUOUS
 62
     7
 10
156.9199378835
 20
248.5096977853
 30
0.0
 11
156.9199378835
 21
248.2141898775
 31
0.0
  0
POLYLINE
  5
92
  8
0
  6
CONTINUOUS
 62
     7
 66
     1
 10
0.0
 20
0.0
 30
0.0
  0
VERTEX
  5
35E
  8
0
  6
CONTINUOUS
 62
     7
 10
112.1200080263
 20
247.4463032388
 30
0.0
  0
VERTEX
  5
35F
  8
0
  6
CONTINUOUS
 62
     7
 10
112.0321343886
 20
247.1922145986
 30
0.0
  0
VERTEX
  5
360
  8
0
  6
CONTINUOUS
 62
     7
 10
111.7668207037
 20
246.8372033739
 30
0.0
  0
VERTEX
  5
361
  8
0
  6
CONTINUOUS
 62
     7
 10
111.3578210818
 20
246.4054571294
 30
0.0
  0
VERTEX
  5
362
  8
0
  6
CONTINUOUS
 62
     7
 10
110.7994060265
 20
245.9035204553
 30
0.0
  0
VERTEX
  5
363
  8
0
  6
CONTINUOUS
 62
     7
 10
110.0634451257
 20
245.3480409288
 30
0.0
  0
VERTEX
  5
364
  8
0
  6
CONTINUOUS
 62
     7
 10
109.1613675701
 20
244.7998391294
 30
0.0
  0
VERTEX
  5
365
  8
0
  6
CONTINUOUS
 62
     7
 10
108.2949872362
 20
244.3920122289
 30
0.0
  0
VERTEX
  5
366
  8
0
  6
CONTINUOUS
 62
     7
 10
107.3113139021
 20
244.0545307302
 30
0.0
  0
VERTEX
  5
367
  8
0
  6
CONTINUOUS
 62
     7
 10
106.6862459528
 20
243.9042614603
 30
0.0
  0
VERTEX
  5
368
  8
0
  6
CONTINUOUS
 62
     7
 10
106.0324366438
 20
243.7978075647
 30
0.0
  0
SEQEND
  5
512
  8
0
  6
CONTINUOUS
 62
     7
  0
POLYLINE
  5
93
  8
0
  6
CONTINUOUS
 62
     7
 66
     1
 10
0.0
 20
0.0
 30
0.0
  0
VERTEX
  5
369
  8
0
  6
CONTINUOUS
 62
     7
 10
112.1200080263
 20
247.4463032388
 30
0.0
  0
VERTEX
  5
36A
  8
0
  6
CONTINUOUS
 62
     7
 10
112.1200065362
 20
247.5010918283
 30
0.0
  0
VERTEX
  5
36B
  8
0
  6
CONTINUOUS
 62
     7
 10
112.1197919594
 20
247.7937863969
 30
0.0
  0
VERTEX
  5
36C
  8
0
  6
CONTINUOUS
 62
     7
 10
112.1193151223
 20
247.9164944791
 30
0.0
  0
VERTEX
  5
36D
  8
0
  6
CONTINUOUS
 62
     7
 10
112.118964945
 20
247.9301260614
 30
0.0
  0
VERTEX
  5
36E
  8
0
  6
CONTINUOUS
 62
     7
 10
112.1192108142
 20
247.9172693395
 30
0.0
  0
SEQEND
  5
511
  8
0
  6
CONTINUOUS
 62
     7
  0
POLYLINE
  5
94
  8
0
  6
CONTINUOUS
 62
     7
 66
     1
 10
0.0
 20
0.0
 30
0.0
  0
VERTEX
  5
36F
  8
0
  6
CONTINUOUS
 62
     7
 10
112.1199365007
 20
248.2137011194
 30
0.0
  0
VERTEX
  5
370
  8
0
  6
CONTINUOUS
 62
     7
 10
112.1052275645
 20
248.1659399175
 30
0.0
  0
VERTEX
  5
371
  8
0
  6
CONTINUOUS
 62
     7
 10
112.1199409711
 20
248.0391429567
 30
0.0
  0
SEQEND
  5
510
  8
0
  6
CONTINUOUS
 62
     7
  0
POLYLINE
  5
95
  8
0
  6
CONTINUOUS
 62
     7
 66
     1
 10
0.0
 20
0.0
 30
0.0
  0
VERTEX
  5
372
  8
0
  6
CONTINUOUS
 62
     7
 10
36.9199360954
 20
248.0391429567
 30
0.0
  0
VERTEX
  5
373
  8
0
  6
CONTINUOUS
 62
     7
 10
36.9346465217
 20
248.1659399175
 30
0.0
  0
VERTEX
  5
374
  8
0
  6
CONTINUOUS
 62
     7
 10
36.9199360954
 20
248.2137011194
 30
0.0
  0
SEQEND
  5
50F
  8
0
  6
CONTINUOUS
 62
     7
  0
POLYLINE
  5
96
  8
0
  6
CONTINUOUS
 62
     7
 66
     1
 10
0.0
 20
0.0
 30
0.0
  0
VERTEX
  5
375
  8
0
  6
CONTINUOUS
 62
     7
 10
36.9198645698
 20
247.4464820528
 30
0.0
  0
VERTEX
  5
376
  8
0
  6
CONTINUOUS
 62
     7
 10
36.9198645698
 20
247.4511788988
 30
0.0
  0
VERTEX
  5
377
  8
0
  6
CONTINUOUS
 62
     7
 10
36.9200374233
 20
247.7696763181
 30
0.0
  0
VERTEX
  5
378
  8
0
  6
CONTINUOUS
 62
     7
 10
36.9205023395
 20
247.9089187288
 30
0.0
  0
VERTEX
  5
379
  8
0
  6
CONTINUOUS
 62
     7
 10
36.9208897697
 20
247.9322837495
 30
0.0
  0
VERTEX
  5
37A
  8
0
  6
CONTINUOUS
 62
     7
 10
36.9208361255
 20
247.9148732328
 30
0.0
  0
SEQEND
  5
50E
  8
0
  6
CONTINUOUS
 62
     7
  0
POLYLINE
  5
97
  8
0
  6
CONTINUOUS
 62
     7
 66
     1
 10
0.0
 20
0.0
 30
0.0
  0
VERTEX
  5
37B
  8
0
  6
CONTINUOUS
 62
     7
 10
43.0074359523
 20
243.7978075647
 30
0.0
  0
VERTEX
  5
37C
  8
0
  6
CONTINUOUS
 62
     7
 10
41.9933880912
 20
243.9849721098
 30
0.0
  0
VERTEX
  5
37D
  8
0
  6
CONTINUOUS
 62
     7
 10
41.0080815899
 20
244.2891524934
 30
0.0
  0
VERTEX
  5
37E
  8
0
  6
CONTINUOUS
 62
     7
 10
40.1392425644
 20
244.6655439043
 30
0.0
  0
VERTEX
  5
37F
  8
0
  6
CONTINUOUS
 62
     7
 10
39.3459703075
 20
245.1071129942
 30
0.0
  0
VERTEX
  5
380
  8
0
  6
CONTINUOUS
 62
     7
 10
38.5885025608
 20
245.6274794244
 30
0.0
  0
VERTEX
  5
381
  8
0
  6
CONTINUOUS
 62
     7
 10
37.9472102272
 20
246.1570368909
 30
0.0
  0
VERTEX
  5
382
  8
0
  6
CONTINUOUS
 62
     7
 10
37.4009694206
 20
246.6940449381
 30
0.0
  0
VERTEX
  5
383
  8
0
  6
CONTINUOUS
 62
     7
 10
37.192830001
 20
246.9326661729
 30
0.0
  0
VERTEX
  5
384
  8
0
  6
CONTINUOUS
 62
     7
 10
37.0407129871
 20
247.1386955881
 30
0.0
  0
VERTEX
  5
385
  8
0
  6
CONTINUOUS
 62
     7
 10
36.9198645698
 20
247.4464820528
 30
0.0
  0
SEQEND
  5
50D
  8
0
  6
CONTINUOUS
 62
     7
  0
POLYLINE
  5
98
  8
0
  6
CONTINUOUS
 62
     7
 66
     1
 10
0.0
 20
0.0
 30
0.0
  0
VERTEX
  5
386
  8
0
  6
CONTINUOUS
 62
     7
 10
106.0324366438
 20
243.7978075647
 30
0.0
  0
VERTEX
  5
387
  8
0
  6
CONTINUOUS
 62
     7
 10
98.9431078779
 20
242.9968939924
 30
0.0
  0
VERTEX
  5
388
  8
0
  6
CONTINUOUS
 62
     7
 10
91.8260420906
 20
242.3694537782
 30
0.0
  0
VERTEX
  5
389
  8
0
  6
CONTINUOUS
 62
     7
 10
84.6531356918
 20
241.9428871774
 30
0.0
  0
VERTEX
  5
38A
  8
0
  6
CONTINUOUS
 62
     7
 10
77.4662102806
 20
241.7356716299
 30
0.0
  0
VERTEX
  5
38B
  8
0
  6
CONTINUOUS
 62
     7
 10
72.4031771766
 20
241.7264746332
 30
0.0
  0
VERTEX
  5
38C
  8
0
  6
CONTINUOUS
 62
     7
 10
67.3416461097
 20
241.8301449918
 30
0.0
  0
VERTEX
  5
38D
  8
0
  6
CONTINUOUS
 62
     7
 10
62.2709836113
 20
242.0460806989
 30
0.0
  0
VERTEX
  5
38E
  8
0
  6
CONTINUOUS
 62
     7
 10
57.2087074863
 20
242.369835248
 30
0.0
  0
VERTEX
  5
38F
  8
0
  6
CONTINUOUS
 62
     7
 10
50.0978256809
 20
242.9963873529
 30
0.0
  0
VERTEX
  5
390
  8
0
  6
CONTINUOUS
 62
     7
 10
43.0074359523
 20
243.7978075647
 30
0.0
  0
SEQEND
  5
50C
  8
0
  6
CONTINUOUS
 62
     7
  0
POLYLINE
  5
99
  8
0
  6
CONTINUOUS
 62
     7
 66
     1
 10
0.0
 20
0.0
 30
0.0
  0
VERTEX
  5
391
  8
0
  6
CONTINUOUS
 62
     7
 10
43.1873346912
 20
249.1303788328
 30
0.0
  0
VERTEX
  5
392
  8
0
  6
CONTINUOUS
 62
     7
 10
42.1808625805
 20
249.3480251932
 30
0.0
  0
VERTEX
  5
393
  8
0
  6
CONTINUOUS
 62
     7
 10
41.2562693702
 20
249.5378361845
 30
0.0
  0
VERTEX
  5
394
  8
0
  6
CONTINUOUS
 62
     7
 10
40.4887761222
 20
249.6758090162
 30
0.0
  0
VERTEX
  5
395
  8
0
  6
CONTINUOUS
 62
     7
 10
39.8532952415
 20
249.759732356
 30
0.0
  0
VERTEX
  5
396
  8
0
  6
CONTINUOUS
 62
     7
 10
39.5515646087
 20
249.7804866933
 30
0.0
  0
VERTEX
  5
397
  8
0
  6
CONTINUOUS
 62
     7
 10
39.3135751831
 20
249.7790621423
 30
0.0
  0
SEQEND
  5
50B
  8
0
  6
CONTINUOUS
 62
     7
  0
ARC
  5
9A
  8
0
  6
CONTINUOUS
 62
     7
 10
74.403988993
 20
388.3645442008
 30
0.0
 40
142.6906875431317
 50
257.3631130655
 51
260.3830519281
  0
ARC
  5
9B
  8
0
  6
CONTINUOUS
 62
     7
 10
73.9181961082
 20
391.9930316997
 30
0.0
 40
146.3883184210738
 50
279.6013542355
 51
282.6002885644
  0
POLYLINE
  5
9C
  8
0
  6
CONTINUOUS
 62
     7
 66
     1
 10
0.0
 20
0.0
 30
0.0
  0
VERTEX
  5
398
  8
0
  6
CONTINUOUS
 62
     7
 10
109.7262989031
 20
249.7790621423
 30
0.0
  0
VERTEX
  5
399
  8
0
  6
CONTINUOUS
 62
     7
 10
109.3072111951
 20
249.7701512479
 30
0.0
  0
VERTEX
  5
39A
  8
0
  6
CONTINUOUS
 62
     7
 10
108.6975808488
 20
249.6984349393
 30
0.0
  0
VERTEX
  5
39B
  8
0
  6
CONTINUOUS
 62
     7
 10
107.946335827
 20
249.5691763067
 30
0.0
  0
VERTEX
  5
39C
  8
0
  6
CONTINUOUS
 62
     7
 10
107.0289607393
 20
249.3839846754
 30
0.0
  0
VERTEX
  5
39D
  8
0
  6
CONTINUOUS
 62
     7
 10
105.8525379049
 20
249.1303788328
 30
0.0
  0
SEQEND
  5
50A
  8
0
  6
CONTINUOUS
 62
     7
  0
POLYLINE
  5
9D
  8
0
  6
CONTINUOUS
 62
     7
 66
     1
 10
0.0
 20
0.0
 30
0.0
  0
VERTEX
  5
39E
  8
0
  6
CONTINUOUS
 62
     7
 10
109.7262810218
 20
249.7791396284
 30
0.0
  0
VERTEX
  5
39F
  8
0
  6
CONTINUOUS
 62
     7
 10
110.6433476555
 20
249.724327197
 30
0.0
  0
VERTEX
  5
3A0
  8
0
  6
CONTINUOUS
 62
     7
 10
111.2445215928
 20
249.6697889471
 30
0.0
  0
VERTEX
  5
3A1
  8
0
  6
CONTINUOUS
 62
     7
 10
111.6020436632
 20
249.6140586042
 30
0.0
  0
VERTEX
  5
3A2
  8
0
  6
CONTINUOUS
 62
     7
 10
111.8168021785
 20
249.5574461126
 30
0.0
  0
VERTEX
  5
3A3
  8
0
  6
CONTINUOUS
 62
     7
 10
111.8985484587
 20
249.4990156793
 30
0.0
  0
VERTEX
  5
3A4
  8
0
  6
CONTINUOUS
 62
     7
 10
111.8953834521
 20
249.4414614343
 30
0.0
  0
VERTEX
  5
3A5
  8
0
  6
CONTINUOUS
 62
     7
 10
111.8682827102
 20
249.3886099958
 30
0.0
  0
VERTEX
  5
3A6
  8
0
  6
CONTINUOUS
 62
     7
 10
111.8661250221
 20
249.3417488241
 30
0.0
  0
VERTEX
  5
3A7
  8
0
  6
CONTINUOUS
 62
     7
 10
111.9130621897
 20
249.233453145
 30
0.0
  0
VERTEX
  5
3A8
  8
0
  6
CONTINUOUS
 62
     7
 10
111.9222964393
 20
249.1918967867
 30
0.0
  0
SEQEND
  5
509
  8
0
  6
CONTINUOUS
 62
     7
  0
ARC
  5
9E
  8
0
  6
CONTINUOUS
 62
     7
 10
107.0759105301
 20
248.3630476845
 30
0.0
 40
4.945514220572344
 50
3.5861812415
 51
8.4290288726
  0
POLYLINE
  5
9F
  8
0
  6
CONTINUOUS
 62
     7
 66
     1
 10
0.0
 20
0.0
 30
0.0
  0
VERTEX
  5
3A9
  8
0
  6
CONTINUOUS
 62
     7
 10
105.9231008636
 20
245.294557681
 30
0.0
  0
VERTEX
  5
3AA
  8
0
  6
CONTINUOUS
 62
     7
 10
106.9467957365
 20
245.4734848642
 30
0.0
  0
VERTEX
  5
3AB
  8
0
  6
CONTINUOUS
 62
     7
 10
107.9427744495
 20
245.7642661237
 30
0.0
  0
VERTEX
  5
3AC
  8
0
  6
CONTINUOUS
 62
     7
 10
108.8230277645
 20
246.123211255
 30
0.0
  0
VERTEX
  5
3AD
  8
0
  6
CONTINUOUS
 62
     7
 10
109.6276576864
 20
246.5420173311
 30
0.0
  0
VERTEX
  5
3AE
  8
0
  6
CONTINUOUS
 62
     7
 10
110.3873769986
 20
247.0257209444
 30
0.0
  0
VERTEX
  5
3AF
  8
0
  6
CONTINUOUS
 62
     7
 10
111.0287810909
 20
247.5122975015
 30
0.0
  0
VERTEX
  5
3B0
  8
0
  6
CONTINUOUS
 62
     7
 10
111.5564997541
 20
247.9855941438
 30
0.0
  0
VERTEX
  5
3B1
  8
0
  6
CONTINUOUS
 62
     7
 10
111.899733101
 20
248.3787225389
 30
0.0
  0
VERTEX
  5
3B2
  8
0
  6
CONTINUOUS
 62
     7
 10
111.9878138649
 20
248.5393868589
 30
0.0
  0
VERTEX
  5
3B3
  8
0
  6
CONTINUOUS
 62
     7
 10
112.0117406594
 20
248.6723827028
 30
0.0
  0
SEQEND
  5
508
  8
0
  6
CONTINUOUS
 62
     7
  0
POLYLINE
  5
A0
  8
0
  6
CONTINUOUS
 62
     7
 66
     1
 10
0.0
 20
0.0
 30
0.0
  0
VERTEX
  5
3B4
  8
0
  6
CONTINUOUS
 62
     7
 10
105.9231008636
 20
245.294557681
 30
0.0
  0
VERTEX
  5
3B5
  8
0
  6
CONTINUOUS
 62
     7
 10
100.5722756731
 20
244.70796453
 30
0.0
  0
VERTEX
  5
3B6
  8
0
  6
CONTINUOUS
 62
     7
 10
95.2061171877
 20
244.2099617624
 30
0.0
  0
VERTEX
  5
3B7
  8
0
  6
CONTINUOUS
 62
     7
 10
89.8138637888
 20
243.8128100538
 30
0.0
  0
VERTEX
  5
3B8
  8
0
  6
CONTINUOUS
 62
     7
 10
84.4107712852
 20
243.5278283262
 30
0.0
  0
VERTEX
  5
3B9
  8
0
  6
CONTINUOUS
 62
     7
 10
78.5092796432
 20
243.3541642332
 30
0.0
  0
VERTEX
  5
3BA
  8
0
  6
CONTINUOUS
 62
     7
 10
72.6041342365
 20
243.3278309011
 30
0.0
  0
VERTEX
  5
3BB
  8
0
  6
CONTINUOUS
 62
     7
 10
66.6789676296
 20
243.4511052274
 30
0.0
  0
VERTEX
  5
3BC
  8
0
  6
CONTINUOUS
 62
     7
 10
60.7609237777
 20
243.7198744917
 30
0.0
  0
VERTEX
  5
3BD
  8
0
  6
CONTINUOUS
 62
     7
 10
56.3396360027
 20
244.0118895673
 30
0.0
  0
VERTEX
  5
3BE
  8
0
  6
CONTINUOUS
 62
     7
 10
51.9266928779
 20
244.3757878446
 30
0.0
  0
VERTEX
  5
3BF
  8
0
  6
CONTINUOUS
 62
     7
 10
47.5164498436
 20
244.8060082101
 30
0.0
  0
VERTEX
  5
3C0
  8
0
  6
CONTINUOUS
 62
     7
 10
43.1167747127
 20
245.294557681
 30
0.0
  0
SEQEND
  5
507
  8
0
  6
CONTINUOUS
 62
     7
  0
POLYLINE
  5
A1
  8
0
  6
CONTINUOUS
 62
     7
 66
     1
 10
0.0
 20
0.0
 30
0.0
  0
VERTEX
  5
3C1
  8
0
  6
CONTINUOUS
 62
     7
 10
37.0281364071
 20
248.6723827028
 30
0.0
  0
VERTEX
  5
3C2
  8
0
  6
CONTINUOUS
 62
     7
 10
37.10247532
 20
248.4377251768
 30
0.0
  0
VERTEX
  5
3C3
  8
0
  6
CONTINUOUS
 62
     7
 10
37.3597170459
 20
248.1123195791
 30
0.0
  0
VERTEX
  5
3C4
  8
0
  6
CONTINUOUS
 62
     7
 10
37.7694691764
 20
247.718690505
 30
0.0
  0
VERTEX
  5
3C5
  8
0
  6
CONTINUOUS
 62
     7
 10
38.3372332203
 20
247.2548710012
 30
0.0
  0
VERTEX
  5
3C6
  8
0
  6
CONTINUOUS
 62
     7
 10
39.0699590789
 20
246.7486308717
 30
0.0
  0
VERTEX
  5
3C7
  8
0
  6
CONTINUOUS
 62
     7
 10
39.9661506759
 20
246.24402987
 30
0.0
  0
VERTEX
  5
3C8
  8
0
  6
CONTINUOUS
 62
     7
 10
40.8462669002
 20
245.8564864301
 30
0.0
  0
VERTEX
  5
3C9
  8
0
  6
CONTINUOUS
 62
     7
 10
41.84400097
 20
245.5351637506
 30
0.0
  0
VERTEX
  5
3CA
  8
0
  6
CONTINUOUS
 62
     7
 10
42.4668099033
 20
245.394395461
 30
0.0
  0
VERTEX
  5
3CB
  8
0
  6
CONTINUOUS
 62
     7
 10
43.1167747127
 20
245.294557681
 30
0.0
  0
SEQEND
  5
506
  8
0
  6
CONTINUOUS
 62
     7
  0
POLYLINE
  5
A2
  8
0
  6
CONTINUOUS
 62
     7
 66
     1
 10
0.0
 20
0.0
 30
0.0
  0
VERTEX
  5
3CC
  8
0
  6
CONTINUOUS
 62
     7
 10
37.0281364071
 20
248.6723886633
 30
0.0
  0
VERTEX
  5
3CD
  8
0
  6
CONTINUOUS
 62
     7
 10
37.0564545738
 20
248.9687250757
 30
0.0
  0
VERTEX
  5
3CE
  8
0
  6
CONTINUOUS
 62
     7
 10
37.072279607
 20
249.0934001112
 30
0.0
  0
SEQEND
  5
505
  8
0
  6
CONTINUOUS
 62
     7
  0
POLYLINE
  5
A3
  8
0
  6
CONTINUOUS
 62
     7
 66
     1
 10
0.0
 20
0.0
 30
0.0
  0
VERTEX
  5
3CF
  8
0
  6
CONTINUOUS
 62
     7
 10
37.1176506626
 20
249.1913901472
 30
0.0
  0
VERTEX
  5
3D0
  8
0
  6
CONTINUOUS
 62
     7
 10
37.1277596103
 20
249.2360340261
 30
0.0
  0
VERTEX
  5
3D1
  8
0
  6
CONTINUOUS
 62
     7
 10
37.1737505542
 20
249.3417488241
 30
0.0
  0
VERTEX
  5
3D2
  8
0
  6
CONTINUOUS
 62
     7
 10
37.1715928661
 20
249.3886099958
 30
0.0
  0
VERTEX
  5
3D3
  8
0
  6
CONTINUOUS
 62
     7
 10
37.1444906341
 20
249.4414614343
 30
0.0
  0
VERTEX
  5
3D4
  8
0
  6
CONTINUOUS
 62
     7
 10
37.1413256275
 20
249.4990156793
 30
0.0
  0
VERTEX
  5
3D5
  8
0
  6
CONTINUOUS
 62
     7
 10
37.2230733978
 20
249.5574461126
 30
0.0
  0
VERTEX
  5
3D6
  8
0
  6
CONTINUOUS
 62
     7
 10
37.4378289329
 20
249.6140586042
 30
0.0
  0
VERTEX
  5
3D7
  8
0
  6
CONTINUOUS
 62
     7
 10
37.7953554737
 20
249.6697889471
 30
0.0
  0
VERTEX
  5
3D8
  8
0
  6
CONTINUOUS
 62
     7
 10
38.3965279209
 20
249.724327197
 30
0.0
  0
VERTEX
  5
3D9
  8
0
  6
CONTINUOUS
 62
     7
 10
39.3135930645
 20
249.7791396284
 30
0.0
  0
SEQEND
  5
504
  8
0
  6
CONTINUOUS
 62
     7
  0
LINE
  5
A4
  8
0
  6
CONTINUOUS
 62
     7
 10
112.1199365007
 20
248.2141898775
 30
0.0
 11
112.1199365007
 21
248.5198901796
 31
0.0
  0
LINE
  5
A5
  8
0
  6
CONTINUOUS
 62
     7
 10
36.9199360954
 20
248.0391429567
 30
0.0
 11
36.9199360954
 21
247.8646801614
 31
0.0
  0
LINE
  5
A6
  8
0
  6
CONTINUOUS
 62
     7
 10
36.9199360954
 20
248.5096977853
 30
0.0
 11
36.9199360954
 21
248.2141898775
 31
0.0
  0
LINE
  5
A7
  8
0
  6
CONTINUOUS
 62
     7
 10
156.8199376809
 20
243.2025300169
 30
0.0
 11
156.8199376809
 21
245.1672361993
 31
0.0
  0
LINE
  5
A8
  8
0
  6
CONTINUOUS
 62
     7
 10
157.619937812
 20
245.1672361993
 30
0.0
 11
157.619937812
 21
243.2025300169
 31
0.0
  0
LINE
  5
A9
  8
0
  6
CONTINUOUS
 62
     7
 10
156.8199376809
 20
246.4183913374
 30
0.0
 11
156.8199376809
 21
245.1672361993
 31
0.0
  0
ARC
  5
AA
  8
0
  6
CONTINUOUS
 62
     7
 10
157.8199371921
 20
246.4183906339
 30
0.0
 40
1.0
 50
138.1768700679
 51
180.0
  0
LINE
  5
AB
  8
0
  6
CONTINUOUS
 62
     7
 10
157.619937812
 20
245.1672361993
 30
0.0
 11
157.619937812
 21
246.478776803
 31
0.0
  0
LINE
  5
AC
  8
0
  6
CONTINUOUS
 62
     7
 10
156.8199376809
 20
237.3802767896
 30
0.0
 11
156.8199376809
 21
243.2025300169
 31
0.0
  0
LINE
  5
AD
  8
0
  6
CONTINUOUS
 62
     7
 10
157.619937812
 20
243.2025300169
 30
0.0
 11
157.619937812
 21
237.3802767896
 31
0.0
  0
LINE
  5
AE
  8
0
  6
CONTINUOUS
 62
     7
 10
156.8199376809
 20
237.3802767896
 30
0.0
 11
156.8199376809
 21
237.115685811
 31
0.0
  0
LINE
  5
AF
  8
0
  6
CONTINUOUS
 62
     7
 10
157.619937812
 20
237.115685811
 30
0.0
 11
157.619937812
 21
237.3802767896
 31
0.0
  0
LINE
  5
B0
  8
0
  6
CONTINUOUS
 62
     7
 10
156.8199376809
 20
235.2233158254
 30
0.0
 11
156.8199376809
 21
237.115685811
 31
0.0
  0
LINE
  5
B1
  8
0
  6
CONTINUOUS
 62
     7
 10
157.619937812
 20
237.115685811
 30
0.0
 11
157.619937812
 21
235.2233158254
 31
0.0
  0
LINE
  5
B2
  8
0
  6
CONTINUOUS
 62
     7
 10
156.8199376809
 20
231.8113433027
 30
0.0
 11
156.8199376809
 21
235.2233158254
 31
0.0
  0
LINE
  5
B3
  8
0
  6
CONTINUOUS
 62
     7
 10
157.619937812
 20
235.2233158254
 30
0.0
 11
157.619937812
 21
231.8113433027
 31
0.0
  0
LINE
  5
B4
  8
0
  6
CONTINUOUS
 62
     7
 10
156.8199376809
 20
229.9156056547
 30
0.0
 11
156.8199376809
 21
231.8113433027
 31
0.0
  0
LINE
  5
B5
  8
0
  6
CONTINUOUS
 62
     7
 10
157.619937812
 20
231.8113433027
 30
0.0
 11
157.619937812
 21
229.9156056547
 31
0.0
  0
LINE
  5
B6
  8
0
  6
CONTINUOUS
 62
     7
 10
157.619937812
 20
227.915607562
 30
0.0
 11
156.8199376809
 21
227.915607562
 31
0.0
  0
LINE
  5
B7
  8
0
  6
CONTINUOUS
 62
     7
 10
156.8199376809
 20
227.915607562
 30
0.0
 11
156.8199376809
 21
229.9156056547
 31
0.0
  0
LINE
  5
B8
  8
0
  6
CONTINUOUS
 62
     7
 10
157.619937812
 20
229.9156056547
 30
0.0
 11
157.619937812
 21
227.915607562
 31
0.0
  0
ARC
  5
B9
  8
0
  6
CONTINUOUS
 62
     7
 10
154.0199371921
 20
223.315604701
 30
0.0
 40
2.0
 50
180.0
 51
270.0
  0
LINE
  5
BA
  8
0
  6
CONTINUOUS
 62
     7
 10
152.0199368941
 20
230.7156072759
 30
0.0
 11
152.0199368941
 21
223.3156071806
 31
0.0
  0
LINE
  5
BB
  8
0
  6
CONTINUOUS
 62
     7
 10
162.0199377882
 20
230.7156072759
 30
0.0
 11
162.0199377882
 21
223.3156071806
 31
0.0
  0
ARC
  5
BC
  8
0
  6
CONTINUOUS
 62
     7
 10
160.0199371921
 20
223.315604701
 30
0.0
 40
2.0
 50
270.0
 51
0.0
  0
LINE
  5
BD
  8
0
  6
CONTINUOUS
 62
     7
 10
160.0199367153
 20
221.3156031274
 30
0.0
 11
154.0199364769
 21
221.3156031274
 31
0.0
  0
LINE
  5
BE
  8
0
  6
CONTINUOUS
 62
     7
 10
162.0199377882
 20
231.7156063223
 30
0.0
 11
157.619937812
 21
231.7156063223
 31
0.0
  0
LINE
  5
BF
  8
0
  6
CONTINUOUS
 62
     7
 10
162.0199377882
 20
231.7156063223
 30
0.0
 11
162.0199377882
 21
230.7156072759
 31
0.0
  0
LINE
  5
C0
  8
0
  6
CONTINUOUS
 62
     7
 10
156.8199376809
 20
231.7156063223
 30
0.0
 11
152.0199368941
 21
231.7156063223
 31
0.0
  0
LINE
  5
C1
  8
0
  6
CONTINUOUS
 62
     7
 10
152.0199368941
 20
231.7156063223
 30
0.0
 11
152.0199368941
 21
230.7156072759
 31
0.0
  0
LINE
  5
C2
  8
0
  6
CONTINUOUS
 62
     7
 10
36.8199373829
 20
243.2025300169
 30
0.0
 11
36.8199373829
 21
245.1672361993
 31
0.0
  0
LINE
  5
C3
  8
0
  6
CONTINUOUS
 62
     7
 10
37.6199390041
 20
245.1672361993
 30
0.0
 11
37.6199390041
 21
243.2025300169
 31
0.0
  0
ARC
  5
C4
  8
0
  6
CONTINUOUS
 62
     7
 10
37.8199371921
 20
246.4183906339
 30
0.0
 40
1.0
 50
138.1768700679
 51
180.0
  0
LINE
  5
C5
  8
0
  6
CONTINUOUS
 62
     7
 10
36.8199373829
 20
246.4183913374
 30
0.0
 11
36.8199373829
 21
245.1672361993
 31
0.0
  0
LINE
  5
C6
  8
0
  6
CONTINUOUS
 62
     7
 10
37.6199390041
 20
245.1672361993
 30
0.0
 11
37.6199390041
 21
246.478776803
 31
0.0
  0
LINE
  5
C7
  8
0
  6
CONTINUOUS
 62
     7
 10
36.8199373829
 20
237.3802767896
 30
0.0
 11
36.8199373829
 21
243.2025300169
 31
0.0
  0
LINE
  5
C8
  8
0
  6
CONTINUOUS
 62
     7
 10
37.6199390041
 20
243.2025300169
 30
0.0
 11
37.6199390041
 21
237.3802767896
 31
0.0
  0
LINE
  5
C9
  8
0
  6
CONTINUOUS
 62
     7
 10
36.8199373829
 20
237.3802767896
 30
0.0
 11
36.8199373829
 21
237.115685811
 31
0.0
  0
LINE
  5
CA
  8
0
  6
CONTINUOUS
 62
     7
 10
37.6199390041
 20
237.115685811
 30
0.0
 11
37.6199390041
 21
237.3802767896
 31
0.0
  0
LINE
  5
CB
  8
0
  6
CONTINUOUS
 62
     7
 10
36.8199373829
 20
235.2233158254
 30
0.0
 11
36.8199373829
 21
237.115685811
 31
0.0
  0
LINE
  5
CC
  8
0
  6
CONTINUOUS
 62
     7
 10
37.6199390041
 20
237.115685811
 30
0.0
 11
37.6199390041
 21
235.2233158254
 31
0.0
  0
LINE
  5
CD
  8
0
  6
CONTINUOUS
 62
     7
 10
36.8199373829
 20
231.8113433027
 30
0.0
 11
36.8199373829
 21
235.2233158254
 31
0.0
  0
LINE
  5
CE
  8
0
  6
CONTINUOUS
 62
     7
 10
37.6199390041
 20
235.2233158254
 30
0.0
 11
37.6199390041
 21
231.8113433027
 31
0.0
  0
LINE
  5
CF
  8
0
  6
CONTINUOUS
 62
     7
 10
36.8199373829
 20
229.9156056547
 30
0.0
 11
36.8199373829
 21
231.8113433027
 31
0.0
  0
LINE
  5
D0
  8
0
  6
CONTINUOUS
 62
     7
 10
37.6199390041
 20
231.8113433027
 30
0.0
 11
37.6199390041
 21
229.9156056547
 31
0.0
  0
LINE
  5
D1
  8
0
  6
CONTINUOUS
 62
     7
 10
37.6199390041
 20
227.915607562
 30
0.0
 11
36.8199373829
 21
227.915607562
 31
0.0
  0
LINE
  5
D2
  8
0
  6
CONTINUOUS
 62
     7
 10
36.8199373829
 20
227.915607562
 30
0.0
 11
36.8199373829
 21
229.9156056547
 31
0.0
  0
LINE
  5
D3
  8
0
  6
CONTINUOUS
 62
     7
 10
37.6199390041
 20
229.9156056547
 30
0.0
 11
37.6199390041
 21
227.915607562
 31
0.0
  0
ARC
  5
D4
  8
0
  6
CONTINUOUS
 62
     7
 10
34.0199371921
 20
223.315604701
 30
0.0
 40
2.0
 50
180.0
 51
270.0
  0
LINE
  5
D5
  8
0
  6
CONTINUOUS
 62
     7
 10
32.0199395763
 20
230.7156072759
 30
0.0
 11
32.0199395763
 21
223.3156071806
 31
0.0
  0
LINE
  5
D6
  8
0
  6
CONTINUOUS
 62
     7
 10
42.019936
 20
230.7156072759
 30
0.0
 11
42.019936
 21
223.3156071806
 31
0.0
  0
ARC
  5
D7
  8
0
  6
CONTINUOUS
 62
     7
 10
40.0199371921
 20
223.315604701
 30
0.0
 40
2.0
 50
270.0
 51
0.0
  0
LINE
  5
D8
  8
0
  6
CONTINUOUS
 62
     7
 10
40.0199379074
 20
221.3156031274
 30
0.0
 11
34.019937669
 21
221.3156031274
 31
0.0
  0
LINE
  5
D9
  8
0
  6
CONTINUOUS
 62
     7
 10
36.8199373829
 20
231.7156063223
 30
0.0
 11
32.0199395763
 21
231.7156063223
 31
0.0
  0
LINE
  5
DA
  8
0
  6
CONTINUOUS
 62
     7
 10
32.0199395763
 20
231.7156063223
 30
0.0
 11
32.0199395763
 21
230.7156072759
 31
0.0
  0
LINE
  5
DB
  8
0
  6
CONTINUOUS
 62
     7
 10
42.019936
 20
231.7156063223
 30
0.0
 11
37.6199390041
 21
231.7156063223
 31
0.0
  0
LINE
  5
DC
  8
0
  6
CONTINUOUS
 62
     7
 10
42.019936
 20
231.7156063223
 30
0.0
 11
42.019936
 21
230.7156072759
 31
0.0
  0
ARC
  5
DD
  8
0
  6
CONTINUOUS
 62
     7
 10
111.2199371921
 20
246.4183906339
 30
0.0
 40
1.000000000000003
 50
0.0
 51
42.187202839
  0
LINE
  5
DE
  8
0
  6
CONTINUOUS
 62
     7
 10
112.2199367034
 20
246.4183913374
 30
0.0
 11
112.2199367034
 21
245.1672361993
 31
0.0
  0
LINE
  5
DF
  8
0
  6
CONTINUOUS
 62
     7
 10
111.4199365722
 20
245.1672361993
 30
0.0
 11
111.4199365722
 21
246.4710281992
 31
0.0
  0
LINE
  5
E0
  8
0
  6
CONTINUOUS
 62
     7
 10
111.4199365722
 20
245.1672361993
 30
0.0
 11
111.4199365722
 21
243.2025300169
 31
0.0
  0
LINE
  5
E1
  8
0
  6
CONTINUOUS
 62
     7
 10
112.2199367034
 20
243.2025300169
 30
0.0
 11
112.2199367034
 21
245.1672361993
 31
0.0
  0
LINE
  5
E2
  8
0
  6
CONTINUOUS
 62
     7
 10
112.2199367034
 20
237.3802767896
 30
0.0
 11
112.2199367034
 21
243.2025300169
 31
0.0
  0
LINE
  5
E3
  8
0
  6
CONTINUOUS
 62
     7
 10
111.4199365722
 20
243.2025300169
 30
0.0
 11
111.4199365722
 21
237.3802767896
 31
0.0
  0
LINE
  5
E4
  8
0
  6
CONTINUOUS
 62
     7
 10
112.2199367034
 20
237.3802767896
 30
0.0
 11
112.2199367034
 21
237.115685811
 31
0.0
  0
LINE
  5
E5
  8
0
  6
CONTINUOUS
 62
     7
 10
111.4199365722
 20
237.115685811
 30
0.0
 11
111.4199365722
 21
237.3802767896
 31
0.0
  0
LINE
  5
E6
  8
0
  6
CONTINUOUS
 62
     7
 10
112.2199367034
 20
235.2233158254
 30
0.0
 11
112.2199367034
 21
237.115685811
 31
0.0
  0
LINE
  5
E7
  8
0
  6
CONTINUOUS
 62
     7
 10
111.4199365722
 20
237.115685811
 30
0.0
 11
111.4199365722
 21
235.2233158254
 31
0.0
  0
LINE
  5
E8
  8
0
  6
CONTINUOUS
 62
     7
 10
112.2199367034
 20
231.8113433027
 30
0.0
 11
112.2199367034
 21
235.2233158254
 31
0.0
  0
LINE
  5
E9
  8
0
  6
CONTINUOUS
 62
     7
 10
111.4199365722
 20
235.2233158254
 30
0.0
 11
111.4199365722
 21
231.8113433027
 31
0.0
  0
LINE
  5
EA
  8
0
  6
CONTINUOUS
 62
     7
 10
112.2199367034
 20
229.9156056547
 30
0.0
 11
112.2199367034
 21
231.8113433027
 31
0.0
  0
LINE
  5
EB
  8
0
  6
CONTINUOUS
 62
     7
 10
111.4199365722
 20
231.8113433027
 30
0.0
 11
111.4199365722
 21
229.9156056547
 31
0.0
  0
LINE
  5
EC
  8
0
  6
CONTINUOUS
 62
     7
 10
111.4199365722
 20
227.915607562
 30
0.0
 11
112.2199367034
 21
227.915607562
 31
0.0
  0
LINE
  5
ED
  8
0
  6
CONTINUOUS
 62
     7
 10
112.2199367034
 20
227.915607562
 30
0.0
 11
112.2199367034
 21
229.9156056547
 31
0.0
  0
LINE
  5
EE
  8
0
  6
CONTINUOUS
 62
     7
 10
111.4199365722
 20
229.9156056547
 30
0.0
 11
111.4199365722
 21
227.915607562
 31
0.0
  0
LINE
  5
EF
  8
0
  6
CONTINUOUS
 62
     7
 10
107.0199365961
 20
230.7156072759
 30
0.0
 11
107.0199365961
 21
223.3156071806
 31
0.0
  0
LINE
  5
F0
  8
0
  6
CONTINUOUS
 62
     7
 10
117.0199374901
 20
230.7156072759
 30
0.0
 11
117.0199374901
 21
223.3156071806
 31
0.0
  0
LINE
  5
F1
  8
0
  6
CONTINUOUS
 62
     7
 10
109.019937669
 20
221.3156031274
 30
0.0
 11
115.0199379074
 21
221.3156031274
 31
0.0
  0
ARC
  5
F2
  8
0
  6
CONTINUOUS
 62
     7
 10
109.0199371921
 20
223.315604701
 30
0.0
 40
2.0
 50
180.0
 51
270.0
  0
ARC
  5
F3
  8
0
  6
CONTINUOUS
 62
     7
 10
115.0199371921
 20
223.315604701
 30
0.0
 40
2.0
 50
270.0
 51
0.0
  0
LINE
  5
F4
  8
0
  6
CONTINUOUS
 62
     7
 10
107.0199365961
 20
231.7156063223
 30
0.0
 11
111.4199365722
 21
231.7156063223
 31
0.0
  0
LINE
  5
F5
  8
0
  6
CONTINUOUS
 62
     7
 10
107.0199365961
 20
231.7156063223
 30
0.0
 11
107.0199365961
 21
230.7156072759
 31
0.0
  0
LINE
  5
F6
  8
0
  6
CONTINUOUS
 62
     7
 10
112.2199367034
 20
231.7156063223
 30
0.0
 11
117.0199374901
 21
231.7156063223
 31
0.0
  0
LINE
  5
F7
  8
0
  6
CONTINUOUS
 62
     7
 10
117.0199374901
 20
231.7156063223
 30
0.0
 11
117.0199374901
 21
230.7156072759
 31
0.0
  0
ARC
  5
F8
  8
0
  6
CONTINUOUS
 62
     7
 10
231.2199371921
 20
246.4183906339
 30
0.0
 40
1.000000000000028
 50
0.0
 51
42.187202839
  0
LINE
  5
F9
  8
0
  6
CONTINUOUS
 62
     7
 10
232.2199370014
 20
246.4183913374
 30
0.0
 11
232.2199370014
 21
245.1672361993
 31
0.0
  0
LINE
  5
FA
  8
0
  6
CONTINUOUS
 62
     7
 10
231.4199353801
 20
245.1672361993
 30
0.0
 11
231.4199353801
 21
246.4710281992
 31
0.0
  0
LINE
  5
FB
  8
0
  6
CONTINUOUS
 62
     7
 10
232.2199370014
 20
243.2025300169
 30
0.0
 11
232.2199370014
 21
245.1672361993
 31
0.0
  0
LINE
  5
FC
  8
0
  6
CONTINUOUS
 62
     7
 10
231.4199353801
 20
245.1672361993
 30
0.0
 11
231.4199353801
 21
243.2025300169
 31
0.0
  0
LINE
  5
FD
  8
0
  6
CONTINUOUS
 62
     7
 10
232.2199370014
 20
237.3802767896
 30
0.0
 11
232.2199370014
 21
243.2025300169
 31
0.0
  0
LINE
  5
FE
  8
0
  6
CONTINUOUS
 62
     7
 10
231.4199353801
 20
243.2025300169
 30
0.0
 11
231.4199353801
 21
237.3802767896
 31
0.0
  0
LINE
  5
FF
  8
0
  6
CONTINUOUS
 62
     7
 10
232.2199370014
 20
237.3802767896
 30
0.0
 11
232.2199370014
 21
237.115685811
 31
0.0
  0
LINE
  5
100
  8
0
  6
CONTINUOUS
 62
     7
 10
231.4199353801
 20
237.115685811
 30
0.0
 11
231.4199353801
 21
237.3802767896
 31
0.0
  0
LINE
  5
101
  8
0
  6
CONTINUOUS
 62
     7
 10
232.2199370014
 20
235.2233158254
 30
0.0
 11
232.2199370014
 21
237.115685811
 31
0.0
  0
LINE
  5
102
  8
0
  6
CONTINUOUS
 62
     7
 10
231.4199353801
 20
237.115685811
 30
0.0
 11
231.4199353801
 21
235.2233158254
 31
0.0
  0
LINE
  5
103
  8
0
  6
CONTINUOUS
 62
     7
 10
232.2199370014
 20
231.8113433027
 30
0.0
 11
232.2199370014
 21
235.2233158254
 31
0.0
  0
LINE
  5
104
  8
0
  6
CONTINUOUS
 62
     7
 10
231.4199353801
 20
235.2233158254
 30
0.0
 11
231.4199353801
 21
231.8113433027
 31
0.0
  0
LINE
  5
105
  8
0
  6
CONTINUOUS
 62
     7
 10
231.4199353801
 20
227.915607562
 30
0.0
 11
232.2199370014
 21
227.915607562
 31
0.0
  0
LINE
  5
106
  8
0
  6
CONTINUOUS
 62
     7
 10
232.2199370014
 20
227.915607562
 30
0.0
 11
232.2199370014
 21
229.9156056547
 31
0.0
  0
LINE
  5
107
  8
0
  6
CONTINUOUS
 62
     7
 10
231.4199353801
 20
229.9156056547
 30
0.0
 11
231.4199353801
 21
227.915607562
 31
0.0
  0
LINE
  5
108
  8
0
  6
CONTINUOUS
 62
     7
 10
232.2199370014
 20
229.9156056547
 30
0.0
 11
232.2199370014
 21
231.8113433027
 31
0.0
  0
LINE
  5
109
  8
0
  6
CONTINUOUS
 62
     7
 10
231.4199353801
 20
231.8113433027
 30
0.0
 11
231.4199353801
 21
229.9156056547
 31
0.0
  0
LINE
  5
10A
  8
0
  6
CONTINUOUS
 62
     7
 10
227.0199383842
 20
230.7156072759
 30
0.0
 11
227.0199383842
 21
223.3156071806
 31
0.0
  0
LINE
  5
10B
  8
0
  6
CONTINUOUS
 62
     7
 10
237.0199348079
 20
230.7156072759
 30
0.0
 11
237.0199348079
 21
223.3156071806
 31
0.0
  0
ARC
  5
10C
  8
0
  6
CONTINUOUS
 62
     7
 10
235.0199371921
 20
223.315604701
 30
0.0
 40
2.0
 50
270.0
 51
0.0
  0
LINE
  5
10D
  8
0
  6
CONTINUOUS
 62
     7
 10
229.0199364769
 20
221.3156031274
 30
0.0
 11
235.0199367153
 21
221.3156031274
 31
0.0
  0
ARC
  5
10E
  8
0
  6
CONTINUOUS
 62
     7
 10
229.0199371921
 20
223.315604701
 30
0.0
 40
2.0
 50
180.0
 51
270.0
  0
LINE
  5
10F
  8
0
  6
CONTINUOUS
 62
     7
 10
232.2199370014
 20
231.7156063223
 30
0.0
 11
237.0199348079
 21
231.7156063223
 31
0.0
  0
LINE
  5
110
  8
0
  6
CONTINUOUS
 62
     7
 10
237.0199348079
 20
231.7156063223
 30
0.0
 11
237.0199348079
 21
230.7156072759
 31
0.0
  0
LINE
  5
111
  8
0
  6
CONTINUOUS
 62
     7
 10
227.0199383842
 20
231.7156063223
 30
0.0
 11
231.4199353801
 21
231.7156063223
 31
0.0
  0
LINE
  5
112
  8
0
  6
CONTINUOUS
 62
     7
 10
227.0199383842
 20
231.7156063223
 30
0.0
 11
227.0199383842
 21
230.7156072759
 31
0.0
  0
POLYLINE
  5
113
  8
0
  6
CONTINUOUS
 62
     7
 66
     1
 10
0.0
 20
0.0
 30
0.0
  0
VERTEX
  5
3DA
  8
0
  6
CONTINUOUS
 62
     7
 10
379.9822718022
 20
245.543907752
 30
0.0
  0
VERTEX
  5
3DB
  8
0
  6
CONTINUOUS
 62
     7
 10
381.766286504
 20
245.6401334905
 30
0.0
  0
VERTEX
  5
3DC
  8
0
  6
CONTINUOUS
 62
     7
 10
384.1873794911
 20
245.7844720983
 30
0.0
  0
VERTEX
  5
3DD
  8
0
  6
CONTINUOUS
 62
     7
 10
385.379067075
 20
245.7743750715
 30
0.0
  0
VERTEX
  5
3DE
  8
0
  6
CONTINUOUS
 62
     7
 10
386.5288764355
 20
245.6248210573
 30
0.0
  0
VERTEX
  5
3DF
  8
0
  6
CONTINUOUS
 62
     7
 10
387.6197725651
 20
245.287178626
 30
0.0
  0
VERTEX
  5
3E0
  8
0
  6
CONTINUOUS
 62
     7
 10
388.6567384121
 20
244.7783993387
 30
0.0
  0
VERTEX
  5
3E1
  8
0
  6
CONTINUOUS
 62
     7
 10
389.9741143105
 20
243.892978301
 30
0.0
  0
VERTEX
  5
3E2
  8
0
  6
CONTINUOUS
 62
     7
 10
391.2403613446
 20
242.8453014993
 30
0.0
  0
VERTEX
  5
3E3
  8
0
  6
CONTINUOUS
 62
     7
 10
392.4810439465
 20
241.7164908552
 30
0.0
  0
SEQEND
  5
503
  8
0
  6
CONTINUOUS
 62
     7
  0
LINE
  5
114
  8
0
  6
CONTINUOUS
 62
     7
 10
392.4812823651
 20
241.7301582002
 30
0.0
 11
392.50932039
 21
243.3361755514
 31
0.0
  0
LINE
  5
115
  8
0
  6
CONTINUOUS
 62
     7
 10
379.9822718022
 20
247.4183903837
 30
0.0
 11
318.8477400807
 21
247.4183903837
 31
0.0
  0
LINE
  5
116
  8
0
  6
CONTINUOUS
 62
     7
 10
317.482269567
 20
221.1156057024
 30
0.0
 11
309.4822697458
 21
221.1156057024
 31
0.0
  0
LINE
  5
117
  8
0
  6
CONTINUOUS
 62
     7
 10
309.4822697458
 20
231.1156021261
 30
0.0
 11
317.482269567
 21
231.1156021261
 31
0.0
  0
ARC
  5
118
  8
0
  6
CONTINUOUS
 62
     7
 10
309.4822696564
 20
230.115604701
 30
0.0
 40
1.0
 50
90.0
 51
180.0
  0
LINE
  5
119
  8
0
  6
CONTINUOUS
 62
     7
 10
308.4822695819
 20
222.1156047487
 30
0.0
 11
308.4822695819
 21
230.1156030798
 31
0.0
  0
ARC
  5
11A
  8
0
  6
CONTINUOUS
 62
     7
 10
309.4822696564
 20
222.115604701
 30
0.0
 40
1.0
 50
180.0
 51
270.0
  0
LINE
  5
11B
  8
0
  6
CONTINUOUS
 62
     7
 10
318.4822697309
 20
230.1156030798
 30
0.0
 11
318.4822697309
 21
222.1156047487
 31
0.0
  0
ARC
  5
11C
  8
0
  6
CONTINUOUS
 62
     7
 10
317.4822696564
 20
230.115604701
 30
0.0
 40
1.0
 50
0.0
 51
90.0
  0
ARC
  5
11D
  8
0
  6
CONTINUOUS
 62
     7
 10
317.4822696564
 20
222.115604701
 30
0.0
 40
1.0
 50
270.0
 51
0.0
  0
LINE
  5
11E
  8
0
  6
CONTINUOUS
 62
     7
 10
305.4822698352
 20
155.915604701
 30
0.0
 11
301.4822699246
 21
155.915604701
 31
0.0
  0
LINE
  5
11F
  8
0
  6
CONTINUOUS
 62
     7
 10
301.4822699246
 20
155.915604701
 30
0.0
 11
301.4822699246
 21
157.1156047114
 31
0.0
  0
LINE
  5
120
  8
0
  6
CONTINUOUS
 62
     7
 10
301.4822699246
 20
157.1156047114
 30
0.0
 11
305.4822698352
 21
157.1156047114
 31
0.0
  0
LINE
  5
121
  8
0
  6
CONTINUOUS
 62
     7
 10
305.4822698352
 20
157.1156047114
 30
0.0
 11
307.4822697905
 21
157.1156047114
 31
0.0
  0
LINE
  5
122
  8
0
  6
CONTINUOUS
 62
     7
 10
305.4822698352
 20
155.915604701
 30
0.0
 11
307.4822697905
 21
155.915604701
 31
0.0
  0
LINE
  5
123
  8
0
  6
CONTINUOUS
 62
     7
 10
334.8506912706
 20
157.1156047114
 30
0.0
 11
307.4822697905
 21
157.1156047114
 31
0.0
  0
LINE
  5
124
  8
0
  6
CONTINUOUS
 62
     7
 10
307.4822697905
 20
155.915604701
 30
0.0
 11
334.8506912706
 21
155.915604701
 31
0.0
  0
LINE
  5
125
  8
0
  6
CONTINUOUS
 62
     7
 10
337.48226912
 20
157.1156047114
 30
0.0
 11
337.48226912
 21
155.915604701
 31
0.0
  0
LINE
  5
126
  8
0
  6
CONTINUOUS
 62
     7
 10
334.8506912706
 20
157.1156047114
 30
0.0
 11
337.48226912
 21
157.1156047114
 31
0.0
  0
LINE
  5
127
  8
0
  6
CONTINUOUS
 62
     7
 10
337.48226912
 20
155.915604701
 30
0.0
 11
334.8506912706
 21
155.915604701
 31
0.0
  0
LINE
  5
128
  8
0
  6
CONTINUOUS
 62
     7
 10
308.4822695819
 20
157.1156047114
 30
0.0
 11
308.4822695819
 21
221.3156031274
 31
0.0
  0
LINE
  5
129
  8
0
  6
CONTINUOUS
 62
     7
 10
318.4822697309
 20
221.3156031274
 30
0.0
 11
318.4822697309
 21
157.1156047114
 31
0.0
  0
LINE
  5
12A
  8
0
  6
CONTINUOUS
 62
     7
 10
324.9379940448
 20
247.9842113161
 30
0.0
 11
323.7158626435
 21
247.4137889051
 31
0.0
  0
POLYLINE
  5
12B
  8
0
  6
CONTINUOUS
 62
     7
 66
     1
 10
0.0
 20
0.0
 30
0.0
  0
VERTEX
  5
3E4
  8
0
  6
CONTINUOUS
 62
     7
 10
329.5706853387
 20
248.6155019903
 30
0.0
  0
VERTEX
  5
3E5
  8
0
  6
CONTINUOUS
 62
     7
 10
328.4382060287
 20
248.6074792051
 30
0.0
  0
VERTEX
  5
3E6
  8
0
  6
CONTINUOUS
 62
     7
 10
327.3595273612
 20
248.5372291708
 30
0.0
  0
VERTEX
  5
3E7
  8
0
  6
CONTINUOUS
 62
     7
 10
326.4256969211
 20
248.4093533659
 30
0.0
  0
VERTEX
  5
3E8
  8
0
  6
CONTINUOUS
 62
     7
 10
325.6119027851
 20
248.2245789671
 30
0.0
  0
VERTEX
  5
3E9
  8
0
  6
CONTINUOUS
 62
     7
 10
324.9379940448
 20
247.9842113161
 30
0.0
  0
SEQEND
  5
502
  8
0
  6
CONTINUOUS
 62
     7
  0
POLYLINE
  5
12C
  8
0
  6
CONTINUOUS
 62
     7
 66
     1
 10
0.0
 20
0.0
 30
0.0
  0
VERTEX
  5
3EA
  8
0
  6
CONTINUOUS
 62
     7
 10
332.5914085028
 20
248.5627518797
 30
0.0
  0
VERTEX
  5
3EB
  8
0
  6
CONTINUOUS
 62
     7
 10
331.0810446856
 20
248.5891388559
 30
0.0
  0
VERTEX
  5
3EC
  8
0
  6
CONTINUOUS
 62
     7
 10
329.5706853387
 20
248.6155019903
 30
0.0
  0
SEQEND
  5
501
  8
0
  6
CONTINUOUS
 62
     7
  0
POLYLINE
  5
12D
  8
0
  6
CONTINUOUS
 62
     7
 66
     1
 10
0.0
 20
0.0
 30
0.0
  0
VERTEX
  5
3ED
  8
0
  6
CONTINUOUS
 62
     7
 10
337.5906467555
 20
248.4754847192
 30
0.0
  0
VERTEX
  5
3EE
  8
0
  6
CONTINUOUS
 62
     7
 10
335.0875049946
 20
248.5122131014
 30
0.0
  0
VERTEX
  5
3EF
  8
0
  6
CONTINUOUS
 62
     7
 10
332.5970411417
 20
248.562602868
 30
0.0
  0
SEQEND
  5
500
  8
0
  6
CONTINUOUS
 62
     7
  0
LINE
  5
12E
  8
0
  6
CONTINUOUS
 62
     7
 10
337.6167670009
 20
248.4750317239
 30
0.0
 11
337.5906467555
 21
248.4754847192
 31
0.0
  0
POLYLINE
  5
12F
  8
0
  6
CONTINUOUS
 62
     7
 66
     1
 10
0.0
 20
0.0
 30
0.0
  0
VERTEX
  5
3F0
  8
0
  6
CONTINUOUS
 62
     7
 10
342.623966944
 20
248.3876155519
 30
0.0
  0
VERTEX
  5
3F1
  8
0
  6
CONTINUOUS
 62
     7
 10
340.120220196
 20
248.4316037798
 30
0.0
  0
VERTEX
  5
3F2
  8
0
  6
CONTINUOUS
 62
     7
 10
337.6167997835
 20
248.4750317239
 30
0.0
  0
SEQEND
  5
4FF
  8
0
  6
CONTINUOUS
 62
     7
  0
LINE
  5
130
  8
0
  6
CONTINUOUS
 62
     7
 10
344.4746732829
 20
248.348079791
 30
0.0
 11
342.6239818451
 21
248.3875380659
 31
0.0
  0
LINE
  5
131
  8
0
  6
CONTINUOUS
 62
     7
 10
352.5883644936
 20
248.2137011194
 30
0.0
 11
344.4746732829
 21
248.348079791
 31
0.0
  0
POLYLINE
  5
132
  8
0
  6
CONTINUOUS
 62
     7
 66
     1
 10
0.0
 20
0.0
 30
0.0
  0
VERTEX
  5
3F3
  8
0
  6
CONTINUOUS
 62
     7
 10
362.5882655499
 20
248.0391429567
 30
0.0
  0
VERTEX
  5
3F4
  8
0
  6
CONTINUOUS
 62
     7
 10
355.7602405665
 20
248.1659399175
 30
0.0
  0
VERTEX
  5
3F5
  8
0
  6
CONTINUOUS
 62
     7
 10
352.5883764145
 20
248.2137011194
 30
0.0
  0
SEQEND
  5
4FE
  8
0
  6
CONTINUOUS
 62
     7
  0
POLYLINE
  5
133
  8
0
  6
CONTINUOUS
 62
     7
 66
     1
 10
0.0
 20
0.0
 30
0.0
  0
VERTEX
  5
3F6
  8
0
  6
CONTINUOUS
 62
     7
 10
372.5861102459
 20
247.86466228
 30
0.0
  0
VERTEX
  5
3F7
  8
0
  6
CONTINUOUS
 62
     7
 10
367.5875753281
 20
247.9095028543
 30
0.0
  0
VERTEX
  5
3F8
  8
0
  6
CONTINUOUS
 62
     7
 10
362.5882655499
 20
248.0391429567
 30
0.0
  0
SEQEND
  5
4FD
  8
0
  6
CONTINUOUS
 62
     7
  0
POLYLINE
  5
134
  8
0
  6
CONTINUOUS
 62
     7
 66
     1
 10
0.0
 20
0.0
 30
0.0
  0
VERTEX
  5
3F9
  8
0
  6
CONTINUOUS
 62
     7
 10
384.2417925713
 20
247.4464820528
 30
0.0
  0
VERTEX
  5
3FA
  8
0
  6
CONTINUOUS
 62
     7
 10
384.2164665577
 20
247.4511788988
 30
0.0
  0
VERTEX
  5
3FB
  8
0
  6
CONTINUOUS
 62
     7
 10
381.8034559605
 20
247.7696763181
 30
0.0
  0
VERTEX
  5
3FC
  8
0
  6
CONTINUOUS
 62
     7
 10
379.414990556
 20
247.9089187288
 30
0.0
  0
VERTEX
  5
3FD
  8
0
  6
CONTINUOUS
 62
     7
 10
377.0490735886
 20
247.9322837495
 30
0.0
  0
VERTEX
  5
3FE
  8
0
  6
CONTINUOUS
 62
     7
 10
374.6942490456
 20
247.8976057672
 30
0.0
  0
VERTEX
  5
3FF
  8
0
  6
CONTINUOUS
 62
     7
 10
372.5861102459
 20
247.8646801614
 30
0.0
  0
SEQEND
  5
4FC
  8
0
  6
CONTINUOUS
 62
     7
  0
ARC
  5
135
  8
0
  6
CONTINUOUS
 62
     7
 10
382.0061314992
 20
235.1590956092
 30
0.0
 40
12.48911710425657
 50
43.7647639822
 51
79.6879731616
  0
POLYLINE
  5
136
  8
0
  6
CONTINUOUS
 62
     7
 66
     1
 10
0.0
 20
0.0
 30
0.0
  0
VERTEX
  5
400
  8
0
  6
CONTINUOUS
 62
     7
 10
392.4719303963
 20
241.7303191328
 30
0.0
  0
VERTEX
  5
401
  8
0
  6
CONTINUOUS
 62
     7
 10
392.474493396
 20
241.7264746332
 30
0.0
  0
VERTEX
  5
402
  8
0
  6
CONTINUOUS
 62
     7
 10
392.405787122
 20
241.8301449918
 30
0.0
  0
VERTEX
  5
403
  8
0
  6
CONTINUOUS
 62
     7
 10
392.2618240235
 20
242.0460806989
 30
0.0
  0
VERTEX
  5
404
  8
0
  6
CONTINUOUS
 62
     7
 10
392.0429676888
 20
242.369835248
 30
0.0
  0
VERTEX
  5
405
  8
0
  6
CONTINUOUS
 62
     7
 10
391.6081935284
 20
242.9963873529
 30
0.0
  0
VERTEX
  5
406
  8
0
  6
CONTINUOUS
 62
     7
 10
391.0255938885
 20
243.7978075647
 30
0.0
  0
SEQEND
  5
4FB
  8
0
  6
CONTINUOUS
 62
     7
  0
POLYLINE
  5
137
  8
0
  6
CONTINUOUS
 62
     7
 66
     1
 10
0.0
 20
0.0
 30
0.0
  0
VERTEX
  5
407
  8
0
  6
CONTINUOUS
 62
     7
 10
384.1755241272
 20
248.6723827028
 30
0.0
  0
VERTEX
  5
408
  8
0
  6
CONTINUOUS
 62
     7
 10
385.3236287949
 20
248.4331535005
 30
0.0
  0
VERTEX
  5
409
  8
0
  6
CONTINUOUS
 62
     7
 10
386.425605428
 20
248.1123195791
 30
0.0
  0
VERTEX
  5
40A
  8
0
  6
CONTINUOUS
 62
     7
 10
387.4460965512
 20
247.7123426103
 30
0.0
  0
VERTEX
  5
40B
  8
0
  6
CONTINUOUS
 62
     7
 10
388.3688718197
 20
247.2548710012
 30
0.0
  0
VERTEX
  5
40C
  8
0
  6
CONTINUOUS
 62
     7
 10
389.2265290139
 20
246.742050519
 30
0.0
  0
VERTEX
  5
40D
  8
0
  6
CONTINUOUS
 62
     7
 10
389.9463921902
 20
246.24402987
 30
0.0
  0
VERTEX
  5
40E
  8
0
  6
CONTINUOUS
 62
     7
 10
390.4527753708
 20
245.8518968725
 30
0.0
  0
VERTEX
  5
40F
  8
0
  6
CONTINUOUS
 62
     7
 10
390.8227175591
 20
245.5351637506
 30
0.0
  0
VERTEX
  5
410
  8
0
  6
CONTINUOUS
 62
     7
 10
390.9715503571
 20
245.393727889
 30
0.0
  0
VERTEX
  5
411
  8
0
  6
CONTINUOUS
 62
     7
 10
391.0620778916
 20
245.294557681
 30
0.0
  0
SEQEND
  5
4FA
  8
0
  6
CONTINUOUS
 62
     7
  0
POLYLINE
  5
138
  8
0
  6
CONTINUOUS
 62
     7
 66
     1
 10
0.0
 20
0.0
 30
0.0
  0
VERTEX
  5
412
  8
0
  6
CONTINUOUS
 62
     7
 10
324.7707851348
 20
249.1303788328
 30
0.0
  0
VERTEX
  5
413
  8
0
  6
CONTINUOUS
 62
     7
 10
325.3542035935
 20
249.3480251932
 30
0.0
  0
VERTEX
  5
414
  8
0
  6
CONTINUOUS
 62
     7
 10
326.1239796994
 20
249.5378361845
 30
0.0
  0
VERTEX
  5
415
  8
0
  6
CONTINUOUS
 62
     7
 10
327.0142078516
 20
249.6758090162
 30
0.0
  0
VERTEX
  5
416
  8
0
  6
CONTINUOUS
 62
     7
 10
328.0489310739
 20
249.759732356
 30
0.0
  0
VERTEX
  5
417
  8
0
  6
CONTINUOUS
 62
     7
 10
328.7205457804
 20
249.7804866933
 30
0.0
  0
VERTEX
  5
418
  8
0
  6
CONTINUOUS
 62
     7
 10
329.4256582973
 20
249.7790621423
 30
0.0
  0
SEQEND
  5
4F9
  8
0
  6
CONTINUOUS
 62
     7
  0
ARC
  5
139
  8
0
  6
CONTINUOUS
 62
     7
 10
371.2602069694
 20
149.4898064242
 30
0.0
 40
109.9523078994893
 50
115.0124018468
 51
117.0454636396
  0
POLYLINE
  5
13A
  8
0
  6
CONTINUOUS
 62
     7
 66
     1
 10
0.0
 20
0.0
 30
0.0
  0
VERTEX
  5
419
  8
0
  6
CONTINUOUS
 62
     7
 10
392.4978584168
 20
243.3363722467
 30
0.0
  0
VERTEX
  5
41A
  8
0
  6
CONTINUOUS
 62
     7
 10
392.5036698697
 20
243.3278309011
 30
0.0
  0
VERTEX
  5
41B
  8
0
  6
CONTINUOUS
 62
     7
 10
392.4191385624
 20
243.4511052274
 30
0.0
  0
VERTEX
  5
41C
  8
0
  6
CONTINUOUS
 62
     7
 10
392.2321409104
 20
243.7198744917
 30
0.0
  0
VERTEX
  5
41D
  8
0
  6
CONTINUOUS
 62
     7
 10
392.0253247139
 20
244.0118895673
 30
0.0
  0
VERTEX
  5
41E
  8
0
  6
CONTINUOUS
 62
     7
 10
391.7614728329
 20
244.3757878446
 30
0.0
  0
VERTEX
  5
41F
  8
0
  6
CONTINUOUS
 62
     7
 10
391.440209758
 20
244.8060082101
 30
0.0
  0
VERTEX
  5
420
  8
0
  6
CONTINUOUS
 62
     7
 10
391.0620778916
 20
245.294557681
 30
0.0
  0
SEQEND
  5
4F8
  8
0
  6
CONTINUOUS
 62
     7
  0
POLYLINE
  5
13B
  8
0
  6
CONTINUOUS
 62
     7
 66
     1
 10
0.0
 20
0.0
 30
0.0
  0
VERTEX
  5
421
  8
0
  6
CONTINUOUS
 62
     7
 10
384.1755241272
 20
248.6723886633
 30
0.0
  0
VERTEX
  5
422
  8
0
  6
CONTINUOUS
 62
     7
 10
381.7784994957
 20
248.9687250757
 30
0.0
  0
VERTEX
  5
423
  8
0
  6
CONTINUOUS
 62
     7
 10
379.4388085721
 20
249.0990089082
 30
0.0
  0
VERTEX
  5
424
  8
0
  6
CONTINUOUS
 62
     7
 10
377.1444052575
 20
249.1222547197
 30
0.0
  0
VERTEX
  5
425
  8
0
  6
CONTINUOUS
 62
     7
 10
374.8865336297
 20
249.0903543138
 30
0.0
  0
VERTEX
  5
426
  8
0
  6
CONTINUOUS
 62
     7
 10
372.6560026524
 20
249.0540074014
 30
0.0
  0
VERTEX
  5
427
  8
0
  6
CONTINUOUS
 62
     7
 10
370.4285651562
 20
249.0526066923
 30
0.0
  0
VERTEX
  5
428
  8
0
  6
CONTINUOUS
 62
     7
 10
368.1876629708
 20
249.0844594144
 30
0.0
  0
VERTEX
  5
429
  8
0
  6
CONTINUOUS
 62
     7
 10
361.9816035149
 20
249.2360340261
 30
0.0
  0
VERTEX
  5
42A
  8
0
  6
CONTINUOUS
 62
     7
 10
355.7776630042
 20
249.3417488241
 30
0.0
  0
VERTEX
  5
42B
  8
0
  6
CONTINUOUS
 62
     7
 10
352.4801463006
 20
249.3886099958
 30
0.0
  0
VERTEX
  5
42C
  8
0
  6
CONTINUOUS
 62
     7
 10
349.1798788426
 20
249.4414614343
 30
0.0
  0
VERTEX
  5
42D
  8
0
  6
CONTINUOUS
 62
     7
 10
345.8790570614
 20
249.4990156793
 30
0.0
  0
VERTEX
  5
42E
  8
0
  6
CONTINUOUS
 62
     7
 10
342.5808668253
 20
249.5574461126
 30
0.0
  0
VERTEX
  5
42F
  8
0
  6
CONTINUOUS
 62
     7
 10
339.2856836436
 20
249.6140586042
 30
0.0
  0
VERTEX
  5
430
  8
0
  6
CONTINUOUS
 62
     7
 10
335.9935432789
 20
249.6697889471
 30
0.0
  0
VERTEX
  5
431
  8
0
  6
CONTINUOUS
 62
     7
 10
332.7172681806
 20
249.724327197
 30
0.0
  0
VERTEX
  5
432
  8
0
  6
CONTINUOUS
 62
     7
 10
329.4256642578
 20
249.7791396284
 30
0.0
  0
SEQEND
  5
4F7
  8
0
  6
CONTINUOUS
 62
     7
  0
POLYLINE
  5
13C
  8
0
  6
CONTINUOUS
 62
     7
 66
     1
 10
0.0
 20
0.0
 30
0.0
  0
VERTEX
  5
433
  8
0
  6
CONTINUOUS
 62
     7
 10
362.5882655499
 20
248.0391429567
 30
0.0
  0
VERTEX
  5
434
  8
0
  6
CONTINUOUS
 62
     7
 10
364.9940699456
 20
247.9978071355
 30
0.0
  0
VERTEX
  5
435
  8
0
  6
CONTINUOUS
 62
     7
 10
368.7895387528
 20
247.9065047407
 30
0.0
  0
VERTEX
  5
436
  8
0
  6
CONTINUOUS
 62
     7
 10
372.5861102459
 20
247.8646801614
 30
0.0
  0
SEQEND
  5
4F6
  8
0
  6
CONTINUOUS
 62
     7
  0
POLYLINE
  5
13D
  8
0
  6
CONTINUOUS
 62
     7
 66
     1
 10
0.0
 20
0.0
 30
0.0
  0
VERTEX
  5
437
  8
0
  6
CONTINUOUS
 62
     7
 10
344.4768369315
 20
248.4719442033
 30
0.0
  0
VERTEX
  5
438
  8
0
  6
CONTINUOUS
 62
     7
 10
346.8852222083
 20
248.5297130251
 30
0.0
  0
VERTEX
  5
439
  8
0
  6
CONTINUOUS
 62
     7
 10
349.742928159
 20
248.401116004
 30
0.0
  0
VERTEX
  5
43A
  8
0
  6
CONTINUOUS
 62
     7
 10
352.5883942959
 20
248.2141898775
 30
0.0
  0
SEQEND
  5
4F5
  8
0
  6
CONTINUOUS
 62
     7
  0
LINE
  5
13E
  8
0
  6
CONTINUOUS
 62
     7
 10
342.6239818451
 20
248.3875917101
 30
0.0
 11
344.4768369315
 21
248.4719442033
 31
0.0
  0
POLYLINE
  5
13F
  8
0
  6
CONTINUOUS
 62
     7
 66
     1
 10
0.0
 20
0.0
 30
0.0
  0
VERTEX
  5
43B
  8
0
  6
CONTINUOUS
 62
     7
 10
332.5970411417
 20
248.5626505518
 30
0.0
  0
VERTEX
  5
43C
  8
0
  6
CONTINUOUS
 62
     7
 10
333.7768018363
 20
248.6458109522
 30
0.0
  0
VERTEX
  5
43D
  8
0
  6
CONTINUOUS
 62
     7
 10
334.9713012693
 20
248.6392484808
 30
0.0
  0
VERTEX
  5
43E
  8
0
  6
CONTINUOUS
 62
     7
 10
336.2919449923
 20
248.566298356
 30
0.0
  0
VERTEX
  5
43F
  8
0
  6
CONTINUOUS
 62
     7
 10
337.6167699811
 20
248.4751032495
 30
0.0
  0
SEQEND
  5
4F4
  8
0
  6
CONTINUOUS
 62
     7
  0
ARC
  5
140
  8
0
  6
CONTINUOUS
 62
     7
 10
308.8822696564
 20
230.715604701
 30
0.0
 40
1.000000000000028
 50
90.0
 51
180.0
  0
LINE
  5
141
  8
0
  6
CONTINUOUS
 62
     7
 10
308.8822696475
 20
231.7156063223
 30
0.0
 11
318.0822696654
 21
231.7156063223
 31
0.0
  0
ARC
  5
142
  8
0
  6
CONTINUOUS
 62
     7
 10
318.0822696564
 20
230.715604701
 30
0.0
 40
1.000000000000028
 50
0.0
 51
90.0
  0
LINE
  5
143
  8
0
  6
CONTINUOUS
 62
     7
 10
319.0822698293
 20
230.7156072759
 30
0.0
 11
319.0822698293
 21
223.3156071806
 31
0.0
  0
LINE
  5
144
  8
0
  6
CONTINUOUS
 62
     7
 10
318.4822697309
 20
230.7156072759
 30
0.0
 11
318.4822697309
 21
230.1156030798
 31
0.0
  0
ARC
  5
145
  8
0
  6
CONTINUOUS
 62
     7
 10
318.0822696564
 20
230.715604701
 30
0.0
 40
0.4000000000000341
 50
0.0
 51
90.0
  0
LINE
  5
146
  8
0
  6
CONTINUOUS
 62
     7
 10
308.8822696475
 20
231.1156021261
 30
0.0
 11
309.4822697458
 21
231.1156021261
 31
0.0
  0
LINE
  5
147
  8
0
  6
CONTINUOUS
 62
     7
 10
317.482269567
 20
231.1156021261
 30
0.0
 11
318.0822696654
 21
231.1156021261
 31
0.0
  0
ARC
  5
148
  8
0
  6
CONTINUOUS
 62
     7
 10
308.8822696564
 20
230.715604701
 30
0.0
 40
0.4000000000000057
 50
90.0
 51
180.0
  0
LINE
  5
149
  8
0
  6
CONTINUOUS
 62
     7
 10
308.4822695819
 20
230.1156030798
 30
0.0
 11
308.4822695819
 21
230.7156072759
 31
0.0
  0
LINE
  5
14A
  8
0
  6
CONTINUOUS
 62
     7
 10
307.8822694836
 20
223.3156071806
 30
0.0
 11
307.8822694836
 21
230.7156072759
 31
0.0
  0
LINE
  5
14B
  8
0
  6
CONTINUOUS
 62
     7
 10
308.4822695819
 20
221.3156031274
 30
0.0
 11
307.8822694836
 21
221.3156031274
 31
0.0
  0
LINE
  5
14C
  8
0
  6
CONTINUOUS
 62
     7
 10
307.8822694836
 20
221.3156031274
 30
0.0
 11
307.8822694836
 21
223.3156071806
 31
0.0
  0
LINE
  5
14D
  8
0
  6
CONTINUOUS
 62
     7
 10
308.4822695819
 20
222.1156047487
 30
0.0
 11
308.4822695819
 21
221.3156031274
 31
0.0
  0
LINE
  5
14E
  8
0
  6
CONTINUOUS
 62
     7
 10
319.0822698293
 20
221.3156031274
 30
0.0
 11
318.4822697309
 21
221.3156031274
 31
0.0
  0
LINE
  5
14F
  8
0
  6
CONTINUOUS
 62
     7
 10
318.4822697309
 20
221.3156031274
 30
0.0
 11
318.4822697309
 21
222.1156047487
 31
0.0
  0
LINE
  5
150
  8
0
  6
CONTINUOUS
 62
     7
 10
319.0822698293
 20
223.3156071806
 30
0.0
 11
319.0822698293
 21
221.3156031274
 31
0.0
  0
ARC
  5
151
  8
0
  6
CONTINUOUS
 62
     7
 10
377.9822696564
 20
245.1672348192
 30
0.0
 40
2.0
 50
280.7804509646
 51
0.0
  0
ARC
  5
152
  8
0
  6
CONTINUOUS
 62
     7
 10
303.5379010992
 20
636.1429834151
 30
0.0
 40
400.0000000000002
 50
274.5077079787
 51
280.7804509646
  0
ARC
  5
153
  8
0
  6
CONTINUOUS
 62
     7
 10
322.4002714786
 20
396.8853587013
 30
0.0
 40
160.0000000000002
 50
273.0746772222
 51
274.5077079787
  0
ARC
  5
154
  8
0
  6
CONTINUOUS
 62
     7
 10
331.6795570084
 20
224.1343967357
 30
0.0
 40
13.0
 50
93.0746772222
 51
121.4611845106
  0
ARC
  5
155
  8
0
  6
CONTINUOUS
 62
     7
 10
326.9822696564
 20
231.8113421916
 30
0.0
 40
4.000000000000031
 50
121.4611845106
 51
180.0
  0
LINE
  5
156
  8
0
  6
CONTINUOUS
 62
     7
 10
322.9822695372
 20
229.9156056547
 30
0.0
 11
322.9822695372
 21
231.8113433027
 31
0.0
  0
ARC
  5
157
  8
0
  6
CONTINUOUS
 62
     7
 10
320.9822696564
 20
229.915604701
 30
0.0
 40
2.0
 50
270.0
 51
0.0
  0
LINE
  5
158
  8
0
  6
CONTINUOUS
 62
     7
 10
319.0822698293
 20
227.915607562
 30
0.0
 11
320.9822699544
 21
227.915607562
 31
0.0
  0
LINE
  5
159
  8
0
  6
CONTINUOUS
 62
     7
 10
306.8822696922
 20
227.915607562
 30
0.0
 11
307.8822694836
 21
227.915607562
 31
0.0
  0
ARC
  5
15A
  8
0
  6
CONTINUOUS
 62
     7
 10
306.8822696564
 20
229.915604701
 30
0.0
 40
2.0
 50
180.0
 51
270.0
  0
ARC
  5
15B
  8
0
  6
CONTINUOUS
 62
     7
 10
323.1124446933
 20
226.6899911601
 30
0.0
 40
19.99999999999993
 50
102.5040575207
 51
148.4862321611
  0
LINE
  5
15C
  8
0
  6
CONTINUOUS
 62
     7
 10
318.7822695938
 20
246.2156044149
 30
0.0
 11
318.7822695938
 21
246.4183913374
 31
0.0
  0
LINE
  5
15D
  8
0
  6
CONTINUOUS
 62
     7
 10
379.9822718022
 20
246.4183913374
 30
0.0
 11
379.9822718022
 21
245.1672361993
 31
0.0
  0
ARC
  5
15E
  8
0
  6
CONTINUOUS
 62
     7
 10
312.8822696564
 20
232.9624323686
 30
0.0
 40
8.000000000000057
 50
148.4862321611
 51
180.0
  0
LINE
  5
15F
  8
0
  6
CONTINUOUS
 62
     7
 10
304.8822693644
 20
232.9624341631
 30
0.0
 11
304.8822693644
 21
229.9156056547
 31
0.0
  0
LINE
  5
160
  8
0
  6
CONTINUOUS
 62
     7
 10
318.7822695938
 20
247.4104629659
 30
0.0
 11
318.8390888391
 21
247.4104629659
 31
0.0
  0
LINE
  5
161
  8
0
  6
CONTINUOUS
 62
     7
 10
318.8390888391
 20
247.4104629659
 30
0.0
 11
318.8477400807
 21
247.4123524332
 31
0.0
  0
LINE
  5
162
  8
0
  6
CONTINUOUS
 62
     7
 10
379.9822718022
 20
247.4183903837
 30
0.0
 11
379.9822718022
 21
246.4183913374
 31
0.0
  0
LINE
  5
163
  8
0
  6
CONTINUOUS
 62
     7
 10
318.7822695938
 20
246.4183913374
 30
0.0
 11
318.7822695938
 21
247.4104629659
 31
0.0
  0
ARC
  5
164
  8
0
  6
CONTINUOUS
 62
     7
 10
224.9466209235
 20
24.0717207812
 30
0.0
 40
8.130070049081276
 50
287.2567479278
 51
289.6913094466
  0
ARC
  5
165
  8
0
  6
CONTINUOUS
 62
     7
 10
164.2025281078
 20
24.436535536
 30
0.0
 40
8.510739561511588
 50
250.4724682313
 51
252.7375622255
  0
ARC
  5
166
  8
0
  6
CONTINUOUS
 62
     7
 10
104.9466343417
 20
24.0716095991
 30
0.0
 40
8.129960244972878
 50
287.2568980878
 51
289.6914725677
  0
ARC
  5
167
  8
0
  6
CONTINUOUS
 62
     7
 10
44.2032476767
 20
24.4387755641
 30
0.0
 40
8.513091866242235
 50
250.4729318557
 51
252.737418923
  0
LINE
  5
168
  8
0
  6
CONTINUOUS
 62
     7
 10
238.1199385273
 20
98.1988104018
 30
0.0
 11
238.1199385273
 21
97.5988103034
 31
0.0
  0
ARC
  5
169
  8
0
  6
CONTINUOUS
 62
     7
 10
237.7199371921
 20
98.1988103928
 30
0.0
 40
0.4000000000000199
 50
0.0
 51
90.0
  0
LINE
  5
16A
  8
0
  6
CONTINUOUS
 62
     7
 10
31.3199426281
 20
98.5988104673
 30
0.0
 11
32.0199395763
 21
98.5988104673
 31
0.0
  0
LINE
  5
16B
  8
0
  6
CONTINUOUS
 62
     7
 10
42.019936
 20
98.5988104673
 30
0.0
 11
107.0199365961
 21
98.5988104673
 31
0.0
  0
LINE
  5
16C
  8
0
  6
CONTINUOUS
 62
     7
 10
117.0199374901
 20
98.5988104673
 30
0.0
 11
152.0199368941
 21
98.5988104673
 31
0.0
  0
LINE
  5
16D
  8
0
  6
CONTINUOUS
 62
     7
 10
162.0199377882
 20
98.5988104673
 30
0.0
 11
227.0199383842
 21
98.5988104673
 31
0.0
  0
LINE
  5
16E
  8
0
  6
CONTINUOUS
 62
     7
 10
237.0199348079
 20
98.5988104673
 30
0.0
 11
237.7199317562
 21
98.5988104673
 31
0.0
  0
LINE
  5
16F
  8
0
  6
CONTINUOUS
 62
     7
 10
30.919935857
 20
97.5988103034
 30
0.0
 11
30.919935857
 21
98.1988104018
 31
0.0
  0
ARC
  5
170
  8
0
  6
CONTINUOUS
 62
     7
 10
31.3199371921
 20
98.1988103928
 30
0.0
 40
0.4000000000000199
 50
90.0
 51
180.0
  0
LINE
  5
171
  8
0
  6
CONTINUOUS
 62
     7
 10
30.919935857
 20
89.5988104822
 30
0.0
 11
30.919935857
 21
97.5988103034
 31
0.0
  0
LINE
  5
172
  8
0
  6
CONTINUOUS
 62
     7
 10
238.1199385273
 20
97.5988103034
 30
0.0
 11
238.1199385273
 21
89.5988104822
 31
0.0
  0
LINE
  5
173
  8
0
  6
CONTINUOUS
 62
     7
 10
237.7199317562
 20
88.5988103183
 30
0.0
 11
237.0199348079
 21
88.5988103183
 31
0.0
  0
LINE
  5
174
  8
0
  6
CONTINUOUS
 62
     7
 10
227.0199383842
 20
88.5988103183
 30
0.0
 11
204.8827375518
 21
88.5988103183
 31
0.0
  0
LINE
  5
175
  8
0
  6
CONTINUOUS
 62
     7
 10
184.1224487173
 20
88.5988103183
 30
0.0
 11
162.0199377882
 21
88.5988103183
 31
0.0
  0
LINE
  5
176
  8
0
  6
CONTINUOUS
 62
     7
 10
152.0199368941
 20
88.5988103183
 30
0.0
 11
117.0199374901
 21
88.5988103183
 31
0.0
  0
LINE
  5
177
  8
0
  6
CONTINUOUS
 62
     7
 10
107.0199365961
 20
88.5988103183
 30
0.0
 11
84.8827387439
 21
88.5988103183
 31
0.0
  0
LINE
  5
178
  8
0
  6
CONTINUOUS
 62
     7
 10
64.1224469291
 20
88.5988103183
 30
0.0
 11
42.019936
 21
88.5988103183
 31
0.0
  0
LINE
  5
179
  8
0
  6
CONTINUOUS
 62
     7
 10
32.0199395763
 20
88.5988103183
 30
0.0
 11
31.3199426281
 21
88.5988103183
 31
0.0
  0
ARC
  5
17A
  8
0
  6
CONTINUOUS
 62
     7
 10
31.3199371921
 20
88.9988103928
 30
0.0
 40
0.4000000000000057
 50
180.0
 51
270.0
  0
LINE
  5
17B
  8
0
  6
CONTINUOUS
 62
     7
 10
30.919935857
 20
88.9988103839
 30
0.0
 11
30.919935857
 21
89.5988104822
 31
0.0
  0
LINE
  5
17C
  8
0
  6
CONTINUOUS
 62
     7
 10
238.1199385273
 20
89.5988104822
 30
0.0
 11
238.1199385273
 21
88.9988103839
 31
0.0
  0
ARC
  5
17D
  8
0
  6
CONTINUOUS
 62
     7
 10
237.7199371921
 20
88.9988103928
 30
0.0
 40
0.4000000000000057
 50
270.0
 51
0.0
  0
POLYLINE
  5
17E
  8
0
  6
CONTINUOUS
 62
     7
 66
     1
 10
0.0
 20
0.0
 30
0.0
  0
VERTEX
  5
440
  8
0
  6
CONTINUOUS
 62
     7
 10
48.9113237011
 20
84.7433036151
 30
0.0
  0
VERTEX
  5
441
  8
0
  6
CONTINUOUS
 62
     7
 10
48.5253478634
 20
86.9554458144
 30
0.0
  0
VERTEX
  5
442
  8
0
  6
CONTINUOUS
 62
     7
 10
48.2797946083
 20
88.5988103183
 30
0.0
  0
SEQEND
  5
4F3
  8
0
  6
CONTINUOUS
 62
     7
  0
LINE
  5
17F
  8
0
  6
CONTINUOUS
 62
     7
 10
47.5261892425
 20
98.5988104673
 30
0.0
 11
47.5199367153
 21
99.5988102587
 31
0.0
  0
LINE
  5
180
  8
0
  6
CONTINUOUS
 62
     7
 10
47.5199367153
 20
101.598810214
 30
0.0
 11
47.5199367153
 21
99.5988102587
 31
0.0
  0
ARC
  5
181
  8
0
  6
CONTINUOUS
 62
     7
 10
51.5199371921
 20
101.5988103928
 30
0.0
 40
4.000000000000007
 50
90.0
 51
180.0
  0
LINE
  5
182
  8
0
  6
CONTINUOUS
 62
     7
 10
67.5199355232
 20
105.5988101246
 30
0.0
 11
51.519938861
 21
105.5988101246
 31
0.0
  0
ARC
  5
183
  8
0
  6
CONTINUOUS
 62
     7
 10
67.5199371921
 20
101.5988103928
 30
0.0
 40
4.000000000000014
 50
0.0
 51
90.0
  0
LINE
  5
184
  8
0
  6
CONTINUOUS
 62
     7
 10
71.519937669
 20
99.5988102587
 30
0.0
 11
71.519937669
 21
101.598810214
 31
0.0
  0
LINE
  5
185
  8
0
  6
CONTINUOUS
 62
     7
 10
71.519937669
 20
99.5988102587
 30
0.0
 11
71.5136851417
 21
98.5988104673
 31
0.0
  0
CIRCLE
  5
186
  8
0
  6
CONTINUOUS
 62
     7
 10
51.5199371921
 20
101.5988103928
 30
0.0
 40
1.5
  0
CIRCLE
  5
187
  8
0
  6
CONTINUOUS
 62
     7
 10
67.5199371921
 20
101.5988103928
 30
0.0
 40
1.5
  0
ARC
  5
188
  8
0
  6
CONTINUOUS
 62
     7
 10
217.5199371921
 20
101.5988103928
 30
0.0
 40
4.000000000000028
 50
0.0
 51
90.0
  0
LINE
  5
189
  8
0
  6
CONTINUOUS
 62
     7
 10
221.519937669
 20
99.5988102587
 30
0.0
 11
221.519937669
 21
101.598810214
 31
0.0
  0
LINE
  5
18A
  8
0
  6
CONTINUOUS
 62
     7
 10
221.519937669
 20
99.5988102587
 30
0.0
 11
221.5136851417
 21
98.5988104673
 31
0.0
  0
POLYLINE
  5
18B
  8
0
  6
CONTINUOUS
 62
     7
 66
     1
 10
0.0
 20
0.0
 30
0.0
  0
VERTEX
  5
443
  8
0
  6
CONTINUOUS
 62
     7
 10
220.760079776
 20
88.5988103183
 30
0.0
  0
VERTEX
  5
444
  8
0
  6
CONTINUOUS
 62
     7
 10
220.5145265209
 20
86.9554458144
 30
0.0
  0
VERTEX
  5
445
  8
0
  6
CONTINUOUS
 62
     7
 10
220.1283897506
 20
84.7424535038
 30
0.0
  0
SEQEND
  5
4F2
  8
0
  6
CONTINUOUS
 62
     7
  0
LINE
  5
18C
  8
0
  6
CONTINUOUS
 62
     7
 10
197.5261892425
 20
98.5988104673
 30
0.0
 11
197.5199367153
 21
99.5988102587
 31
0.0
  0
LINE
  5
18D
  8
0
  6
CONTINUOUS
 62
     7
 10
197.5199367153
 20
101.598810214
 30
0.0
 11
197.5199367153
 21
99.5988102587
 31
0.0
  0
ARC
  5
18E
  8
0
  6
CONTINUOUS
 62
     7
 10
201.5199371921
 20
101.5988103928
 30
0.0
 40
4.0
 50
90.0
 51
180.0
  0
LINE
  5
18F
  8
0
  6
CONTINUOUS
 62
     7
 10
217.5199355232
 20
105.5988101246
 30
0.0
 11
201.519938861
 21
105.5988101246
 31
0.0
  0
CIRCLE
  5
190
  8
0
  6
CONTINUOUS
 62
     7
 10
217.5199371921
 20
101.5988103928
 30
0.0
 40
1.5
  0
CIRCLE
  5
191
  8
0
  6
CONTINUOUS
 62
     7
 10
201.5199371921
 20
101.5988103928
 30
0.0
 40
1.5
  0
ARC
  5
192
  8
0
  6
CONTINUOUS
 62
     7
 10
194.5199380862
 20
16.0223111842
 30
0.0
 40
73.33970133414114
 50
64.3650302506
 51
115.6349697494
  0
ARC
  5
193
  8
0
  6
CONTINUOUS
 62
     7
 10
194.5199380862
 20
16.0100312527
 30
0.0
 40
73.33114539593397
 50
64.7052198057
 51
115.2947801943
  0
ARC
  5
194
  8
0
  6
CONTINUOUS
 62
     7
 10
166.3977133341
 20
75.6993377969
 30
0.0
 40
7.349236256921651
 50
115.9018834053
 51
164.5640175698
  0
ARC
  5
195
  8
0
  6
CONTINUOUS
 62
     7
 10
222.6582198845
 20
75.7127026491
 30
0.0
 40
7.330204822447529
 50
15.3686942198
 51
64.1653831319
  0
POLYLINE
  5
196
  8
0
  6
CONTINUOUS
 62
     7
 66
     1
 10
0.0
 20
0.0
 30
0.0
  0
VERTEX
  5
446
  8
0
  6
CONTINUOUS
 62
     7
 10
229.7262813198
 20
77.6554157915
 30
0.0
  0
VERTEX
  5
447
  8
0
  6
CONTINUOUS
 62
     7
 10
230.6433464634
 20
74.3638118687
 30
0.0
  0
VERTEX
  5
448
  8
0
  6
CONTINUOUS
 62
     7
 10
231.2445189106
 20
71.0875367703
 30
0.0
  0
VERTEX
  5
449
  8
0
  6
CONTINUOUS
 62
     7
 10
231.6020454513
 20
67.7953964057
 30
0.0
  0
VERTEX
  5
44A
  8
0
  6
CONTINUOUS
 62
     7
 10
231.8168009864
 20
64.5002132239
 30
0.0
  0
VERTEX
  5
44B
  8
0
  6
CONTINUOUS
 62
     7
 10
231.8985487568
 20
61.2020229878
 30
0.0
  0
VERTEX
  5
44C
  8
0
  6
CONTINUOUS
 62
     7
 10
231.8953837501
 20
57.9012012067
 30
0.0
  0
VERTEX
  5
44D
  8
0
  6
CONTINUOUS
 62
     7
 10
231.8682815181
 20
54.6009337487
 30
0.0
  0
VERTEX
  5
44E
  8
0
  6
CONTINUOUS
 62
     7
 10
231.86612383
 20
51.3034170451
 30
0.0
  0
VERTEX
  5
44F
  8
0
  6
CONTINUOUS
 62
     7
 10
231.9130624878
 20
44.9832683387
 30
0.0
  0
VERTEX
  5
450
  8
0
  6
CONTINUOUS
 62
     7
 10
231.9471503841
 20
38.6625384869
 30
0.0
  0
VERTEX
  5
451
  8
0
  6
CONTINUOUS
 62
     7
 10
231.9561566459
 20
32.4093079152
 30
0.0
  0
VERTEX
  5
452
  8
0
  6
CONTINUOUS
 62
     7
 10
231.9579686271
 20
30.5645858827
 30
0.0
  0
VERTEX
  5
453
  8
0
  6
CONTINUOUS
 62
     7
 10
231.9624628173
 20
28.697059113
 30
0.0
  0
VERTEX
  5
454
  8
0
  6
CONTINUOUS
 62
     7
 10
231.9716538536
 20
26.8016969743
 30
0.0
  0
VERTEX
  5
455
  8
0
  6
CONTINUOUS
 62
     7
 10
231.9876457798
 20
24.8741304459
 30
0.0
  0
VERTEX
  5
456
  8
0
  6
CONTINUOUS
 62
     7
 10
232.0117379772
 20
22.905555922
 30
0.0
  0
SEQEND
  5
4F1
  8
0
  6
CONTINUOUS
 62
     7
  0
ARC
  5
197
  8
0
  6
CONTINUOUS
 62
     7
 10
225.2916061992
 20
22.7121910161
 30
0.0
 40
6.722913140893539
 50
275.3898256084
 51
1.6481725824
  0
ARC
  5
198
  8
0
  6
CONTINUOUS
 62
     7
 10
194.5199365961
 20
355.9499418592
 30
0.0
 40
341.3783859847036
 50
264.7219388452
 51
275.2780611548
  0
ARC
  5
199
  8
0
  6
CONTINUOUS
 62
     7
 10
163.7382837838
 20
22.7033659706
 30
0.0
 40
6.713195557275396
 50
178.274088261
 51
264.687927465
  0
POLYLINE
  5
19A
  8
0
  6
CONTINUOUS
 62
     7
 66
     1
 10
0.0
 20
0.0
 30
0.0
  0
VERTEX
  5
457
  8
0
  6
CONTINUOUS
 62
     7
 10
157.0281337248
 20
22.905555922
 30
0.0
  0
VERTEX
  5
458
  8
0
  6
CONTINUOUS
 62
     7
 10
157.0564518916
 20
25.3025805535
 30
0.0
  0
VERTEX
  5
459
  8
0
  6
CONTINUOUS
 62
     7
 10
157.0729906904
 20
27.6422714772
 30
0.0
  0
VERTEX
  5
45A
  8
0
  6
CONTINUOUS
 62
     7
 10
157.0807869779
 20
29.9366747918
 30
0.0
  0
VERTEX
  5
45B
  8
0
  6
CONTINUOUS
 62
     7
 10
157.0835794555
 20
32.1945464196
 30
0.0
  0
VERTEX
  5
45C
  8
0
  6
CONTINUOUS
 62
     7
 10
157.0849816548
 20
34.4250773969
 30
0.0
  0
VERTEX
  5
45D
  8
0
  6
CONTINUOUS
 62
     7
 10
157.0878918516
 20
36.652514893
 30
0.0
  0
VERTEX
  5
45E
  8
0
  6
CONTINUOUS
 62
     7
 10
157.0934335934
 20
38.8934170785
 30
0.0
  0
VERTEX
  5
45F
  8
0
  6
CONTINUOUS
 62
     7
 10
157.1277584182
 20
45.0994765344
 30
0.0
  0
VERTEX
  5
460
  8
0
  6
CONTINUOUS
 62
     7
 10
157.1737493621
 20
51.3034170451
 30
0.0
  0
VERTEX
  5
461
  8
0
  6
CONTINUOUS
 62
     7
 10
157.171591674
 20
54.6009337487
 30
0.0
  0
VERTEX
  5
462
  8
0
  6
CONTINUOUS
 62
     7
 10
157.1444909321
 20
57.9012012067
 30
0.0
  0
VERTEX
  5
463
  8
0
  6
CONTINUOUS
 62
     7
 10
157.1413259255
 20
61.2020229878
 30
0.0
  0
VERTEX
  5
464
  8
0
  6
CONTINUOUS
 62
     7
 10
157.2230722057
 20
64.5002132239
 30
0.0
  0
VERTEX
  5
465
  8
0
  6
CONTINUOUS
 62
     7
 10
157.4378307211
 20
67.7953964057
 30
0.0
  0
VERTEX
  5
466
  8
0
  6
CONTINUOUS
 62
     7
 10
157.7953527915
 20
71.0875367703
 30
0.0
  0
VERTEX
  5
467
  8
0
  6
CONTINUOUS
 62
     7
 10
158.3965267288
 20
74.3638118687
 30
0.0
  0
VERTEX
  5
468
  8
0
  6
CONTINUOUS
 62
     7
 10
159.3135933625
 20
77.6554157915
 30
0.0
  0
SEQEND
  5
4F0
  8
0
  6
CONTINUOUS
 62
     7
  0
ARC
  5
19B
  8
0
  6
CONTINUOUS
 62
     7
 10
222.993715058
 20
75.536644265
 30
0.0
 40
7.365063780396264
 50
15.5445901336
 51
63.7661300822
  0
ARC
  5
19C
  8
0
  6
CONTINUOUS
 62
     7
 10
166.0282999126
 20
75.5514471516
 30
0.0
 40
7.343896451029599
 50
116.1599239314
 51
164.5293340052
  0
POLYLINE
  5
19D
  8
0
  6
CONTINUOUS
 62
     7
 66
     1
 10
0.0
 20
0.0
 30
0.0
  0
VERTEX
  5
469
  8
0
  6
CONTINUOUS
 62
     7
 10
230.0893808948
 20
77.5103947105
 30
0.0
  0
VERTEX
  5
46A
  8
0
  6
CONTINUOUS
 62
     7
 10
230.5232967483
 20
75.9972399058
 30
0.0
  0
VERTEX
  5
46B
  8
0
  6
CONTINUOUS
 62
     7
 10
230.921271001
 20
74.4840821209
 30
0.0
  0
SEQEND
  5
4EF
  8
0
  6
CONTINUOUS
 62
     7
  0
ARC
  5
19E
  8
0
  6
CONTINUOUS
 62
     7
 10
172.2786388863
 20
62.5421170794
 30
0.0
 40
59.84602014342695
 50
6.6420820492
 51
11.5103020782
  0
POLYLINE
  5
19F
  8
0
  6
CONTINUOUS
 62
     7
 66
     1
 10
0.0
 20
0.0
 30
0.0
  0
VERTEX
  5
46C
  8
0
  6
CONTINUOUS
 62
     7
 10
231.7226912128
 20
69.4642802658
 30
0.0
  0
VERTEX
  5
46D
  8
0
  6
CONTINUOUS
 62
     7
 10
231.9469536888
 20
66.9608598533
 30
0.0
  0
VERTEX
  5
46E
  8
0
  6
CONTINUOUS
 62
     7
 10
232.0914591896
 20
64.4571131053
 30
0.0
  0
SEQEND
  5
4EE
  8
0
  6
CONTINUOUS
 62
     7
  0
LINE
  5
1A0
  8
0
  6
CONTINUOUS
 62
     7
 10
232.1199382888
 20
62.6042431178
 30
0.0
 11
232.0911134826
 21
64.4570982041
 31
0.0
  0
LINE
  5
1A1
  8
0
  6
CONTINUOUS
 62
     7
 10
232.1199382888
 20
54.4926857533
 30
0.0
 11
232.1199382888
 21
62.6042431178
 31
0.0
  0
POLYLINE
  5
1A2
  8
0
  6
CONTINUOUS
 62
     7
 66
     1
 10
0.0
 20
0.0
 30
0.0
  0
VERTEX
  5
46F
  8
0
  6
CONTINUOUS
 62
     7
 10
232.1199382888
 20
54.4927036347
 30
0.0
  0
VERTEX
  5
470
  8
0
  6
CONTINUOUS
 62
     7
 10
232.1052278625
 20
51.3208394828
 30
0.0
  0
VERTEX
  5
471
  8
0
  6
CONTINUOUS
 62
     7
 10
232.1199382888
 20
44.4928144994
 30
0.0
  0
SEQEND
  5
4ED
  8
0
  6
CONTINUOUS
 62
     7
  0
POLYLINE
  5
1A3
  8
0
  6
CONTINUOUS
 62
     7
 66
     1
 10
0.0
 20
0.0
 30
0.0
  0
VERTEX
  5
472
  8
0
  6
CONTINUOUS
 62
     7
 10
232.1200098144
 20
22.8383397641
 30
0.0
  0
VERTEX
  5
473
  8
0
  6
CONTINUOUS
 62
     7
 10
232.120003854
 20
23.1462812009
 30
0.0
  0
VERTEX
  5
474
  8
0
  6
CONTINUOUS
 62
     7
 10
232.1197892772
 20
25.5581295075
 30
0.0
  0
VERTEX
  5
475
  8
0
  6
CONTINUOUS
 62
     7
 10
232.1193124401
 20
27.9426848473
 30
0.0
  0
VERTEX
  5
476
  8
0
  6
CONTINUOUS
 62
     7
 10
232.1189667331
 20
30.3060328545
 30
0.0
  0
VERTEX
  5
477
  8
0
  6
CONTINUOUS
 62
     7
 10
232.1202839958
 20
35.0148832383
 30
0.0
  0
VERTEX
  5
478
  8
0
  6
CONTINUOUS
 62
     7
 10
232.1237589466
 20
39.7487854543
 30
0.0
  0
VERTEX
  5
479
  8
0
  6
CONTINUOUS
 62
     7
 10
232.1199382888
 20
44.4928144994
 30
0.0
  0
SEQEND
  5
4EC
  8
0
  6
CONTINUOUS
 62
     7
  0
LINE
  5
1A4
  8
0
  6
CONTINUOUS
 62
     7
 10
156.9199378835
 20
44.4928144994
 30
0.0
 11
156.9199378835
 21
34.4949698033
 31
0.0
  0
POLYLINE
  5
1A5
  8
0
  6
CONTINUOUS
 62
     7
 66
     1
 10
0.0
 20
0.0
 30
0.0
  0
VERTEX
  5
47A
  8
0
  6
CONTINUOUS
 62
     7
 10
156.9199334132
 20
44.4928144994
 30
0.0
  0
VERTEX
  5
47B
  8
0
  6
CONTINUOUS
 62
     7
 10
156.9346468197
 20
51.3208394828
 30
0.0
  0
VERTEX
  5
47C
  8
0
  6
CONTINUOUS
 62
     7
 10
156.9199378835
 20
54.4927036347
 30
0.0
  0
SEQEND
  5
4EB
  8
0
  6
CONTINUOUS
 62
     7
  0
LINE
  5
1A6
  8
0
  6
CONTINUOUS
 62
     7
 10
156.9199378835
 20
62.6042431178
 30
0.0
 11
156.9199378835
 21
54.4926857533
 31
0.0
  0
LINE
  5
1A7
  8
0
  6
CONTINUOUS
 62
     7
 10
156.9487597095
 20
64.4570982041
 30
0.0
 11
156.9199378835
 21
62.6042431178
 31
0.0
  0
POLYLINE
  5
1A8
  8
0
  6
CONTINUOUS
 62
     7
 66
     1
 10
0.0
 20
0.0
 30
0.0
  0
VERTEX
  5
47D
  8
0
  6
CONTINUOUS
 62
     7
 10
156.9484125125
 20
64.4571131053
 30
0.0
  0
VERTEX
  5
47E
  8
0
  6
CONTINUOUS
 62
     7
 10
157.0929180133
 20
66.9608598533
 30
0.0
  0
VERTEX
  5
47F
  8
0
  6
CONTINUOUS
 62
     7
 10
157.3171834695
 20
69.4642802658
 30
0.0
  0
SEQEND
  5
4EA
  8
0
  6
CONTINUOUS
 62
     7
  0
ARC
  5
1A9
  8
0
  6
CONTINUOUS
 62
     7
 10
216.7188249288
 20
62.5488921259
 30
0.0
 40
59.80311031507662
 50
168.4879503506
 51
173.359665522
  0
POLYLINE
  5
1AA
  8
0
  6
CONTINUOUS
 62
     7
 66
     1
 10
0.0
 20
0.0
 30
0.0
  0
VERTEX
  5
480
  8
0
  6
CONTINUOUS
 62
     7
 10
158.1199373352
 20
74.4896715464
 30
0.0
  0
VERTEX
  5
481
  8
0
  6
CONTINUOUS
 62
     7
 10
158.5173632251
 20
76.0000353637
 30
0.0
  0
VERTEX
  5
482
  8
0
  6
CONTINUOUS
 62
     7
 10
158.9504937874
 20
77.5103947105
 30
0.0
  0
SEQEND
  5
4E9
  8
0
  6
CONTINUOUS
 62
     7
  0
POLYLINE
  5
1AB
  8
0
  6
CONTINUOUS
 62
     7
 66
     1
 10
0.0
 20
0.0
 30
0.0
  0
VERTEX
  5
483
  8
0
  6
CONTINUOUS
 62
     7
 10
156.919866358
 20
22.839287478
 30
0.0
  0
VERTEX
  5
484
  8
0
  6
CONTINUOUS
 62
     7
 10
156.919866358
 20
22.8646134915
 30
0.0
  0
VERTEX
  5
485
  8
0
  6
CONTINUOUS
 62
     7
 10
156.9200362312
 20
25.2776240888
 30
0.0
  0
VERTEX
  5
486
  8
0
  6
CONTINUOUS
 62
     7
 10
156.9205011474
 20
27.6660894933
 30
0.0
  0
VERTEX
  5
487
  8
0
  6
CONTINUOUS
 62
     7
 10
156.9208870875
 20
30.0320064607
 30
0.0
  0
VERTEX
  5
488
  8
0
  6
CONTINUOUS
 62
     7
 10
156.9207827794
 20
32.3868310037
 30
0.0
  0
VERTEX
  5
489
  8
0
  6
CONTINUOUS
 62
     7
 10
156.9199378835
 20
34.4949698033
 30
0.0
  0
SEQEND
  5
4E8
  8
0
  6
CONTINUOUS
 62
     7
  0
ARC
  5
1AC
  8
0
  6
CONTINUOUS
 62
     7
 10
225.4755157384
 20
22.7017036689
 30
0.0
 40
6.645898806713884
 50
292.5444656896
 51
1.178053328
  0
ARC
  5
1AD
  8
0
  6
CONTINUOUS
 62
     7
 10
163.5673950604
 20
22.7056811642
 30
0.0
 40
6.648871219741828
 50
178.84858754
 51
250.6417888062
  0
LINE
  5
1AE
  8
0
  6
CONTINUOUS
 62
     7
 10
231.7199374782
 20
69.4904332938
 30
0.0
 11
231.7229773151
 21
69.4643130483
 31
0.0
  0
POLYLINE
  5
1AF
  8
0
  6
CONTINUOUS
 62
     7
 66
     1
 10
0.0
 20
0.0
 30
0.0
  0
VERTEX
  5
48A
  8
0
  6
CONTINUOUS
 62
     7
 10
230.9210862266
 20
74.4840389075
 30
0.0
  0
VERTEX
  5
48B
  8
0
  6
CONTINUOUS
 62
     7
 10
231.3732709037
 20
71.998173553
 30
0.0
  0
VERTEX
  5
48C
  8
0
  6
CONTINUOUS
 62
     7
 10
231.7199374782
 20
69.4904332938
 30
0.0
  0
SEQEND
  5
4E7
  8
0
  6
CONTINUOUS
 62
     7
  0
POLYLINE
  5
1B0
  8
0
  6
CONTINUOUS
 62
     7
 66
     1
 10
0.0
 20
0.0
 30
0.0
  0
VERTEX
  5
48D
  8
0
  6
CONTINUOUS
 62
     7
 10
157.319937204
 20
69.4904332938
 30
0.0
  0
VERTEX
  5
48E
  8
0
  6
CONTINUOUS
 62
     7
 10
157.6658676612
 20
71.9935750546
 30
0.0
  0
VERTEX
  5
48F
  8
0
  6
CONTINUOUS
 62
     7
 10
158.1187884556
 20
74.4840389075
 30
0.0
  0
SEQEND
  5
4E6
  8
0
  6
CONTINUOUS
 62
     7
  0
LINE
  5
1B1
  8
0
  6
CONTINUOUS
 62
     7
 10
157.3168973672
 20
69.4643130483
 30
0.0
 11
157.319937204
 21
69.4904332938
 31
0.0
  0
LINE
  5
1B2
  8
0
  6
CONTINUOUS
 62
     7
 10
232.0911134826
 20
64.4570982041
 30
0.0
 11
232.1199382888
 21
62.6064067664
 31
0.0
  0
LINE
  5
1B3
  8
0
  6
CONTINUOUS
 62
     7
 10
156.9199378835
 20
62.6064067664
 30
0.0
 11
156.9487597095
 21
64.4570982041
 31
0.0
  0
ARC
  5
1B4
  8
0
  6
CONTINUOUS
 62
     7
 10
46.3977000052
 20
75.6993496689
 30
0.0
 40
7.349220536149536
 50
115.9018429008
 51
164.5640797475
  0
ARC
  5
1B5
  8
0
  6
CONTINUOUS
 62
     7
 10
74.519936298
 20
16.0100354283
 30
0.0
 40
73.33114162064581
 50
64.7052184116
 51
115.2947815884
  0
ARC
  5
1B6
  8
0
  6
CONTINUOUS
 62
     7
 10
102.658210647
 20
75.7126941871
 30
0.0
 40
7.330215684938127
 50
15.3687394777
 51
64.1653595472
  0
POLYLINE
  5
1B7
  8
0
  6
CONTINUOUS
 62
     7
 66
     1
 10
0.0
 20
0.0
 30
0.0
  0
VERTEX
  5
490
  8
0
  6
CONTINUOUS
 62
     7
 10
109.7262810218
 20
77.6554157915
 30
0.0
  0
VERTEX
  5
491
  8
0
  6
CONTINUOUS
 62
     7
 10
110.6433476555
 20
74.3638118687
 30
0.0
  0
VERTEX
  5
492
  8
0
  6
CONTINUOUS
 62
     7
 10
111.2445215928
 20
71.0875367703
 30
0.0
  0
VERTEX
  5
493
  8
0
  6
CONTINUOUS
 62
     7
 10
111.6020436632
 20
67.7953964057
 30
0.0
  0
VERTEX
  5
494
  8
0
  6
CONTINUOUS
 62
     7
 10
111.8168021785
 20
64.5002132239
 30
0.0
  0
VERTEX
  5
495
  8
0
  6
CONTINUOUS
 62
     7
 10
111.8985484587
 20
61.2020229878
 30
0.0
  0
VERTEX
  5
496
  8
0
  6
CONTINUOUS
 62
     7
 10
111.8953834521
 20
57.9012012067
 30
0.0
  0
VERTEX
  5
497
  8
0
  6
CONTINUOUS
 62
     7
 10
111.8682827102
 20
54.6009337487
 30
0.0
  0
VERTEX
  5
498
  8
0
  6
CONTINUOUS
 62
     7
 10
111.8661250221
 20
51.3034170451
 30
0.0
  0
VERTEX
  5
499
  8
0
  6
CONTINUOUS
 62
     7
 10
111.9130621897
 20
44.9832683387
 30
0.0
  0
VERTEX
  5
49A
  8
0
  6
CONTINUOUS
 62
     7
 10
111.9471515762
 20
38.6625384869
 30
0.0
  0
VERTEX
  5
49B
  8
0
  6
CONTINUOUS
 62
     7
 10
111.9561548578
 20
32.4093079152
 30
0.0
  0
VERTEX
  5
49C
  8
0
  6
CONTINUOUS
 62
     7
 10
111.9579713093
 20
30.5645858827
 30
0.0
  0
VERTEX
  5
49D
  8
0
  6
CONTINUOUS
 62
     7
 10
111.9624610292
 20
28.697059113
 30
0.0
  0
VERTEX
  5
49E
  8
0
  6
CONTINUOUS
 62
     7
 10
111.9716565358
 20
26.8016969743
 30
0.0
  0
VERTEX
  5
49F
  8
0
  6
CONTINUOUS
 62
     7
 10
111.9876454817
 20
24.8741304459
 30
0.0
  0
VERTEX
  5
4A0
  8
0
  6
CONTINUOUS
 62
     7
 10
112.0117406594
 20
22.905555922
 30
0.0
  0
SEQEND
  5
4E5
  8
0
  6
CONTINUOUS
 62
     7
  0
ARC
  5
1B8
  8
0
  6
CONTINUOUS
 62
     7
 10
105.2915961612
 20
22.7122023992
 30
0.0
 40
6.722925528500863
 50
275.3899117811
 51
1.648072493
  0
ARC
  5
1B9
  8
0
  6
CONTINUOUS
 62
     7
 10
74.5199377882
 20
355.9499368619
 30
0.0
 40
341.3783810085739
 50
264.7219387681
 51
275.2780612319
  0
ARC
  5
1BA
  8
0
  6
CONTINUOUS
 62
     7
 10
43.7382792796
 20
22.7033594823
 30
0.0
 40
6.713188569510125
 50
178.2740310627
 51
264.6879707465
  0
POLYLINE
  5
1BB
  8
0
  6
CONTINUOUS
 62
     7
 66
     1
 10
0.0
 20
0.0
 30
0.0
  0
VERTEX
  5
4A1
  8
0
  6
CONTINUOUS
 62
     7
 10
37.0281364071
 20
22.905555922
 30
0.0
  0
VERTEX
  5
4A2
  8
0
  6
CONTINUOUS
 62
     7
 10
37.0564545738
 20
25.3025805535
 30
0.0
  0
VERTEX
  5
4A3
  8
0
  6
CONTINUOUS
 62
     7
 10
37.0729889022
 20
27.6422714772
 30
0.0
  0
VERTEX
  5
4A4
  8
0
  6
CONTINUOUS
 62
     7
 10
37.0807851898
 20
29.9366747918
 30
0.0
  0
VERTEX
  5
4A5
  8
0
  6
CONTINUOUS
 62
     7
 10
37.0835806476
 20
32.1945464196
 30
0.0
  0
VERTEX
  5
4A6
  8
0
  6
CONTINUOUS
 62
     7
 10
37.0849813568
 20
34.4250773969
 30
0.0
  0
VERTEX
  5
4A7
  8
0
  6
CONTINUOUS
 62
     7
 10
37.0878900634
 20
36.652514893
 30
0.0
  0
VERTEX
  5
4A8
  8
0
  6
CONTINUOUS
 62
     7
 10
37.0934332954
 20
38.8934170785
 30
0.0
  0
VERTEX
  5
4A9
  8
0
  6
CONTINUOUS
 62
     7
 10
37.1277596103
 20
45.0994765344
 30
0.0
  0
VERTEX
  5
4AA
  8
0
  6
CONTINUOUS
 62
     7
 10
37.1737505542
 20
51.3034170451
 30
0.0
  0
VERTEX
  5
4AB
  8
0
  6
CONTINUOUS
 62
     7
 10
37.1715928661
 20
54.6009337487
 30
0.0
  0
VERTEX
  5
4AC
  8
0
  6
CONTINUOUS
 62
     7
 10
37.1444906341
 20
57.9012012067
 30
0.0
  0
VERTEX
  5
4AD
  8
0
  6
CONTINUOUS
 62
     7
 10
37.1413256275
 20
61.2020229878
 30
0.0
  0
VERTEX
  5
4AE
  8
0
  6
CONTINUOUS
 62
     7
 10
37.2230733978
 20
64.5002132239
 30
0.0
  0
VERTEX
  5
4AF
  8
0
  6
CONTINUOUS
 62
     7
 10
37.4378289329
 20
67.7953964057
 30
0.0
  0
VERTEX
  5
4B0
  8
0
  6
CONTINUOUS
 62
     7
 10
37.7953554737
 20
71.0875367703
 30
0.0
  0
VERTEX
  5
4B1
  8
0
  6
CONTINUOUS
 62
     7
 10
38.3965279209
 20
74.3638118687
 30
0.0
  0
VERTEX
  5
4B2
  8
0
  6
CONTINUOUS
 62
     7
 10
39.3135930645
 20
77.6554157915
 30
0.0
  0
SEQEND
  5
4E4
  8
0
  6
CONTINUOUS
 62
     7
  0
ARC
  5
1BC
  8
0
  6
CONTINUOUS
 62
     7
 10
74.519936298
 20
16.0223151503
 30
0.0
 40
73.33969775843524
 50
64.3650289101
 51
115.6349710899
  0
ARC
  5
1BD
  8
0
  6
CONTINUOUS
 62
     7
 10
102.9937298494
 20
75.5366557256
 30
0.0
 40
7.36504617154766
 50
15.544535697
 51
63.7662063664
  0
ARC
  5
1BE
  8
0
  6
CONTINUOUS
 62
     7
 10
46.0283035629
 20
75.5514449202
 30
0.0
 40
7.34390085156547
 50
116.1599543402
 51
164.5293254441
  0
POLYLINE
  5
1BF
  8
0
  6
CONTINUOUS
 62
     7
 66
     1
 10
0.0
 20
0.0
 30
0.0
  0
VERTEX
  5
4B3
  8
0
  6
CONTINUOUS
 62
     7
 10
110.0893805968
 20
77.5103947105
 30
0.0
  0
VERTEX
  5
4B4
  8
0
  6
CONTINUOUS
 62
     7
 10
110.5232979404
 20
75.9972399058
 30
0.0
  0
VERTEX
  5
4B5
  8
0
  6
CONTINUOUS
 62
     7
 10
110.921270703
 20
74.4840821209
 30
0.0
  0
SEQEND
  5
4E3
  8
0
  6
CONTINUOUS
 62
     7
  0
ARC
  5
1C0
  8
0
  6
CONTINUOUS
 62
     7
 10
52.2767985796
 20
62.5418231419
 30
0.0
 40
59.84788180094628
 50
6.6421578114
 51
11.510226316
  0
POLYLINE
  5
1C1
  8
0
  6
CONTINUOUS
 62
     7
 66
     1
 10
0.0
 20
0.0
 30
0.0
  0
VERTEX
  5
4B6
  8
0
  6
CONTINUOUS
 62
     7
 10
111.7226909148
 20
69.4642802658
 30
0.0
  0
VERTEX
  5
4B7
  8
0
  6
CONTINUOUS
 62
     7
 10
111.946956371
 20
66.9608598533
 30
0.0
  0
VERTEX
  5
4B8
  8
0
  6
CONTINUOUS
 62
     7
 10
112.0914618718
 20
64.4571131053
 30
0.0
  0
SEQEND
  5
4E2
  8
0
  6
CONTINUOUS
 62
     7
  0
LINE
  5
1C2
  8
0
  6
CONTINUOUS
 62
     7
 10
112.1199365007
 20
62.6042431178
 30
0.0
 11
112.0911146747
 21
64.4570982041
 31
0.0
  0
LINE
  5
1C3
  8
0
  6
CONTINUOUS
 62
     7
 10
112.1199365007
 20
54.4926857533
 30
0.0
 11
112.1199365007
 21
62.6042431178
 31
0.0
  0
POLYLINE
  5
1C4
  8
0
  6
CONTINUOUS
 62
     7
 66
     1
 10
0.0
 20
0.0
 30
0.0
  0
VERTEX
  5
4B9
  8
0
  6
CONTINUOUS
 62
     7
 10
112.1199365007
 20
54.4927036347
 30
0.0
  0
VERTEX
  5
4BA
  8
0
  6
CONTINUOUS
 62
     7
 10
112.1052275645
 20
51.3208394828
 30
0.0
  0
VERTEX
  5
4BB
  8
0
  6
CONTINUOUS
 62
     7
 10
112.1199409711
 20
44.4928144994
 30
0.0
  0
SEQEND
  5
4E1
  8
0
  6
CONTINUOUS
 62
     7
  0
POLYLINE
  5
1C5
  8
0
  6
CONTINUOUS
 62
     7
 66
     1
 10
0.0
 20
0.0
 30
0.0
  0
VERTEX
  5
4BC
  8
0
  6
CONTINUOUS
 62
     7
 10
112.1200080263
 20
22.8383397641
 30
0.0
  0
VERTEX
  5
4BD
  8
0
  6
CONTINUOUS
 62
     7
 10
112.1200065362
 20
23.1462812009
 30
0.0
  0
VERTEX
  5
4BE
  8
0
  6
CONTINUOUS
 62
     7
 10
112.1197919594
 20
25.5581295075
 30
0.0
  0
VERTEX
  5
4BF
  8
0
  6
CONTINUOUS
 62
     7
 10
112.1193151223
 20
27.9426848473
 30
0.0
  0
VERTEX
  5
4C0
  8
0
  6
CONTINUOUS
 62
     7
 10
112.118964945
 20
30.3060328545
 30
0.0
  0
VERTEX
  5
4C1
  8
0
  6
CONTINUOUS
 62
     7
 10
112.1202836978
 20
35.0148832383
 30
0.0
  0
VERTEX
  5
4C2
  8
0
  6
CONTINUOUS
 62
     7
 10
112.1237586486
 20
39.7487854543
 30
0.0
  0
VERTEX
  5
4C3
  8
0
  6
CONTINUOUS
 62
     7
 10
112.1199365007
 20
44.4928144994
 30
0.0
  0
SEQEND
  5
4E0
  8
0
  6
CONTINUOUS
 62
     7
  0
LINE
  5
1C6
  8
0
  6
CONTINUOUS
 62
     7
 10
36.9199360954
 20
44.4928144994
 30
0.0
 11
36.9199360954
 21
34.4949698033
 31
0.0
  0
POLYLINE
  5
1C7
  8
0
  6
CONTINUOUS
 62
     7
 66
     1
 10
0.0
 20
0.0
 30
0.0
  0
VERTEX
  5
4C4
  8
0
  6
CONTINUOUS
 62
     7
 10
36.9199360954
 20
44.4928144994
 30
0.0
  0
VERTEX
  5
4C5
  8
0
  6
CONTINUOUS
 62
     7
 10
36.9346465217
 20
51.3208394828
 30
0.0
  0
VERTEX
  5
4C6
  8
0
  6
CONTINUOUS
 62
     7
 10
36.9199360954
 20
54.4927036347
 30
0.0
  0
SEQEND
  5
4DF
  8
0
  6
CONTINUOUS
 62
     7
  0
LINE
  5
1C8
  8
0
  6
CONTINUOUS
 62
     7
 10
36.9199360954
 20
62.6042431178
 30
0.0
 11
36.9199360954
 21
54.4926857533
 31
0.0
  0
LINE
  5
1C9
  8
0
  6
CONTINUOUS
 62
     7
 10
36.9487609016
 20
64.4570982041
 30
0.0
 11
36.9199360954
 21
62.6042431178
 31
0.0
  0
POLYLINE
  5
1CA
  8
0
  6
CONTINUOUS
 62
     7
 66
     1
 10
0.0
 20
0.0
 30
0.0
  0
VERTEX
  5
4C7
  8
0
  6
CONTINUOUS
 62
     7
 10
36.9484151947
 20
64.4571131053
 30
0.0
  0
VERTEX
  5
4C8
  8
0
  6
CONTINUOUS
 62
     7
 10
37.0929206955
 20
66.9608598533
 30
0.0
  0
VERTEX
  5
4C9
  8
0
  6
CONTINUOUS
 62
     7
 10
37.3171831714
 20
69.4642802658
 30
0.0
  0
SEQEND
  5
4DE
  8
0
  6
CONTINUOUS
 62
     7
  0
ARC
  5
1CB
  8
0
  6
CONTINUOUS
 62
     7
 10
96.7199512409
 20
62.5487121523
 30
0.0
 40
59.8042501789329
 50
168.4879968058
 51
173.3596190667
  0
POLYLINE
  5
1CC
  8
0
  6
CONTINUOUS
 62
     7
 66
     1
 10
0.0
 20
0.0
 30
0.0
  0
VERTEX
  5
4CA
  8
0
  6
CONTINUOUS
 62
     7
 10
38.1199385273
 20
74.4896715464
 30
0.0
  0
VERTEX
  5
4CB
  8
0
  6
CONTINUOUS
 62
     7
 10
38.5173644172
 20
76.0000353637
 30
0.0
  0
VERTEX
  5
4CC
  8
0
  6
CONTINUOUS
 62
     7
 10
38.9504934894
 20
77.5103947105
 30
0.0
  0
SEQEND
  5
4DD
  8
0
  6
CONTINUOUS
 62
     7
  0
POLYLINE
  5
1CD
  8
0
  6
CONTINUOUS
 62
     7
 66
     1
 10
0.0
 20
0.0
 30
0.0
  0
VERTEX
  5
4CD
  8
0
  6
CONTINUOUS
 62
     7
 10
36.9198645698
 20
22.839287478
 30
0.0
  0
VERTEX
  5
4CE
  8
0
  6
CONTINUOUS
 62
     7
 10
36.9198645698
 20
22.8646134915
 30
0.0
  0
VERTEX
  5
4CF
  8
0
  6
CONTINUOUS
 62
     7
 10
36.9200374233
 20
25.2776240888
 30
0.0
  0
VERTEX
  5
4D0
  8
0
  6
CONTINUOUS
 62
     7
 10
36.9205023395
 20
27.6660894933
 30
0.0
  0
VERTEX
  5
4D1
  8
0
  6
CONTINUOUS
 62
     7
 10
36.9208897697
 20
30.0320064607
 30
0.0
  0
VERTEX
  5
4D2
  8
0
  6
CONTINUOUS
 62
     7
 10
36.9207824813
 20
32.3868310037
 30
0.0
  0
VERTEX
  5
4D3
  8
0
  6
CONTINUOUS
 62
     7
 10
36.9199360954
 20
34.4949698033
 30
0.0
  0
SEQEND
  5
4DC
  8
0
  6
CONTINUOUS
 62
     7
  0
ARC
  5
1CE
  8
0
  6
CONTINUOUS
 62
     7
 10
105.4755244824
 20
22.7016967929
 30
0.0
 40
6.645888418137679
 50
292.5444045557
 51
1.1781144618
  0
ARC
  5
1CF
  8
0
  6
CONTINUOUS
 62
     7
 10
43.5673989651
 20
22.7056861379
 30
0.0
 40
6.648876811488257
 50
178.848631378
 51
250.6417809594
  0
LINE
  5
1D0
  8
0
  6
CONTINUOUS
 62
     7
 10
111.7199371802
 20
69.4904332938
 30
0.0
 11
111.7229770171
 21
69.4643130483
 31
0.0
  0
POLYLINE
  5
1D1
  8
0
  6
CONTINUOUS
 62
     7
 66
     1
 10
0.0
 20
0.0
 30
0.0
  0
VERTEX
  5
4D4
  8
0
  6
CONTINUOUS
 62
     7
 10
110.9210859286
 20
74.4840389075
 30
0.0
  0
VERTEX
  5
4D5
  8
0
  6
CONTINUOUS
 62
     7
 10
111.3732720958
 20
71.998173553
 30
0.0
  0
VERTEX
  5
4D6
  8
0
  6
CONTINUOUS
 62
     7
 10
111.7199371802
 20
69.4904332938
 30
0.0
  0
SEQEND
  5
4DB
  8
0
  6
CONTINUOUS
 62
     7
  0
POLYLINE
  5
1D2
  8
0
  6
CONTINUOUS
 62
     7
 66
     1
 10
0.0
 20
0.0
 30
0.0
  0
VERTEX
  5
4D7
  8
0
  6
CONTINUOUS
 62
     7
 10
37.319936906
 20
69.4904332938
 30
0.0
  0
VERTEX
  5
4D8
  8
0
  6
CONTINUOUS
 62
     7
 10
37.6658643829
 20
71.9935750546
 30
0.0
  0
VERTEX
  5
4D9
  8
0
  6
CONTINUOUS
 62
     7
 10
38.1187881576
 20
74.4840389075
 30
0.0
  0
SEQEND
  5
4DA
  8
0
  6
CONTINUOUS
 62
     7
  0
LINE
  5
1D3
  8
0
  6
CONTINUOUS
 62
     7
 10
37.3168970691
 20
69.4643130483
 30
0.0
 11
37.319936906
 21
69.4904332938
 31
0.0
  0
LINE
  5
1D4
  8
0
  6
CONTINUOUS
 62
     7
 10
112.0911146747
 20
64.4570982041
 30
0.0
 11
112.1199365007
 21
62.6064067664
 31
0.0
  0
LINE
  5
1D5
  8
0
  6
CONTINUOUS
 62
     7
 10
36.9199360954
 20
62.6064067664
 30
0.0
 11
36.9487609016
 21
64.4570982041
 31
0.0
  0
LINE
  5
1D6
  8
0
  6
CONTINUOUS
 62
     7
 10
157.6942618238
 20
88.2988104554
 30
0.0
 11
157.6942618238
 21
88.2419912102
 31
0.0
  0
LINE
  5
1D7
  8
0
  6
CONTINUOUS
 62
     7
 10
157.6942618238
 20
88.2419912102
 30
0.0
 11
157.9157824861
 21
88.2267532828
 31
0.0
  0
LINE
  5
1D8
  8
0
  6
CONTINUOUS
 62
     7
 10
156.9165150868
 20
27.0988082471
 30
0.0
 11
156.8199376809
 21
27.0988082471
 31
0.0
  0
LINE
  5
1D9
  8
0
  6
CONTINUOUS
 62
     7
 10
156.8199376809
 20
27.0988082471
 30
0.0
 11
156.8199376809
 21
88.2988104554
 31
0.0
  0
LINE
  5
1DA
  8
0
  6
CONTINUOUS
 62
     7
 10
156.8199376809
 20
88.2988104554
 30
0.0
 11
157.6942618238
 21
88.2988104554
 31
0.0
  0
ARC
  5
1DB
  8
0
  6
CONTINUOUS
 62
     7
 10
158.483897394
 20
86.1872254474
 30
0.0
 40
1.996146860999656
 50
359.879897053
 51
86.0294823533
  0
LINE
  5
1DC
  8
0
  6
CONTINUOUS
 62
     7
 10
160.4800398695
 20
86.1830411436
 30
0.0
 11
160.4800398695
 21
81.780519891
 31
0.0
  0
ARC
  5
1DD
  8
0
  6
CONTINUOUS
 62
     7
 10
161.6818324452
 20
81.7797365388
 30
0.0
 40
1.201792831047151
 50
179.9626534821
 51
232.2494355137
  0
LINE
  5
1DE
  8
0
  6
CONTINUOUS
 62
     7
 10
158.6221168982
 20
88.1785811814
 30
0.0
 11
157.9157824861
 21
88.2267532828
 31
0.0
  0
LINE
  5
1DF
  8
0
  6
CONTINUOUS
 62
     7
 10
156.8199376809
 20
88.2988104554
 30
0.0
 11
156.8199376809
 21
101.0189270558
 31
0.0
  0
LINE
  5
1E0
  8
0
  6
CONTINUOUS
 62
     7
 10
157.619937812
 20
101.0189270558
 30
0.0
 11
157.619937812
 21
88.2988104554
 31
0.0
  0
LINE
  5
1E1
  8
0
  6
CONTINUOUS
 62
     7
 10
156.8199376809
 20
102.1988106849
 30
0.0
 11
157.619937812
 21
102.1988106849
 31
0.0
  0
LINE
  5
1E2
  8
0
  6
CONTINUOUS
 62
     7
 10
156.8199376809
 20
101.0189270558
 30
0.0
 11
156.8199376809
 21
102.1988106849
 31
0.0
  0
LINE
  5
1E3
  8
0
  6
CONTINUOUS
 62
     7
 10
157.619937812
 20
102.1988106849
 30
0.0
 11
157.619937812
 21
101.0189270558
 31
0.0
  0
LINE
  5
1E4
  8
0
  6
CONTINUOUS
 62
     7
 10
152.0199368941
 20
99.1988105657
 30
0.0
 11
152.0199368941
 21
98.1988104018
 31
0.0
  0
LINE
  5
1E5
  8
0
  6
CONTINUOUS
 62
     7
 10
156.8199376809
 20
99.1988105657
 30
0.0
 11
152.0199368941
 21
99.1988105657
 31
0.0
  0
LINE
  5
1E6
  8
0
  6
CONTINUOUS
 62
     7
 10
162.0199377882
 20
99.1988105657
 30
0.0
 11
157.619937812
 21
99.1988105657
 31
0.0
  0
LINE
  5
1E7
  8
0
  6
CONTINUOUS
 62
     7
 10
162.0199377882
 20
99.1988105657
 30
0.0
 11
162.0199377882
 21
98.1988104018
 31
0.0
  0
LINE
  5
1E8
  8
0
  6
CONTINUOUS
 62
     7
 10
152.0199368941
 20
98.1988104018
 30
0.0
 11
152.0199368941
 21
88.9988103839
 31
0.0
  0
LINE
  5
1E9
  8
0
  6
CONTINUOUS
 62
     7
 10
162.0199377882
 20
98.1988104018
 30
0.0
 11
162.0199377882
 21
88.9988103839
 31
0.0
  0
LINE
  5
1EA
  8
0
  6
CONTINUOUS
 62
     7
 10
156.8199376809
 20
87.99881022
 30
0.0
 11
152.0199368941
 21
87.99881022
 31
0.0
  0
LINE
  5
1EB
  8
0
  6
CONTINUOUS
 62
     7
 10
152.0199368941
 20
88.9988103839
 30
0.0
 11
152.0199368941
 21
87.99881022
 31
0.0
  0
LINE
  5
1EC
  8
0
  6
CONTINUOUS
 62
     7
 10
162.0199377882
 20
87.99881022
 30
0.0
 11
159.32382748
 21
87.99881022
 31
0.0
  0
LINE
  5
1ED
  8
0
  6
CONTINUOUS
 62
     7
 10
162.0199377882
 20
88.9988103839
 30
0.0
 11
162.0199377882
 21
87.99881022
 31
0.0
  0
LINE
  5
1EE
  8
0
  6
CONTINUOUS
 62
     7
 10
37.6942600357
 20
88.2988104554
 30
0.0
 11
37.6942600357
 21
88.2419912102
 31
0.0
  0
LINE
  5
1EF
  8
0
  6
CONTINUOUS
 62
     7
 10
37.6942600357
 20
88.2419912102
 30
0.0
 11
37.915780698
 21
88.2267532828
 31
0.0
  0
LINE
  5
1F0
  8
0
  6
CONTINUOUS
 62
     7
 10
36.9165147888
 20
27.0988082471
 30
0.0
 11
36.8199373829
 21
27.0988082471
 31
0.0
  0
LINE
  5
1F1
  8
0
  6
CONTINUOUS
 62
     7
 10
36.8199373829
 20
27.0988082471
 30
0.0
 11
36.8199373829
 21
88.2988104554
 31
0.0
  0
LINE
  5
1F2
  8
0
  6
CONTINUOUS
 62
     7
 10
36.8199373829
 20
88.2988104554
 30
0.0
 11
37.6942600357
 21
88.2988104554
 31
0.0
  0
ARC
  5
1F3
  8
0
  6
CONTINUOUS
 62
     7
 10
38.483896497
 20
86.1872265867
 30
0.0
 40
1.996145972237522
 50
359.8798642969
 51
86.0293776011
  0
LINE
  5
1F4
  8
0
  6
CONTINUOUS
 62
     7
 10
40.4800380813
 20
86.1830411436
 30
0.0
 11
40.4800380813
 21
81.780519891
 31
0.0
  0
ARC
  5
1F5
  8
0
  6
CONTINUOUS
 62
     7
 10
41.6818306571
 20
81.7797365388
 30
0.0
 40
1.201792831047179
 50
179.9626534821
 51
232.2494355137
  0
LINE
  5
1F6
  8
0
  6
CONTINUOUS
 62
     7
 10
38.6221195804
 20
88.1785811814
 30
0.0
 11
37.915780698
 21
88.2267532828
 31
0.0
  0
LINE
  5
1F7
  8
0
  6
CONTINUOUS
 62
     7
 10
36.8199373829
 20
88.2988104554
 30
0.0
 11
36.8199373829
 21
101.0189270558
 31
0.0
  0
LINE
  5
1F8
  8
0
  6
CONTINUOUS
 62
     7
 10
37.6199390041
 20
101.0189270558
 30
0.0
 11
37.6199390041
 21
88.2988104554
 31
0.0
  0
LINE
  5
1F9
  8
0
  6
CONTINUOUS
 62
     7
 10
36.8199373829
 20
102.1988106849
 30
0.0
 11
37.6199390041
 21
102.1988106849
 31
0.0
  0
LINE
  5
1FA
  8
0
  6
CONTINUOUS
 62
     7
 10
36.8199373829
 20
101.0189270558
 30
0.0
 11
36.8199373829
 21
102.1988106849
 31
0.0
  0
LINE
  5
1FB
  8
0
  6
CONTINUOUS
 62
     7
 10
37.6199390041
 20
102.1988106849
 30
0.0
 11
37.6199390041
 21
101.0189270558
 31
0.0
  0
LINE
  5
1FC
  8
0
  6
CONTINUOUS
 62
     7
 10
42.019936
 20
99.1988105657
 30
0.0
 11
37.6199390041
 21
99.1988105657
 31
0.0
  0
LINE
  5
1FD
  8
0
  6
CONTINUOUS
 62
     7
 10
42.019936
 20
99.1988105657
 30
0.0
 11
42.019936
 21
98.1988104018
 31
0.0
  0
LINE
  5
1FE
  8
0
  6
CONTINUOUS
 62
     7
 10
36.8199373829
 20
99.1988105657
 30
0.0
 11
32.0199395763
 21
99.1988105657
 31
0.0
  0
LINE
  5
1FF
  8
0
  6
CONTINUOUS
 62
     7
 10
32.0199395763
 20
99.1988105657
 30
0.0
 11
32.0199395763
 21
98.1988104018
 31
0.0
  0
LINE
  5
200
  8
0
  6
CONTINUOUS
 62
     7
 10
32.0199395763
 20
98.1988104018
 30
0.0
 11
32.0199395763
 21
88.9988103839
 31
0.0
  0
LINE
  5
201
  8
0
  6
CONTINUOUS
 62
     7
 10
42.019936
 20
98.1988104018
 30
0.0
 11
42.019936
 21
88.9988103839
 31
0.0
  0
LINE
  5
202
  8
0
  6
CONTINUOUS
 62
     7
 10
42.019936
 20
87.99881022
 30
0.0
 11
39.323827182
 21
87.99881022
 31
0.0
  0
LINE
  5
203
  8
0
  6
CONTINUOUS
 62
     7
 10
42.019936
 20
88.9988103839
 30
0.0
 11
42.019936
 21
87.99881022
 31
0.0
  0
LINE
  5
204
  8
0
  6
CONTINUOUS
 62
     7
 10
36.8199373829
 20
87.99881022
 30
0.0
 11
32.0199395763
 21
87.99881022
 31
0.0
  0
LINE
  5
205
  8
0
  6
CONTINUOUS
 62
     7
 10
32.0199395763
 20
88.9988103839
 30
0.0
 11
32.0199395763
 21
87.99881022
 31
0.0
  0
LINE
  5
206
  8
0
  6
CONTINUOUS
 62
     7
 10
112.2199367034
 20
27.0988082471
 30
0.0
 11
112.2199367034
 21
88.2988104554
 31
0.0
  0
LINE
  5
207
  8
0
  6
CONTINUOUS
 62
     7
 10
112.1233592974
 20
27.0988082471
 30
0.0
 11
112.2199367034
 21
27.0988082471
 31
0.0
  0
LINE
  5
208
  8
0
  6
CONTINUOUS
 62
     7
 10
111.3456125604
 20
88.2419912102
 30
0.0
 11
111.1240918981
 21
88.2267532828
 31
0.0
  0
LINE
  5
209
  8
0
  6
CONTINUOUS
 62
     7
 10
111.3456125604
 20
88.2988104554
 30
0.0
 11
111.3456125604
 21
88.2419912102
 31
0.0
  0
LINE
  5
20A
  8
0
  6
CONTINUOUS
 62
     7
 10
112.2199367034
 20
88.2988104554
 30
0.0
 11
111.3456125604
 21
88.2988104554
 31
0.0
  0
ARC
  5
20B
  8
0
  6
CONTINUOUS
 62
     7
 10
107.3579999647
 20
81.7797471376
 30
0.0
 40
1.201834798489488
 50
308.2419419619
 51
0.0368399334
  0
LINE
  5
20C
  8
0
  6
CONTINUOUS
 62
     7
 10
108.5598345148
 20
86.1830411436
 30
0.0
 11
108.5598345148
 21
81.780519891
 31
0.0
  0
ARC
  5
20D
  8
0
  6
CONTINUOUS
 62
     7
 10
110.5559769902
 20
86.1872254474
 30
0.0
 40
1.996146860999652
 50
93.9705176467
 51
180.120102947
  0
LINE
  5
20E
  8
0
  6
CONTINUOUS
 62
     7
 10
110.417757486
 20
88.1785811814
 30
0.0
 11
111.1240918981
 21
88.2267532828
 31
0.0
  0
LINE
  5
20F
  8
0
  6
CONTINUOUS
 62
     7
 10
112.2199367034
 20
88.2988104554
 30
0.0
 11
112.2199367034
 21
101.0189270558
 31
0.0
  0
LINE
  5
210
  8
0
  6
CONTINUOUS
 62
     7
 10
111.4199365722
 20
101.0189270558
 30
0.0
 11
111.4199365722
 21
88.2988104554
 31
0.0
  0
LINE
  5
211
  8
0
  6
CONTINUOUS
 62
     7
 10
112.2199367034
 20
102.1988106849
 30
0.0
 11
111.4199365722
 21
102.1988106849
 31
0.0
  0
LINE
  5
212
  8
0
  6
CONTINUOUS
 62
     7
 10
112.2199367034
 20
101.0189270558
 30
0.0
 11
112.2199367034
 21
102.1988106849
 31
0.0
  0
LINE
  5
213
  8
0
  6
CONTINUOUS
 62
     7
 10
111.4199365722
 20
102.1988106849
 30
0.0
 11
111.4199365722
 21
101.0189270558
 31
0.0
  0
LINE
  5
214
  8
0
  6
CONTINUOUS
 62
     7
 10
107.0199365961
 20
99.1988105657
 30
0.0
 11
107.0199365961
 21
98.1988104018
 31
0.0
  0
LINE
  5
215
  8
0
  6
CONTINUOUS
 62
     7
 10
107.0199365961
 20
99.1988105657
 30
0.0
 11
111.4199365722
 21
99.1988105657
 31
0.0
  0
LINE
  5
216
  8
0
  6
CONTINUOUS
 62
     7
 10
112.2199367034
 20
99.1988105657
 30
0.0
 11
117.0199374901
 21
99.1988105657
 31
0.0
  0
LINE
  5
217
  8
0
  6
CONTINUOUS
 62
     7
 10
117.0199374901
 20
99.1988105657
 30
0.0
 11
117.0199374901
 21
98.1988104018
 31
0.0
  0
LINE
  5
218
  8
0
  6
CONTINUOUS
 62
     7
 10
117.0199374901
 20
98.1988104018
 30
0.0
 11
117.0199374901
 21
88.9988103839
 31
0.0
  0
LINE
  5
219
  8
0
  6
CONTINUOUS
 62
     7
 10
107.0199365961
 20
98.1988104018
 30
0.0
 11
107.0199365961
 21
88.9988103839
 31
0.0
  0
LINE
  5
21A
  8
0
  6
CONTINUOUS
 62
     7
 10
112.2199367034
 20
87.99881022
 30
0.0
 11
117.0199374901
 21
87.99881022
 31
0.0
  0
LINE
  5
21B
  8
0
  6
CONTINUOUS
 62
     7
 10
117.0199374901
 20
88.9988103839
 30
0.0
 11
117.0199374901
 21
87.99881022
 31
0.0
  0
LINE
  5
21C
  8
0
  6
CONTINUOUS
 62
     7
 10
107.0199365961
 20
87.99881022
 30
0.0
 11
109.7160469042
 21
87.99881022
 31
0.0
  0
LINE
  5
21D
  8
0
  6
CONTINUOUS
 62
     7
 10
107.0199365961
 20
88.9988103839
 30
0.0
 11
107.0199365961
 21
87.99881022
 31
0.0
  0
LINE
  5
21E
  8
0
  6
CONTINUOUS
 62
     7
 10
232.2199370014
 20
27.0988082471
 30
0.0
 11
232.2199370014
 21
88.2988104554
 31
0.0
  0
LINE
  5
21F
  8
0
  6
CONTINUOUS
 62
     7
 10
232.1233595955
 20
27.0988082471
 30
0.0
 11
232.2199370014
 21
27.0988082471
 31
0.0
  0
LINE
  5
220
  8
0
  6
CONTINUOUS
 62
     7
 10
231.3456143486
 20
88.2419912102
 30
0.0
 11
231.1240936863
 21
88.2267532828
 31
0.0
  0
LINE
  5
221
  8
0
  6
CONTINUOUS
 62
     7
 10
231.3456143486
 20
88.2988104554
 30
0.0
 11
231.3456143486
 21
88.2419912102
 31
0.0
  0
LINE
  5
222
  8
0
  6
CONTINUOUS
 62
     7
 10
232.2199370014
 20
88.2988104554
 30
0.0
 11
231.3456143486
 21
88.2988104554
 31
0.0
  0
ARC
  5
223
  8
0
  6
CONTINUOUS
 62
     7
 10
227.3580017529
 20
81.7797471376
 30
0.0
 40
1.201834798489489
 50
308.2419419619
 51
0.0368399334
  0
LINE
  5
224
  8
0
  6
CONTINUOUS
 62
     7
 10
228.5598363029
 20
86.1830411436
 30
0.0
 11
228.5598363029
 21
81.780519891
 31
0.0
  0
ARC
  5
225
  8
0
  6
CONTINUOUS
 62
     7
 10
230.5559778872
 20
86.1872265867
 30
0.0
 40
1.996145972237536
 50
93.9706223989
 51
180.1201357031
  0
LINE
  5
226
  8
0
  6
CONTINUOUS
 62
     7
 10
230.4177548038
 20
88.1785811814
 30
0.0
 11
231.1240936863
 21
88.2267532828
 31
0.0
  0
LINE
  5
227
  8
0
  6
CONTINUOUS
 62
     7
 10
232.2199370014
 20
88.2988104554
 30
0.0
 11
232.2199370014
 21
101.0189270558
 31
0.0
  0
LINE
  5
228
  8
0
  6
CONTINUOUS
 62
     7
 10
231.4199353801
 20
101.0189270558
 30
0.0
 11
231.4199353801
 21
88.2988104554
 31
0.0
  0
LINE
  5
229
  8
0
  6
CONTINUOUS
 62
     7
 10
232.2199370014
 20
102.1988106849
 30
0.0
 11
231.4199353801
 21
102.1988106849
 31
0.0
  0
LINE
  5
22A
  8
0
  6
CONTINUOUS
 62
     7
 10
232.2199370014
 20
101.0189270558
 30
0.0
 11
232.2199370014
 21
102.1988106849
 31
0.0
  0
LINE
  5
22B
  8
0
  6
CONTINUOUS
 62
     7
 10
231.4199353801
 20
102.1988106849
 30
0.0
 11
231.4199353801
 21
101.0189270558
 31
0.0
  0
LINE
  5
22C
  8
0
  6
CONTINUOUS
 62
     7
 10
232.2199370014
 20
99.1988105657
 30
0.0
 11
237.0199348079
 21
99.1988105657
 31
0.0
  0
LINE
  5
22D
  8
0
  6
CONTINUOUS
 62
     7
 10
237.0199348079
 20
99.1988105657
 30
0.0
 11
237.0199348079
 21
98.1988104018
 31
0.0
  0
LINE
  5
22E
  8
0
  6
CONTINUOUS
 62
     7
 10
227.0199383842
 20
99.1988105657
 30
0.0
 11
231.4199353801
 21
99.1988105657
 31
0.0
  0
LINE
  5
22F
  8
0
  6
CONTINUOUS
 62
     7
 10
227.0199383842
 20
99.1988105657
 30
0.0
 11
227.0199383842
 21
98.1988104018
 31
0.0
  0
LINE
  5
230
  8
0
  6
CONTINUOUS
 62
     7
 10
237.0199348079
 20
98.1988104018
 30
0.0
 11
237.0199348079
 21
88.9988103839
 31
0.0
  0
LINE
  5
231
  8
0
  6
CONTINUOUS
 62
     7
 10
227.0199383842
 20
98.1988104018
 30
0.0
 11
227.0199383842
 21
88.9988103839
 31
0.0
  0
LINE
  5
232
  8
0
  6
CONTINUOUS
 62
     7
 10
227.0199383842
 20
87.99881022
 30
0.0
 11
229.7160472023
 21
87.99881022
 31
0.0
  0
LINE
  5
233
  8
0
  6
CONTINUOUS
 62
     7
 10
227.0199383842
 20
88.9988103839
 30
0.0
 11
227.0199383842
 21
87.99881022
 31
0.0
  0
LINE
  5
234
  8
0
  6
CONTINUOUS
 62
     7
 10
232.2199370014
 20
87.99881022
 30
0.0
 11
237.0199348079
 21
87.99881022
 31
0.0
  0
LINE
  5
235
  8
0
  6
CONTINUOUS
 62
     7
 10
237.0199348079
 20
88.9988103839
 30
0.0
 11
237.0199348079
 21
87.99881022
 31
0.0
  0
ENDSEC
  0
EOF
