  0
SECTION
  2
HEADER
  9
$ACADVER
  1
AC1009
  9
$DWGCODEPAGE
  3
ansi_1252
  9
$INSBASE
 10
0.0
 20
0.0
 30
0.0
  9
$EXTMIN
 10
0.0
 20
0.0
 30
0.0
  9
$EXTMAX
 10
420.0
 20
297.0
 30
0.0
  9
$LIMMIN
 10
0.0
 20
0.0
  9
$LIMMAX
 10
420.0
 20
297.0
  9
$ORTHOMODE
 70
     0
  9
$REGENMODE
 70
     1
  9
$FILLMODE
 70
     1
  9
$QTEXTMODE
 70
     0
  9
$MIRRTEXT
 70
     1
  9
$DRAGMODE
 70
     2
  9
$LTSCALE
 40
1.0
  9
$OSMODE
 70
    37
  9
$ATTMODE
 70
     1
  9
$TEXTSIZE
 40
3.5
  9
$TRACEWID
 40
1.0
  9
$TEXTSTYLE
  7
STANDARD
  9
$CLAYER
  8
0
  9
$CELTYPE
  6
BYLAYER
  9
$CECOLOR
 62
   256
  9
$DIMSCALE
 40
1.0
  9
$DIMASZ
 40
4.0
  9
$DIMEXO
 40
0.0
  9
$DIMDLI
 40
3.75
  9
$DIMRND
 40
0.0
  9
$DIMDLE
 40
0.0
  9
$DIMEXE
 40
2.0
  9
$DIMTP
 40
0.0
  9
$DIMTM
 40
0.0
  9
$DIMTXT
 40
3.5
  9
$DIMCEN
 40
2.5
  9
$DIMTSZ
 40
0.0
  9
$DIMTOL
 70
     0
  9
$DIMLIM
 70
     0
  9
$DIMTIH
 70
     1
  9
$DIMTOH
 70
     1
  9
$DIMSE1
 70
     0
  9
$DIMSE2
 70
     0
  9
$DIMTAD
 70
     1
  9
$DIMZIN
 70
     0
  9
$DIMBLK
  1

  9
$DIMASO
 70
     1
  9
$DIMSHO
 70
     1
  9
$DIMPOST
  1

  9
$DIMAPOST
  1

  9
$DIMALT
 70
     0
  9
$DIMALTD
 70
     3
  9
$DIMALTF
 40
0.0393700787
  9
$DIMLFAC
 40
5.0
  9
$DIMTOFL
 70
     1
  9
$DIMTVP
 40
0.0
  9
$DIMTIX
 70
     0
  9
$DIMSOXD
 70
     0
  9
$DIMSAH
 70
     0
  9
$DIMBLK1
  1

  9
$DIMBLK2
  1

  9
$DIMSTYLE
  2
ISO-25
  9
$DIMCLRD
 70
     0
  9
$DIMCLRE
 70
     0
  9
$DIMCLRT
 70
     0
  9
$DIMTFAC
 40
1.0
  9
$DIMGAP
 40
1.524
  9
$LUNITS
 70
     2
  9
$LUPREC
 70
     2
  9
$SKETCHINC
 40
1.0
  9
$FILLETRAD
 40
10.0
  9
$AUNITS
 70
     0
  9
$AUPREC
 70
     2
  9
$MENU
  1
.
  9
$ELEVATION
 40
0.0
  9
$PELEVATION
 40
0.0
  9
$THICKNESS
 40
0.0
  9
$LIMCHECK
 70
     0
  9
$CHAMFERA
 40
10.0
  9
$CHAMFERB
 40
10.0
  9
$SKPOLY
 70
     0
  9
$TDCREATE
 40
2457802.62645
  9
$TDUPDATE
 40
2457802.626450174
  9
$TDINDWG
 40
0.0000000116
  9
$TDUSRTIMER
 40
0.0000000116
  9
$USRTIMER
 70
     1
  9
$ANGBASE
 50
0.0
  9
$ANGDIR
 70
     0
  9
$PDMODE
 70
     0
  9
$PDSIZE
 40
-1.0
  9
$PLINEWID
 40
0.0
  9
$COORDS
 70
     1
  9
$SPLFRAME
 70
     0
  9
$SPLINETYPE
 70
     6
  9
$SPLINESEGS
 70
     8
  9
$ATTDIA
 70
     0
  9
$ATTREQ
 70
     1
  9
$HANDLING
 70
     1
  9
$HANDSEED
  5
599
  9
$SURFTAB1
 70
     6
  9
$SURFTAB2
 70
     6
  9
$SURFTYPE
 70
     6
  9
$SURFU
 70
     6
  9
$SURFV
 70
     6
  9
$UCSNAME
  2

  9
$UCSORG
 10
0.0
 20
0.0
 30
0.0
  9
$UCSXDIR
 10
1.0
 20
0.0
 30
0.0
  9
$UCSYDIR
 10
0.0
 20
1.0
 30
0.0
  9
$PUCSNAME
  2

  9
$PUCSORG
 10
0.0
 20
0.0
 30
0.0
  9
$PUCSXDIR
 10
1.0
 20
0.0
 30
0.0
  9
$PUCSYDIR
 10
0.0
 20
1.0
 30
0.0
  9
$USERI1
 70
     0
  9
$USERI2
 70
     0
  9
$USERI3
 70
     0
  9
$USERI4
 70
     0
  9
$USERI5
 70
     0
  9
$USERR1
 40
0.0
  9
$USERR2
 40
0.0
  9
$USERR3
 40
0.0
  9
$USERR4
 40
0.0
  9
$USERR5
 40
0.0
  9
$WORLDVIEW
 70
     1
  9
$SHADEDGE
 70
     3
  9
$SHADEDIF
 70
    70
  9
$TILEMODE
 70
     1
  9
$MAXACTVP
 70
    64
  9
$PLIMCHECK
 70
     0
  9
$PEXTMIN
 10
1.0000000000E+20
 20
1.0000000000E+20
 30
1.0000000000E+20
  9
$PEXTMAX
 10
-1.0000000000E+20
 20
-1.0000000000E+20
 30
-1.0000000000E+20
  9
$PLIMMIN
 10
0.0
 20
0.0
  9
$PLIMMAX
 10
420.0
 20
297.0
  9
$UNITMODE
 70
     0
  9
$VISRETAIN
 70
     1
  9
$PLINEGEN
 70
     0
  9
$PSLTSCALE
 70
     1
  0
ENDSEC
  0
SECTION
  2
TABLES
  0
TABLE
  2
VPORT
 70
     1
  0
VPORT
  2
*ACTIVE
 70
     0
 10
0.0
 20
0.0
 11
1.0
 21
1.0
 12
210.0
 22
148.5
 13
0.0
 23
0.0
 14
10.0
 24
10.0
 15
10.0
 25
10.0
 16
0.0
 26
0.0
 36
1.0
 17
0.0
 27
0.0
 37
0.0
 40
297.0
 41
1.4141414141
 42
50.0
 43
0.0
 44
0.0
 50
0.0
 51
0.0
 71
     0
 72
  2000
 73
     1
 74
     3
 75
     0
 76
     0
 77
     0
 78
     0
  0
ENDTAB
  0
TABLE
  2
LTYPE
 70
     6
  0
LTYPE
  2
CONTINUOUS
 70
     0
  3
Solid line
 72
    65
 73
     0
 40
0.0
  0
LTYPE
  2
HIDDEN
 70
     0
  3
Hidden __ __ __ __ __ __ __ __ __ __ __ __ __ __
 72
    65
 73
     2
 40
1.905
 49
1.27
 49
-0.635
  0
LTYPE
  2
PHANTOM
 70
     0
  3
Phantom ______  __  __  ______  __  __  ______
 72
    65
 73
     6
 40
12.7
 49
6.35
 49
-1.27
 49
1.27
 49
-1.27
 49
1.27
 49
-1.27
  0
LTYPE
  2
CENTER
 70
     0
  3
Center ____ _ ____ _ ____ _ ____ _ ____ _ ____
 72
    65
 73
     4
 40
10.16
 49
6.35
 49
-1.27
 49
1.27
 49
-1.27
  0
LTYPE
  2
CENTERX2
 70
     0
  3
Center (2x) ________  __  ________  __  _____
 72
    65
 73
     4
 40
20.32
 49
12.7
 49
-2.54
 49
2.54
 49
-2.54
  0
LTYPE
  2
DOT2
 70
     0
  3
Dot (.5x) ........................................
 72
    65
 73
     2
 40
0.635
 49
0.0
 49
-0.635
  0
ENDTAB
  0
TABLE
  2
LAYER
 70
     2
  0
LAYER
  2
0
 70
     0
 62
     7
  6
CONTINUOUS
  0
LAYER
  2
FORMAT
 70
     0
 62
     7
  6
CONTINUOUS
  0
ENDTAB
  0
TABLE
  2
STYLE
 70
     1
  0
STYLE
  2
STANDARD
 70
     0
 40
0.0
 41
1.0
 50
0.0
 71
     0
 42
3.5
  3
txt
  4

  0
ENDTAB
  0
TABLE
  2
VIEW
 70
     0
  0
ENDTAB
  0
TABLE
  2
UCS
 70
     0
  0
ENDTAB
  0
TABLE
  2
APPID
 70
     1
  0
APPID
  2
ACAD
 70
     0
  0
ENDTAB
  0
TABLE
  2
DIMSTYLE
 70
     1
  0
DIMSTYLE
  2
ISO-25
 70
     0
  3

  4

  5

  6

  7

 40
1.0
 41
2.5
 42
0.625
 43
3.75
 44
1.25
 45
0.0
 46
0.0
 47
0.0
 48
0.0
140
2.5
141
2.5
142
0.0
143
0.0393700787
144
1.0
145
0.0
146
1.0
147
0.625
 71
     0
 72
     0
 73
     0
 74
     0
 75
     0
 76
     0
 77
     1
 78
     8
170
     0
171
     3
172
     1
173
     0
174
     0
175
     0
176
     0
177
     0
178
     0
  0
ENDTAB
  0
ENDSEC
  0
SECTION
  2
BLOCKS
  0
BLOCK
  8
0
  2
$MODEL_SPACE
 70
     0
 10
0.0
 20
0.0
 30
0.0
  3
$MODEL_SPACE
  1

  0
ENDBLK
  5
21
  8
0
  0
BLOCK
 67
     1
  8
0
  2
$PAPER_SPACE
 70
     0
 10
0.0
 20
0.0
 30
0.0
  3
$PAPER_SPACE
  1

  0
ENDBLK
  5
1D
 67
     1
  8
0
  0
ENDSEC
  0
SECTION
  2
ENTITIES
  0
LINE
  5
45
  8
0
  6
CONTINUOUS
 62
     7
 10
163.240832161
 20
213.4565722218
 30
0.0
 11
163.240832161
 21
198.456574606
 31
0.0
  0
LINE
  5
46
  8
0
  6
CONTINUOUS
 62
     7
 10
168.6408282032
 20
198.456574606
 30
0.0
 11
168.6408282032
 21
213.4565722218
 31
0.0
  0
LINE
  5
47
  8
0
  6
CONTINUOUS
 62
     7
 10
168.6408282032
 20
181.8565737476
 30
0.0
 11
168.6408282032
 21
198.456574606
 31
0.0
  0
LINE
  5
48
  8
0
  6
CONTINUOUS
 62
     7
 10
163.240832161
 20
198.456574606
 30
0.0
 11
163.240832161
 21
181.8565737476
 31
0.0
  0
LINE
  5
49
  8
0
  6
CONTINUOUS
 62
     7
 10
163.240832161
 20
181.8565737476
 30
0.0
 11
163.240832161
 21
166.8565761318
 31
0.0
  0
LINE
  5
4A
  8
0
  6
CONTINUOUS
 62
     7
 10
168.6408282032
 20
166.8565761318
 30
0.0
 11
168.6408282032
 21
181.8565737476
 31
0.0
  0
LINE
  5
4B
  8
0
  6
CONTINUOUS
 62
     7
 10
43.240833353
 20
213.4565722218
 30
0.0
 11
43.240833353
 21
198.456574606
 31
0.0
  0
LINE
  5
4C
  8
0
  6
CONTINUOUS
 62
     7
 10
48.6408293953
 20
198.456574606
 30
0.0
 11
48.6408293953
 21
213.4565722218
 31
0.0
  0
LINE
  5
4D
  8
0
  6
CONTINUOUS
 62
     7
 10
48.6408293953
 20
181.8565737476
 30
0.0
 11
48.6408293953
 21
198.456574606
 31
0.0
  0
LINE
  5
4E
  8
0
  6
CONTINUOUS
 62
     7
 10
43.240833353
 20
198.456574606
 30
0.0
 11
43.240833353
 21
181.8565737476
 31
0.0
  0
LINE
  5
4F
  8
0
  6
CONTINUOUS
 62
     7
 10
43.240833353
 20
181.8565737476
 30
0.0
 11
43.240833353
 21
166.8565761318
 31
0.0
  0
LINE
  5
50
  8
0
  6
CONTINUOUS
 62
     7
 10
48.6408293953
 20
166.8565761318
 30
0.0
 11
48.6408293953
 21
181.8565737476
 31
0.0
  0
POLYLINE
  5
51
  8
0
  6
CONTINUOUS
 62
     7
 66
     1
 10
0.0
 20
0.0
 30
0.0
  0
VERTEX
  5
25D
  8
0
  6
CONTINUOUS
 62
     7
 10
137.8713161459
 20
264.3417846432
 30
0.0
  0
VERTEX
  5
25E
  8
0
  6
CONTINUOUS
 62
     7
 10
137.8068030586
 20
264.3712174168
 30
0.0
  0
VERTEX
  5
25F
  8
0
  6
CONTINUOUS
 62
     7
 10
137.2764886131
 20
264.6125447025
 30
0.0
  0
SEQEND
  5
598
  8
0
  6
CONTINUOUS
 62
     7
  0
LINE
  5
52
  8
0
  6
CONTINUOUS
 62
     7
 10
74.60628755
 20
264.6131765118
 30
0.0
 11
74.0093738546
 21
264.3412005177
 31
0.0
  0
POLYLINE
  5
53
  8
0
  6
CONTINUOUS
 62
     7
 66
     1
 10
0.0
 20
0.0
 30
0.0
  0
VERTEX
  5
260
  8
0
  6
CONTINUOUS
 62
     7
 10
143.3777809849
 20
190.6446289292
 30
0.0
  0
VERTEX
  5
261
  8
0
  6
CONTINUOUS
 62
     7
 10
142.1029210796
 20
190.4744159451
 30
0.0
  0
VERTEX
  5
262
  8
0
  6
CONTINUOUS
 62
     7
 10
141.0100788584
 20
190.3333496323
 30
0.0
  0
VERTEX
  5
263
  8
0
  6
CONTINUOUS
 62
     7
 10
140.0995523443
 20
190.2192186585
 30
0.0
  0
VERTEX
  5
264
  8
0
  6
CONTINUOUS
 62
     7
 10
139.3715769758
 20
190.1301872006
 30
0.0
  0
VERTEX
  5
265
  8
0
  6
CONTINUOUS
 62
     7
 10
138.7731850853
 20
190.058470892
 30
0.0
  0
VERTEX
  5
266
  8
0
  6
CONTINUOUS
 62
     7
 10
138.3521378746
 20
190.0088798275
 30
0.0
  0
VERTEX
  5
267
  8
0
  6
CONTINUOUS
 62
     7
 10
137.9159570446
 20
189.9586509934
 30
0.0
  0
VERTEX
  5
268
  8
0
  6
CONTINUOUS
 62
     7
 10
137.44660921
 20
189.9058472386
 30
0.0
  0
VERTEX
  5
269
  8
0
  6
CONTINUOUS
 62
     7
 10
136.9440764895
 20
189.8506652584
 30
0.0
  0
VERTEX
  5
26A
  8
0
  6
CONTINUOUS
 62
     7
 10
136.4083410015
 20
189.7932957878
 30
0.0
  0
VERTEX
  5
26B
  8
0
  6
CONTINUOUS
 62
     7
 10
135.0140363684
 20
189.6506797543
 30
0.0
  0
VERTEX
  5
26C
  8
0
  6
CONTINUOUS
 62
     7
 10
133.4348679295
 20
189.5001839867
 30
0.0
  0
VERTEX
  5
26D
  8
0
  6
CONTINUOUS
 62
     7
 10
132.1153075209
 20
189.3830608597
 30
0.0
  0
VERTEX
  5
26E
  8
0
  6
CONTINUOUS
 62
     7
 10
130.7885990253
 20
189.2738830319
 30
0.0
  0
VERTEX
  5
26F
  8
0
  6
CONTINUOUS
 62
     7
 10
129.555034708
 20
189.1812156906
 30
0.0
  0
VERTEX
  5
270
  8
0
  6
CONTINUOUS
 62
     7
 10
128.4147874227
 20
189.1039382687
 30
0.0
  0
VERTEX
  5
271
  8
0
  6
CONTINUOUS
 62
     7
 10
127.3680121412
 20
189.0411090126
 30
0.0
  0
VERTEX
  5
272
  8
0
  6
CONTINUOUS
 62
     7
 10
126.4148563852
 20
188.9919888249
 30
0.0
  0
VERTEX
  5
273
  8
0
  6
CONTINUOUS
 62
     7
 10
125.5554587355
 20
188.9560412636
 30
0.0
  0
VERTEX
  5
274
  8
0
  6
CONTINUOUS
 62
     7
 10
124.7892499676
 20
188.9327775707
 30
0.0
  0
VERTEX
  5
275
  8
0
  6
CONTINUOUS
 62
     7
 10
124.4286373963
 20
188.9233302345
 30
0.0
  0
VERTEX
  5
276
  8
0
  6
CONTINUOUS
 62
     7
 10
124.0749687662
 20
188.9125775566
 30
0.0
  0
VERTEX
  5
277
  8
0
  6
CONTINUOUS
 62
     7
 10
123.7282276859
 20
188.9001201859
 30
0.0
  0
VERTEX
  5
278
  8
0
  6
CONTINUOUS
 62
     7
 10
123.3884201159
 20
188.8865720501
 30
0.0
  0
VERTEX
  5
279
  8
0
  6
CONTINUOUS
 62
     7
 10
122.832755815
 20
188.8635348549
 30
0.0
  0
VERTEX
  5
27A
  8
0
  6
CONTINUOUS
 62
     7
 10
122.2175911775
 20
188.8386499157
 30
0.0
  0
VERTEX
  5
27B
  8
0
  6
CONTINUOUS
 62
     7
 10
121.4847163072
 20
188.8103853932
 30
0.0
  0
VERTEX
  5
27C
  8
0
  6
CONTINUOUS
 62
     7
 10
120.6341058722
 20
188.7794327011
 30
0.0
  0
VERTEX
  5
27D
  8
0
  6
CONTINUOUS
 62
     7
 10
119.6166843882
 20
188.7449454537
 30
0.0
  0
VERTEX
  5
27E
  8
0
  6
CONTINUOUS
 62
     7
 10
118.4699923506
 20
188.7093257179
 30
0.0
  0
VERTEX
  5
27F
  8
0
  6
CONTINUOUS
 62
     7
 10
117.1941884568
 20
188.6736702194
 30
0.0
  0
VERTEX
  5
280
  8
0
  6
CONTINUOUS
 62
     7
 10
111.1466341426
 20
188.5590147247
 30
0.0
  0
VERTEX
  5
281
  8
0
  6
CONTINUOUS
 62
     7
 10
105.1295824123
 20
188.5295104256
 30
0.0
  0
VERTEX
  5
282
  8
0
  6
CONTINUOUS
 62
     7
 10
102.755041491
 20
188.5404538384
 30
0.0
  0
VERTEX
  5
283
  8
0
  6
CONTINUOUS
 62
     7
 10
100.5199883839
 20
188.5624837151
 30
0.0
  0
VERTEX
  5
284
  8
0
  6
CONTINUOUS
 62
     7
 10
98.4387562385
 20
188.5933112373
 30
0.0
  0
VERTEX
  5
285
  8
0
  6
CONTINUOUS
 62
     7
 10
96.5113692691
 20
188.630868124
 30
0.0
  0
VERTEX
  5
286
  8
0
  6
CONTINUOUS
 62
     7
 10
94.7281033506
 20
188.6735033264
 30
0.0
  0
VERTEX
  5
287
  8
0
  6
CONTINUOUS
 62
     7
 10
93.8186802676
 20
188.6982273331
 30
0.0
  0
VERTEX
  5
288
  8
0
  6
CONTINUOUS
 62
     7
 10
92.8665385356
 20
188.726342844
 30
0.0
  0
VERTEX
  5
289
  8
0
  6
CONTINUOUS
 62
     7
 10
91.8717012515
 20
188.7582372894
 30
0.0
  0
VERTEX
  5
28A
  8
0
  6
CONTINUOUS
 62
     7
 10
90.834190022
 20
188.7943398228
 30
0.0
  0
VERTEX
  5
28B
  8
0
  6
CONTINUOUS
 62
     7
 10
89.8098350277
 20
188.8329278698
 30
0.0
  0
VERTEX
  5
28C
  8
0
  6
CONTINUOUS
 62
     7
 10
89.1415134778
 20
188.8597261181
 30
0.0
  0
VERTEX
  5
28D
  8
0
  6
CONTINUOUS
 62
     7
 10
88.6608437409
 20
188.8798069229
 30
0.0
  0
VERTEX
  5
28E
  8
0
  6
CONTINUOUS
 62
     7
 10
88.346804749
 20
188.8932835331
 30
0.0
  0
VERTEX
  5
28F
  8
0
  6
CONTINUOUS
 62
     7
 10
87.8659234157
 20
188.9140915146
 30
0.0
  0
VERTEX
  5
290
  8
0
  6
CONTINUOUS
 62
     7
 10
87.3100117555
 20
188.9371585121
 30
0.0
  0
VERTEX
  5
291
  8
0
  6
CONTINUOUS
 62
     7
 10
86.6791308632
 20
188.9612864723
 30
0.0
  0
VERTEX
  5
292
  8
0
  6
CONTINUOUS
 62
     7
 10
85.9732837191
 20
188.988692688
 30
0.0
  0
VERTEX
  5
293
  8
0
  6
CONTINUOUS
 62
     7
 10
85.1915539017
 20
189.0229117146
 30
0.0
  0
VERTEX
  5
294
  8
0
  6
CONTINUOUS
 62
     7
 10
84.3294025173
 20
189.0677463284
 30
0.0
  0
VERTEX
  5
295
  8
0
  6
CONTINUOUS
 62
     7
 10
83.3862573614
 20
189.1240965595
 30
0.0
  0
VERTEX
  5
296
  8
0
  6
CONTINUOUS
 62
     7
 10
82.3622331729
 20
189.1925226917
 30
0.0
  0
VERTEX
  5
297
  8
0
  6
CONTINUOUS
 62
     7
 10
81.2574521413
 20
189.2737220993
 30
0.0
  0
VERTEX
  5
298
  8
0
  6
CONTINUOUS
 62
     7
 10
80.0720453968
 20
189.3685113659
 30
0.0
  0
VERTEX
  5
299
  8
0
  6
CONTINUOUS
 62
     7
 10
78.008061718
 20
189.5508777371
 30
0.0
  0
VERTEX
  5
29A
  8
0
  6
CONTINUOUS
 62
     7
 10
75.7528007736
 20
189.7735726109
 30
0.0
  0
VERTEX
  5
29B
  8
0
  6
CONTINUOUS
 62
     7
 10
73.4069586506
 20
190.0299679508
 30
0.0
  0
VERTEX
  5
29C
  8
0
  6
CONTINUOUS
 62
     7
 10
70.9905267468
 20
190.3198193779
 30
0.0
  0
VERTEX
  5
29D
  8
0
  6
CONTINUOUS
 62
     7
 10
68.5038805714
 20
190.6446289292
 30
0.0
  0
SEQEND
  5
597
  8
0
  6
CONTINUOUS
 62
     7
  0
POLYLINE
  5
54
  8
0
  6
CONTINUOUS
 62
     7
 66
     1
 10
0.0
 20
0.0
 30
0.0
  0
VERTEX
  5
29E
  8
0
  6
CONTINUOUS
 62
     7
 10
143.5408950558
 20
190.0608729592
 30
0.0
  0
VERTEX
  5
29F
  8
0
  6
CONTINUOUS
 62
     7
 10
143.458679389
 20
190.4218684902
 30
0.0
  0
VERTEX
  5
2A0
  8
0
  6
CONTINUOUS
 62
     7
 10
143.3246643057
 20
191.0108517876
 30
0.0
  0
SEQEND
  5
596
  8
0
  6
CONTINUOUS
 62
     7
  0
POLYLINE
  5
55
  8
0
  6
CONTINUOUS
 62
     7
 66
     1
 10
0.0
 20
0.0
 30
0.0
  0
VERTEX
  5
2A1
  8
0
  6
CONTINUOUS
 62
     7
 10
68.5569972506
 20
191.0108517876
 30
0.0
  0
VERTEX
  5
2A2
  8
0
  6
CONTINUOUS
 62
     7
 10
68.4243083706
 20
190.427703785
 30
0.0
  0
VERTEX
  5
2A3
  8
0
  6
CONTINUOUS
 62
     7
 10
68.3385581484
 20
190.0511812439
 30
0.0
  0
SEQEND
  5
595
  8
0
  6
CONTINUOUS
 62
     7
  0
ARC
  5
56
  8
0
  6
CONTINUOUS
 62
     7
 10
165.9408307781
 20
213.4565755596
 30
0.0
 40
2.700000000000017
 50
0.0
 51
180.0
  0
ARC
  5
57
  8
0
  6
CONTINUOUS
 62
     7
 10
165.9408307781
 20
166.8565755596
 30
0.0
 40
2.700000000000017
 50
180.0
 51
0.0
  0
ARC
  5
58
  8
0
  6
CONTINUOUS
 62
     7
 10
169.9408307781
 20
165.6565755596
 30
0.0
 40
2.0
 50
270.0
 51
0.0
  0
LINE
  5
59
  8
0
  6
CONTINUOUS
 62
     7
 10
169.9408293476
 20
163.6565756073
 30
0.0
 11
161.9408310165
 21
163.6565756073
 31
0.0
  0
ARC
  5
5A
  8
0
  6
CONTINUOUS
 62
     7
 10
161.9408307781
 20
165.6565755596
 30
0.0
 40
2.0
 50
180.0
 51
270.0
  0
LINE
  5
5B
  8
0
  6
CONTINUOUS
 62
     7
 10
159.9408329239
 20
172.2565781346
 30
0.0
 11
159.9408329239
 21
165.6565737
 31
0.0
  0
LINE
  5
5C
  8
0
  6
CONTINUOUS
 62
     7
 10
171.9408334007
 20
172.2565781346
 30
0.0
 11
171.9408334007
 21
165.6565737
 31
0.0
  0
LINE
  5
5D
  8
0
  6
CONTINUOUS
 62
     7
 10
159.9408329239
 20
173.456574606
 30
0.0
 11
163.240832161
 21
173.456574606
 31
0.0
  0
LINE
  5
5E
  8
0
  6
CONTINUOUS
 62
     7
 10
168.6408282032
 20
173.456574606
 30
0.0
 11
171.9408334007
 21
173.456574606
 31
0.0
  0
LINE
  5
5F
  8
0
  6
CONTINUOUS
 62
     7
 10
159.9408329239
 20
172.2565781346
 30
0.0
 11
159.9408329239
 21
173.456574606
 31
0.0
  0
LINE
  5
60
  8
0
  6
CONTINUOUS
 62
     7
 10
171.9408334007
 20
173.456574606
 30
0.0
 11
171.9408334007
 21
172.2565781346
 31
0.0
  0
ARC
  5
61
  8
0
  6
CONTINUOUS
 62
     7
 10
45.9408307781
 20
213.4565755596
 30
0.0
 40
2.700000000000003
 50
0.0
 51
180.0
  0
ARC
  5
62
  8
0
  6
CONTINUOUS
 62
     7
 10
45.9408307781
 20
166.8565755596
 30
0.0
 40
2.700000000000003
 50
180.0
 51
0.0
  0
ARC
  5
63
  8
0
  6
CONTINUOUS
 62
     7
 10
49.9408307781
 20
165.6565755596
 30
0.0
 40
2.0
 50
270.0
 51
0.0
  0
LINE
  5
64
  8
0
  6
CONTINUOUS
 62
     7
 10
49.9408305397
 20
163.6565756073
 30
0.0
 11
41.9408322086
 21
163.6565756073
 31
0.0
  0
ARC
  5
65
  8
0
  6
CONTINUOUS
 62
     7
 10
41.9408307781
 20
165.6565755596
 30
0.0
 40
2.0
 50
180.0
 51
270.0
  0
LINE
  5
66
  8
0
  6
CONTINUOUS
 62
     7
 10
39.9408281555
 20
172.2565781346
 30
0.0
 11
39.9408281555
 21
165.6565737
 31
0.0
  0
LINE
  5
67
  8
0
  6
CONTINUOUS
 62
     7
 10
51.9408286324
 20
172.2565781346
 30
0.0
 11
51.9408286324
 21
165.6565737
 31
0.0
  0
LINE
  5
68
  8
0
  6
CONTINUOUS
 62
     7
 10
39.9408281555
 20
172.2565781346
 30
0.0
 11
39.9408281555
 21
173.456574606
 31
0.0
  0
LINE
  5
69
  8
0
  6
CONTINUOUS
 62
     7
 10
39.9408281555
 20
173.456574606
 30
0.0
 11
43.240833353
 21
173.456574606
 31
0.0
  0
LINE
  5
6A
  8
0
  6
CONTINUOUS
 62
     7
 10
48.6408293953
 20
173.456574606
 30
0.0
 11
51.9408286324
 21
173.456574606
 31
0.0
  0
LINE
  5
6B
  8
0
  6
CONTINUOUS
 62
     7
 10
51.9408286324
 20
173.456574606
 30
0.0
 11
51.9408286324
 21
172.2565781346
 31
0.0
  0
POLYLINE
  5
6C
  8
0
  6
CONTINUOUS
 62
     7
 66
     1
 10
0.0
 20
0.0
 30
0.0
  0
VERTEX
  5
2A4
  8
0
  6
CONTINUOUS
 62
     7
 10
140.9661561956
 20
257.3846351376
 30
0.0
  0
VERTEX
  5
2A5
  8
0
  6
CONTINUOUS
 62
     7
 10
140.9935653915
 20
258.6961042156
 30
0.0
  0
VERTEX
  5
2A6
  8
0
  6
CONTINUOUS
 62
     7
 10
140.83172686
 20
259.9654328098
 30
0.0
  0
VERTEX
  5
2A7
  8
0
  6
CONTINUOUS
 62
     7
 10
140.4795885792
 20
261.1569654217
 30
0.0
  0
VERTEX
  5
2A8
  8
0
  6
CONTINUOUS
 62
     7
 10
139.9448782911
 20
262.2404824963
 30
0.0
  0
VERTEX
  5
2A9
  8
0
  6
CONTINUOUS
 62
     7
 10
139.234539937
 20
263.1865989437
 30
0.0
  0
VERTEX
  5
2AA
  8
0
  6
CONTINUOUS
 62
     7
 10
138.3673400393
 20
263.9714013806
 30
0.0
  0
VERTEX
  5
2AB
  8
0
  6
CONTINUOUS
 62
     7
 10
137.3664320221
 20
264.5700346699
 30
0.0
  0
VERTEX
  5
2AC
  8
0
  6
CONTINUOUS
 62
     7
 10
136.2573922386
 20
264.9728428593
 30
0.0
  0
VERTEX
  5
2AD
  8
0
  6
CONTINUOUS
 62
     7
 10
135.2290035
 20
265.1538621655
 30
0.0
  0
VERTEX
  5
2AE
  8
0
  6
CONTINUOUS
 62
     7
 10
134.1634959688
 20
265.1765596142
 30
0.0
  0
SEQEND
  5
594
  8
0
  6
CONTINUOUS
 62
     7
  0
POLYLINE
  5
6D
  8
0
  6
CONTINUOUS
 62
     7
 66
     1
 10
0.0
 20
0.0
 30
0.0
  0
VERTEX
  5
2AF
  8
0
  6
CONTINUOUS
 62
     7
 10
139.6245629301
 20
242.8110491505
 30
0.0
  0
VERTEX
  5
2B0
  8
0
  6
CONTINUOUS
 62
     7
 10
139.9584592094
 20
246.4590441456
 30
0.0
  0
VERTEX
  5
2B1
  8
0
  6
CONTINUOUS
 62
     7
 10
140.2944267502
 20
250.1042496433
 30
0.0
  0
VERTEX
  5
2B2
  8
0
  6
CONTINUOUS
 62
     7
 10
140.6311631908
 20
253.7566196194
 30
0.0
  0
VERTEX
  5
2B3
  8
0
  6
CONTINUOUS
 62
     7
 10
140.9661561956
 20
257.3846351376
 30
0.0
  0
SEQEND
  5
593
  8
0
  6
CONTINUOUS
 62
     7
  0
POLYLINE
  5
6E
  8
0
  6
CONTINUOUS
 62
     7
 66
     1
 10
0.0
 20
0.0
 30
0.0
  0
VERTEX
  5
2B4
  8
0
  6
CONTINUOUS
 62
     7
 10
131.5007478704
 20
234.3070160618
 30
0.0
  0
VERTEX
  5
2B5
  8
0
  6
CONTINUOUS
 62
     7
 10
132.9020560493
 20
234.5021974316
 30
0.0
  0
VERTEX
  5
2B6
  8
0
  6
CONTINUOUS
 62
     7
 10
134.2514247408
 20
234.9447857609
 30
0.0
  0
VERTEX
  5
2B7
  8
0
  6
CONTINUOUS
 62
     7
 10
135.511154007
 20
235.6269609203
 30
0.0
  0
VERTEX
  5
2B8
  8
0
  6
CONTINUOUS
 62
     7
 10
136.6489351501
 20
236.5260493031
 30
0.0
  0
VERTEX
  5
2B9
  8
0
  6
CONTINUOUS
 62
     7
 10
137.6302034369
 20
237.6145016422
 30
0.0
  0
VERTEX
  5
2BA
  8
0
  6
CONTINUOUS
 62
     7
 10
138.4380490294
 20
238.8611804714
 30
0.0
  0
VERTEX
  5
2BB
  8
0
  6
CONTINUOUS
 62
     7
 10
139.0524239054
 20
240.2350198498
 30
0.0
  0
VERTEX
  5
2BC
  8
0
  6
CONTINUOUS
 62
     7
 10
139.4606859198
 20
241.6923057308
 30
0.0
  0
VERTEX
  5
2BD
  8
0
  6
CONTINUOUS
 62
     7
 10
139.6245629301
 20
242.8110491505
 30
0.0
  0
SEQEND
  5
592
  8
0
  6
CONTINUOUS
 62
     7
  0
POLYLINE
  5
6F
  8
0
  6
CONTINUOUS
 62
     7
 66
     1
 10
0.0
 20
0.0
 30
0.0
  0
VERTEX
  5
2BE
  8
0
  6
CONTINUOUS
 62
     7
 10
80.3809136858
 20
234.3070160618
 30
0.0
  0
VERTEX
  5
2BF
  8
0
  6
CONTINUOUS
 62
     7
 10
83.2053542843
 20
234.1801892986
 30
0.0
  0
VERTEX
  5
2C0
  8
0
  6
CONTINUOUS
 62
     7
 10
86.071118783
 20
234.0682994595
 30
0.0
  0
VERTEX
  5
2C1
  8
0
  6
CONTINUOUS
 62
     7
 10
88.9729053488
 20
233.971561121
 30
0.0
  0
VERTEX
  5
2C2
  8
0
  6
CONTINUOUS
 62
     7
 10
93.1598708739
 20
233.8602196446
 30
0.0
  0
VERTEX
  5
2C3
  8
0
  6
CONTINUOUS
 62
     7
 10
97.393918853
 20
233.7803851833
 30
0.0
  0
VERTEX
  5
2C4
  8
0
  6
CONTINUOUS
 62
     7
 10
101.659482043
 20
233.7323796024
 30
0.0
  0
VERTEX
  5
2C5
  8
0
  6
CONTINUOUS
 62
     7
 10
105.9408307781
 20
233.7163578739
 30
0.0
  0
VERTEX
  5
2C6
  8
0
  6
CONTINUOUS
 62
     7
 10
110.2221795132
 20
233.7323796024
 30
0.0
  0
VERTEX
  5
2C7
  8
0
  6
CONTINUOUS
 62
     7
 10
114.4877427032
 20
233.7803851833
 30
0.0
  0
VERTEX
  5
2C8
  8
0
  6
CONTINUOUS
 62
     7
 10
118.7217906823
 20
233.8602196446
 30
0.0
  0
VERTEX
  5
2C9
  8
0
  6
CONTINUOUS
 62
     7
 10
122.9087562075
 20
233.971561121
 30
0.0
  0
VERTEX
  5
2CA
  8
0
  6
CONTINUOUS
 62
     7
 10
125.8105427732
 20
234.0682994595
 30
0.0
  0
VERTEX
  5
2CB
  8
0
  6
CONTINUOUS
 62
     7
 10
128.676307272
 20
234.1801892986
 30
0.0
  0
VERTEX
  5
2CC
  8
0
  6
CONTINUOUS
 62
     7
 10
131.5007478704
 20
234.3070160618
 30
0.0
  0
SEQEND
  5
591
  8
0
  6
CONTINUOUS
 62
     7
  0
POLYLINE
  5
70
  8
0
  6
CONTINUOUS
 62
     7
 66
     1
 10
0.0
 20
0.0
 30
0.0
  0
VERTEX
  5
2CD
  8
0
  6
CONTINUOUS
 62
     7
 10
72.2570986261
 20
242.8110491505
 30
0.0
  0
VERTEX
  5
2CE
  8
0
  6
CONTINUOUS
 62
     7
 10
72.5052089205
 20
241.3156401386
 30
0.0
  0
VERTEX
  5
2CF
  8
0
  6
CONTINUOUS
 62
     7
 10
72.9668856373
 20
239.8729454746
 30
0.0
  0
VERTEX
  5
2D0
  8
0
  6
CONTINUOUS
 62
     7
 10
73.635217618
 20
238.5256778469
 30
0.0
  0
VERTEX
  5
2D1
  8
0
  6
CONTINUOUS
 62
     7
 10
74.4926304331
 20
237.3114597073
 30
0.0
  0
VERTEX
  5
2D2
  8
0
  6
CONTINUOUS
 62
     7
 10
75.5208463182
 20
236.2684857121
 30
0.0
  0
VERTEX
  5
2D3
  8
0
  6
CONTINUOUS
 62
     7
 10
76.6926259508
 20
235.4238044491
 30
0.0
  0
VERTEX
  5
2D4
  8
0
  6
CONTINUOUS
 62
     7
 10
77.9758126249
 20
234.8062884083
 30
0.0
  0
VERTEX
  5
2D5
  8
0
  6
CONTINUOUS
 62
     7
 10
79.337790679
 20
234.4269763699
 30
0.0
  0
VERTEX
  5
2D6
  8
0
  6
CONTINUOUS
 62
     7
 10
80.3809136858
 20
234.3070160618
 30
0.0
  0
SEQEND
  5
590
  8
0
  6
CONTINUOUS
 62
     7
  0
POLYLINE
  5
71
  8
0
  6
CONTINUOUS
 62
     7
 66
     1
 10
0.0
 20
0.0
 30
0.0
  0
VERTEX
  5
2D7
  8
0
  6
CONTINUOUS
 62
     7
 10
70.9154994001
 20
257.3846709004
 30
0.0
  0
VERTEX
  5
2D8
  8
0
  6
CONTINUOUS
 62
     7
 10
71.2504953852
 20
253.7566673031
 30
0.0
  0
VERTEX
  5
2D9
  8
0
  6
CONTINUOUS
 62
     7
 10
71.5872318258
 20
250.1042734852
 30
0.0
  0
VERTEX
  5
2DA
  8
0
  6
CONTINUOUS
 62
     7
 10
71.9232023468
 20
246.4590560665
 30
0.0
  0
VERTEX
  5
2DB
  8
0
  6
CONTINUOUS
 62
     7
 10
72.2570986261
 20
242.8110491505
 30
0.0
  0
SEQEND
  5
58F
  8
0
  6
CONTINUOUS
 62
     7
  0
POLYLINE
  5
72
  8
0
  6
CONTINUOUS
 62
     7
 66
     1
 10
0.0
 20
0.0
 30
0.0
  0
VERTEX
  5
2DC
  8
0
  6
CONTINUOUS
 62
     7
 10
77.7182132711
 20
265.1765596142
 30
0.0
  0
VERTEX
  5
2DD
  8
0
  6
CONTINUOUS
 62
     7
 10
76.4908403864
 20
265.1358496418
 30
0.0
  0
VERTEX
  5
2DE
  8
0
  6
CONTINUOUS
 62
     7
 10
75.3173769226
 20
264.8849021664
 30
0.0
  0
VERTEX
  5
2DF
  8
0
  6
CONTINUOUS
 62
     7
 10
74.2316246738
 20
264.426220583
 30
0.0
  0
VERTEX
  5
2E0
  8
0
  6
CONTINUOUS
 62
     7
 10
73.2622981777
 20
263.7741934528
 30
0.0
  0
VERTEX
  5
2E1
  8
0
  6
CONTINUOUS
 62
     7
 10
72.4406213274
 20
262.9478227368
 30
0.0
  0
VERTEX
  5
2E2
  8
0
  6
CONTINUOUS
 62
     7
 10
71.7788190355
 20
261.9681011906
 30
0.0
  0
VERTEX
  5
2E3
  8
0
  6
CONTINUOUS
 62
     7
 10
71.2925345411
 20
260.8558189144
 30
0.0
  0
VERTEX
  5
2E4
  8
0
  6
CONTINUOUS
 62
     7
 10
70.9897936096
 20
259.6439015141
 30
0.0
  0
VERTEX
  5
2E5
  8
0
  6
CONTINUOUS
 62
     7
 10
70.8807647934
 20
258.5285555592
 30
0.0
  0
VERTEX
  5
2E6
  8
0
  6
CONTINUOUS
 62
     7
 10
70.9154994001
 20
257.3846709004
 30
0.0
  0
SEQEND
  5
58E
  8
0
  6
CONTINUOUS
 62
     7
  0
POLYLINE
  5
73
  8
0
  6
CONTINUOUS
 62
     7
 66
     1
 10
0.0
 20
0.0
 30
0.0
  0
VERTEX
  5
2E7
  8
0
  6
CONTINUOUS
 62
     7
 10
134.1634959688
 20
265.1765596142
 30
0.0
  0
VERTEX
  5
2E8
  8
0
  6
CONTINUOUS
 62
     7
 10
130.9799910297
 20
265.0178205242
 30
0.0
  0
VERTEX
  5
2E9
  8
0
  6
CONTINUOUS
 62
     7
 10
127.7413920274
 20
264.8782026043
 30
0.0
  0
VERTEX
  5
2EA
  8
0
  6
CONTINUOUS
 62
     7
 10
124.4549468865
 20
264.7580157986
 30
0.0
  0
VERTEX
  5
2EB
  8
0
  6
CONTINUOUS
 62
     7
 10
120.8109766951
 20
264.6490704289
 30
0.0
  0
VERTEX
  5
2EC
  8
0
  6
CONTINUOUS
 62
     7
 10
117.1278246453
 20
264.5640265217
 30
0.0
  0
VERTEX
  5
2ED
  8
0
  6
CONTINUOUS
 62
     7
 10
113.4152822902
 20
264.5031224957
 30
0.0
  0
VERTEX
  5
2EE
  8
0
  6
CONTINUOUS
 62
     7
 10
109.6829653492
 20
264.4665133228
 30
0.0
  0
VERTEX
  5
2EF
  8
0
  6
CONTINUOUS
 62
     7
 10
105.9408307781
 20
264.4543062916
 30
0.0
  0
VERTEX
  5
2F0
  8
0
  6
CONTINUOUS
 62
     7
 10
102.198696207
 20
264.4665133228
 30
0.0
  0
VERTEX
  5
2F1
  8
0
  6
CONTINUOUS
 62
     7
 10
98.466379266
 20
264.5031224957
 30
0.0
  0
VERTEX
  5
2F2
  8
0
  6
CONTINUOUS
 62
     7
 10
94.753836911
 20
264.5640265217
 30
0.0
  0
VERTEX
  5
2F3
  8
0
  6
CONTINUOUS
 62
     7
 10
91.0706848612
 20
264.6490704289
 30
0.0
  0
VERTEX
  5
2F4
  8
0
  6
CONTINUOUS
 62
     7
 10
87.4267146697
 20
264.7580157986
 30
0.0
  0
VERTEX
  5
2F5
  8
0
  6
CONTINUOUS
 62
     7
 10
84.1402859201
 20
264.8782026043
 30
0.0
  0
VERTEX
  5
2F6
  8
0
  6
CONTINUOUS
 62
     7
 10
80.9017062893
 20
265.0178205242
 30
0.0
  0
VERTEX
  5
2F7
  8
0
  6
CONTINUOUS
 62
     7
 10
77.7182132711
 20
265.1765596142
 30
0.0
  0
SEQEND
  5
58D
  8
0
  6
CONTINUOUS
 62
     7
  0
POLYLINE
  5
74
  8
0
  6
CONTINUOUS
 62
     7
 66
     1
 10
0.0
 20
0.0
 30
0.0
  0
VERTEX
  5
2F8
  8
0
  6
CONTINUOUS
 62
     7
 10
140.1961208096
 20
242.6800619831
 30
0.0
  0
VERTEX
  5
2F9
  8
0
  6
CONTINUOUS
 62
     7
 10
139.9446547737
 20
241.1851536503
 30
0.0
  0
VERTEX
  5
2FA
  8
0
  6
CONTINUOUS
 62
     7
 10
139.4797892084
 20
239.7435914745
 30
0.0
  0
VERTEX
  5
2FB
  8
0
  6
CONTINUOUS
 62
     7
 10
138.8085395803
 20
238.3980643025
 30
0.0
  0
VERTEX
  5
2FC
  8
0
  6
CONTINUOUS
 62
     7
 10
137.9485995283
 20
237.1861230602
 30
0.0
  0
VERTEX
  5
2FD
  8
0
  6
CONTINUOUS
 62
     7
 10
136.9183511248
 20
236.1458670368
 30
0.0
  0
VERTEX
  5
2FE
  8
0
  6
CONTINUOUS
 62
     7
 10
135.7451529017
 20
235.3042732945
 30
0.0
  0
VERTEX
  5
2FF
  8
0
  6
CONTINUOUS
 62
     7
 10
134.461137723
 20
234.6900712719
 30
0.0
  0
VERTEX
  5
300
  8
0
  6
CONTINUOUS
 62
     7
 10
133.099058341
 20
234.3142997494
 30
0.0
  0
VERTEX
  5
301
  8
0
  6
CONTINUOUS
 62
     7
 10
132.0750594845
 20
234.1979514828
 30
0.0
  0
SEQEND
  5
58C
  8
0
  6
CONTINUOUS
 62
     7
  0
POLYLINE
  5
75
  8
0
  6
CONTINUOUS
 62
     7
 66
     1
 10
0.0
 20
0.0
 30
0.0
  0
VERTEX
  5
302
  8
0
  6
CONTINUOUS
 62
     7
 10
79.8066020718
 20
234.1979514828
 30
0.0
  0
VERTEX
  5
303
  8
0
  6
CONTINUOUS
 62
     7
 10
78.4062922707
 20
234.3927752247
 30
0.0
  0
VERTEX
  5
304
  8
0
  6
CONTINUOUS
 62
     7
 10
77.0576626768
 20
234.8350416889
 30
0.0
  0
VERTEX
  5
305
  8
0
  6
CONTINUOUS
 62
     7
 10
75.7984042873
 20
235.5168949833
 30
0.0
  0
VERTEX
  5
306
  8
0
  6
CONTINUOUS
 62
     7
 10
74.6608317604
 20
236.4156734219
 30
0.0
  0
VERTEX
  5
307
  8
0
  6
CONTINUOUS
 62
     7
 10
73.6794234028
 20
237.503958868
 30
0.0
  0
VERTEX
  5
308
  8
0
  6
CONTINUOUS
 62
     7
 10
72.8712887278
 20
238.7505423298
 30
0.0
  0
VERTEX
  5
309
  8
0
  6
CONTINUOUS
 62
     7
 10
72.2565651646
 20
240.1242744198
 30
0.0
  0
VERTEX
  5
30A
  8
0
  6
CONTINUOUS
 62
     7
 10
71.847876977
 20
241.5815245381
 30
0.0
  0
VERTEX
  5
30B
  8
0
  6
CONTINUOUS
 62
     7
 10
71.6855407467
 20
242.6800619831
 30
0.0
  0
SEQEND
  5
58B
  8
0
  6
CONTINUOUS
 62
     7
  0
POLYLINE
  5
76
  8
0
  6
CONTINUOUS
 62
     7
 66
     1
 10
0.0
 20
0.0
 30
0.0
  0
VERTEX
  5
30C
  8
0
  6
CONTINUOUS
 62
     7
 10
140.1961208096
 20
242.6800619831
 30
0.0
  0
VERTEX
  5
30D
  8
0
  6
CONTINUOUS
 62
     7
 10
140.5358374825
 20
246.3024150601
 30
0.0
  0
VERTEX
  5
30E
  8
0
  6
CONTINUOUS
 62
     7
 10
140.8756972065
 20
249.9207984677
 30
0.0
  0
VERTEX
  5
30F
  8
0
  6
CONTINUOUS
 62
     7
 10
141.2151247969
 20
253.5243045559
 30
0.0
  0
VERTEX
  5
310
  8
0
  6
CONTINUOUS
 62
     7
 10
141.5534020176
 20
257.0971857777
 30
0.0
  0
SEQEND
  5
58A
  8
0
  6
CONTINUOUS
 62
     7
  0
POLYLINE
  5
77
  8
0
  6
CONTINUOUS
 62
     7
 66
     1
 10
0.0
 20
0.0
 30
0.0
  0
VERTEX
  5
311
  8
0
  6
CONTINUOUS
 62
     7
 10
70.3282535782
 20
257.0972215405
 30
0.0
  0
VERTEX
  5
312
  8
0
  6
CONTINUOUS
 62
     7
 10
70.6665337791
 20
253.5243403187
 30
0.0
  0
VERTEX
  5
313
  8
0
  6
CONTINUOUS
 62
     7
 10
71.0059613695
 20
249.9208223095
 30
0.0
  0
VERTEX
  5
314
  8
0
  6
CONTINUOUS
 62
     7
 10
71.3458210936
 20
246.302426981
 30
0.0
  0
VERTEX
  5
315
  8
0
  6
CONTINUOUS
 62
     7
 10
71.6855407467
 20
242.6800619831
 30
0.0
  0
SEQEND
  5
589
  8
0
  6
CONTINUOUS
 62
     7
  0
POLYLINE
  5
78
  8
0
  6
CONTINUOUS
 62
     7
 66
     1
 10
0.0
 20
0.0
 30
0.0
  0
VERTEX
  5
316
  8
0
  6
CONTINUOUS
 62
     7
 10
137.8606975784
 20
264.3172990551
 30
0.0
  0
VERTEX
  5
317
  8
0
  6
CONTINUOUS
 62
     7
 10
138.2544637432
 20
264.1497027149
 30
0.0
  0
VERTEX
  5
318
  8
0
  6
CONTINUOUS
 62
     7
 10
139.2214298954
 20
263.495291399
 30
0.0
  0
VERTEX
  5
319
  8
0
  6
CONTINUOUS
 62
     7
 10
140.0407791843
 20
262.6665722599
 30
0.0
  0
VERTEX
  5
31A
  8
0
  6
CONTINUOUS
 62
     7
 10
140.7000929823
 20
261.6847168675
 30
0.0
  0
VERTEX
  5
31B
  8
0
  6
CONTINUOUS
 62
     7
 10
141.1837459316
 20
260.5706226101
 30
0.0
  0
VERTEX
  5
31C
  8
0
  6
CONTINUOUS
 62
     7
 10
141.4837837925
 20
259.3572627773
 30
0.0
  0
VERTEX
  5
31D
  8
0
  6
CONTINUOUS
 62
     7
 10
141.5904254427
 20
258.2413088551
 30
0.0
  0
VERTEX
  5
31E
  8
0
  6
CONTINUOUS
 62
     7
 10
141.5534020176
 20
257.0971857777
 30
0.0
  0
SEQEND
  5
588
  8
0
  6
CONTINUOUS
 62
     7
  0
POLYLINE
  5
79
  8
0
  6
CONTINUOUS
 62
     7
 66
     1
 10
0.0
 20
0.0
 30
0.0
  0
VERTEX
  5
31F
  8
0
  6
CONTINUOUS
 62
     7
 10
70.3282535782
 20
257.0972215405
 30
0.0
  0
VERTEX
  5
320
  8
0
  6
CONTINUOUS
 62
     7
 10
70.2982187977
 20
258.4090363255
 30
0.0
  0
VERTEX
  5
321
  8
0
  6
CONTINUOUS
 62
     7
 10
70.4573363771
 20
259.6792113056
 30
0.0
  0
VERTEX
  5
322
  8
0
  6
CONTINUOUS
 62
     7
 10
70.8067209234
 20
260.8720313778
 30
0.0
  0
VERTEX
  5
323
  8
0
  6
CONTINUOUS
 62
     7
 10
71.3386893978
 20
261.9572650662
 30
0.0
  0
VERTEX
  5
324
  8
0
  6
CONTINUOUS
 62
     7
 10
72.0463783255
 20
262.9054795971
 30
0.0
  0
VERTEX
  5
325
  8
0
  6
CONTINUOUS
 62
     7
 10
72.9110509863
 20
263.6926662197
 30
0.0
  0
VERTEX
  5
326
  8
0
  6
CONTINUOUS
 62
     7
 10
73.9098162165
 20
264.2939459553
 30
0.0
  0
VERTEX
  5
327
  8
0
  6
CONTINUOUS
 62
     7
 10
74.0130455008
 20
264.3317591419
 30
0.0
  0
SEQEND
  5
587
  8
0
  6
CONTINUOUS
 62
     7
  0
POLYLINE
  5
7A
  8
0
  6
CONTINUOUS
 62
     7
 66
     1
 10
0.0
 20
0.0
 30
0.0
  0
VERTEX
  5
328
  8
0
  6
CONTINUOUS
 62
     7
 10
79.8066020718
 20
234.1979514828
 30
0.0
  0
VERTEX
  5
329
  8
0
  6
CONTINUOUS
 62
     7
 10
82.7241823783
 20
234.067703413
 30
0.0
  0
VERTEX
  5
32A
  8
0
  6
CONTINUOUS
 62
     7
 10
85.6852964273
 20
233.9529763928
 30
0.0
  0
VERTEX
  5
32B
  8
0
  6
CONTINUOUS
 62
     7
 10
88.6843786349
 20
233.8539730778
 30
0.0
  0
VERTEX
  5
32C
  8
0
  6
CONTINUOUS
 62
     7
 10
92.9425419083
 20
233.7419997921
 30
0.0
  0
VERTEX
  5
32D
  8
0
  6
CONTINUOUS
 62
     7
 10
97.2485922983
 20
233.6617242565
 30
0.0
  0
VERTEX
  5
32E
  8
0
  6
CONTINUOUS
 62
     7
 10
101.5866891255
 20
233.6134444943
 30
0.0
  0
VERTEX
  5
32F
  8
0
  6
CONTINUOUS
 62
     7
 10
105.9408307781
 20
233.5973273983
 30
0.0
  0
VERTEX
  5
330
  8
0
  6
CONTINUOUS
 62
     7
 10
110.2949724307
 20
233.6134444943
 30
0.0
  0
VERTEX
  5
331
  8
0
  6
CONTINUOUS
 62
     7
 10
114.633069258
 20
233.6617242565
 30
0.0
  0
VERTEX
  5
332
  8
0
  6
CONTINUOUS
 62
     7
 10
118.939119648
 20
233.7419997921
 30
0.0
  0
VERTEX
  5
333
  8
0
  6
CONTINUOUS
 62
     7
 10
123.1972829213
 20
233.8539730778
 30
0.0
  0
VERTEX
  5
334
  8
0
  6
CONTINUOUS
 62
     7
 10
126.196365129
 20
233.9529763928
 30
0.0
  0
VERTEX
  5
335
  8
0
  6
CONTINUOUS
 62
     7
 10
129.157479178
 20
234.067703413
 30
0.0
  0
VERTEX
  5
336
  8
0
  6
CONTINUOUS
 62
     7
 10
132.0750594845
 20
234.1979514828
 30
0.0
  0
SEQEND
  5
586
  8
0
  6
CONTINUOUS
 62
     7
  0
LINE
  5
7B
  8
0
  6
CONTINUOUS
 62
     7
 10
87.9408300629
 20
172.2565781346
 30
0.0
 11
87.9408300629
 21
173.2565771809
 31
0.0
  0
LINE
  5
7C
  8
0
  6
CONTINUOUS
 62
     7
 10
87.9408300629
 20
173.2565771809
 30
0.0
 11
123.9408314934
 21
173.2565771809
 31
0.0
  0
LINE
  5
7D
  8
0
  6
CONTINUOUS
 62
     7
 10
123.9408314934
 20
173.2565771809
 30
0.0
 11
123.9408314934
 21
172.2565781346
 31
0.0
  0
LINE
  5
7E
  8
0
  6
CONTINUOUS
 62
     7
 10
120.9408313742
 20
162.8565739861
 30
0.0
 11
90.9408301821
 21
162.8565739861
 31
0.0
  0
ARC
  5
7F
  8
0
  6
CONTINUOUS
 62
     7
 10
90.9408307781
 20
165.8565755596
 30
0.0
 40
3.0
 50
180.0
 51
270.0
  0
LINE
  5
80
  8
0
  6
CONTINUOUS
 62
     7
 10
87.9408300629
 20
165.8565770855
 30
0.0
 11
87.9408300629
 21
172.2565781346
 31
0.0
  0
ARC
  5
81
  8
0
  6
CONTINUOUS
 62
     7
 10
120.9408307781
 20
165.8565755596
 30
0.0
 40
3.0
 50
270.0
 51
0.0
  0
LINE
  5
82
  8
0
  6
CONTINUOUS
 62
     7
 10
123.9408314934
 20
165.8565770855
 30
0.0
 11
123.9408314934
 21
172.2565781346
 31
0.0
  0
LINE
  5
83
  8
0
  6
CONTINUOUS
 62
     7
 10
102.9408308452
 20
182.9778622856
 30
0.0
 11
102.9408308452
 21
183.2862805596
 31
0.0
  0
LINE
  5
84
  8
0
  6
CONTINUOUS
 62
     7
 10
108.9408307111
 20
183.2787346115
 30
0.0
 11
108.9408307111
 21
182.9778622856
 31
0.0
  0
LINE
  5
85
  8
0
  6
CONTINUOUS
 62
     7
 10
108.9408307111
 20
182.9778622856
 30
0.0
 11
108.9408307111
 21
173.2565771809
 31
0.0
  0
LINE
  5
86
  8
0
  6
CONTINUOUS
 62
     7
 10
102.9408308452
 20
173.2565771809
 30
0.0
 11
102.9408308452
 21
182.9778622856
 31
0.0
  0
LINE
  5
87
  8
0
  6
CONTINUOUS
 62
     7
 10
102.9408308452
 20
188.5396014919
 30
0.0
 11
102.9408308452
 21
228.3582460156
 31
0.0
  0
LINE
  5
88
  8
0
  6
CONTINUOUS
 62
     7
 10
108.9408307111
 20
228.3582460156
 30
0.0
 11
108.9408307111
 21
188.5481964817
 31
0.0
  0
LINE
  5
89
  8
0
  6
CONTINUOUS
 62
     7
 10
108.9408307111
 20
229.9044739475
 30
0.0
 11
108.9408307111
 21
228.3582460156
 31
0.0
  0
LINE
  5
8A
  8
0
  6
CONTINUOUS
 62
     7
 10
102.9408308452
 20
228.3582460156
 30
0.0
 11
102.9408308452
 21
229.9044739475
 31
0.0
  0
LINE
  5
8B
  8
0
  6
CONTINUOUS
 62
     7
 10
108.9408307111
 20
233.6084377041
 30
0.0
 11
108.9408307111
 21
229.9044739475
 31
0.0
  0
LINE
  5
8C
  8
0
  6
CONTINUOUS
 62
     7
 10
102.9408308452
 20
229.9044739475
 30
0.0
 11
102.9408308452
 21
233.6084377041
 31
0.0
  0
POLYLINE
  5
8D
  8
0
  6
CONTINUOUS
 62
     7
 66
     1
 10
0.0
 20
0.0
 30
0.0
  0
VERTEX
  5
337
  8
0
  6
CONTINUOUS
 62
     7
 10
143.5409010162
 20
188.9872740975
 30
0.0
  0
VERTEX
  5
338
  8
0
  6
CONTINUOUS
 62
     7
 10
143.4530288687
 20
188.7331854572
 30
0.0
  0
VERTEX
  5
339
  8
0
  6
CONTINUOUS
 62
     7
 10
143.1877136936
 20
188.3781742325
 30
0.0
  0
VERTEX
  5
33A
  8
0
  6
CONTINUOUS
 62
     7
 10
142.7787155619
 20
187.9464279881
 30
0.0
  0
VERTEX
  5
33B
  8
0
  6
CONTINUOUS
 62
     7
 10
142.2203005066
 20
187.4444913139
 30
0.0
  0
VERTEX
  5
33C
  8
0
  6
CONTINUOUS
 62
     7
 10
141.4843381157
 20
186.8890117874
 30
0.0
  0
VERTEX
  5
33D
  8
0
  6
CONTINUOUS
 62
     7
 10
140.58226056
 20
186.340809988
 30
0.0
  0
VERTEX
  5
33E
  8
0
  6
CONTINUOUS
 62
     7
 10
139.7158802261
 20
185.9329830876
 30
0.0
  0
VERTEX
  5
33F
  8
0
  6
CONTINUOUS
 62
     7
 10
138.732206892
 20
185.5955015888
 30
0.0
  0
VERTEX
  5
340
  8
0
  6
CONTINUOUS
 62
     7
 10
138.1071389427
 20
185.4452323189
 30
0.0
  0
VERTEX
  5
341
  8
0
  6
CONTINUOUS
 62
     7
 10
137.4533326139
 20
185.3387784233
 30
0.0
  0
SEQEND
  5
585
  8
0
  6
CONTINUOUS
 62
     7
  0
POLYLINE
  5
8E
  8
0
  6
CONTINUOUS
 62
     7
 66
     1
 10
0.0
 20
0.0
 30
0.0
  0
VERTEX
  5
342
  8
0
  6
CONTINUOUS
 62
     7
 10
143.5409010162
 20
188.9872740975
 30
0.0
  0
VERTEX
  5
343
  8
0
  6
CONTINUOUS
 62
     7
 10
143.5409010162
 20
189.0420626869
 30
0.0
  0
VERTEX
  5
344
  8
0
  6
CONTINUOUS
 62
     7
 10
143.5406864395
 20
189.3347572556
 30
0.0
  0
VERTEX
  5
345
  8
0
  6
CONTINUOUS
 62
     7
 10
143.5402096024
 20
189.4574653378
 30
0.0
  0
VERTEX
  5
346
  8
0
  6
CONTINUOUS
 62
     7
 10
143.539857935
 20
189.47109692
 30
0.0
  0
VERTEX
  5
347
  8
0
  6
CONTINUOUS
 62
     7
 10
143.5401052942
 20
189.4582401981
 30
0.0
  0
SEQEND
  5
584
  8
0
  6
CONTINUOUS
 62
     7
  0
POLYLINE
  5
8F
  8
0
  6
CONTINUOUS
 62
     7
 66
     1
 10
0.0
 20
0.0
 30
0.0
  0
VERTEX
  5
348
  8
0
  6
CONTINUOUS
 62
     7
 10
143.5408294907
 20
189.754671978
 30
0.0
  0
VERTEX
  5
349
  8
0
  6
CONTINUOUS
 62
     7
 10
143.5261220446
 20
189.7069107762
 30
0.0
  0
VERTEX
  5
34A
  8
0
  6
CONTINUOUS
 62
     7
 10
143.5408354511
 20
189.5801138153
 30
0.0
  0
SEQEND
  5
583
  8
0
  6
CONTINUOUS
 62
     7
  0
POLYLINE
  5
90
  8
0
  6
CONTINUOUS
 62
     7
 66
     1
 10
0.0
 20
0.0
 30
0.0
  0
VERTEX
  5
34B
  8
0
  6
CONTINUOUS
 62
     7
 10
68.3408261051
 20
189.5801138153
 30
0.0
  0
VERTEX
  5
34C
  8
0
  6
CONTINUOUS
 62
     7
 10
68.3555395117
 20
189.7069107762
 30
0.0
  0
VERTEX
  5
34D
  8
0
  6
CONTINUOUS
 62
     7
 10
68.3408320656
 20
189.754671978
 30
0.0
  0
SEQEND
  5
582
  8
0
  6
CONTINUOUS
 62
     7
  0
POLYLINE
  5
91
  8
0
  6
CONTINUOUS
 62
     7
 66
     1
 10
0.0
 20
0.0
 30
0.0
  0
VERTEX
  5
34E
  8
0
  6
CONTINUOUS
 62
     7
 10
68.34076054
 20
188.9874529114
 30
0.0
  0
VERTEX
  5
34F
  8
0
  6
CONTINUOUS
 62
     7
 10
68.34076054
 20
188.9921497574
 30
0.0
  0
VERTEX
  5
350
  8
0
  6
CONTINUOUS
 62
     7
 10
68.3409304132
 20
189.3106471768
 30
0.0
  0
VERTEX
  5
351
  8
0
  6
CONTINUOUS
 62
     7
 10
68.3413953295
 20
189.4498895874
 30
0.0
  0
VERTEX
  5
352
  8
0
  6
CONTINUOUS
 62
     7
 10
68.3417797794
 20
189.4732546082
 30
0.0
  0
VERTEX
  5
353
  8
0
  6
CONTINUOUS
 62
     7
 10
68.3417291155
 20
189.4558440914
 30
0.0
  0
SEQEND
  5
581
  8
0
  6
CONTINUOUS
 62
     7
  0
POLYLINE
  5
92
  8
0
  6
CONTINUOUS
 62
     7
 66
     1
 10
0.0
 20
0.0
 30
0.0
  0
VERTEX
  5
354
  8
0
  6
CONTINUOUS
 62
     7
 10
74.4283289423
 20
185.3387784233
 30
0.0
  0
VERTEX
  5
355
  8
0
  6
CONTINUOUS
 62
     7
 10
73.4142810812
 20
185.5259429684
 30
0.0
  0
VERTEX
  5
356
  8
0
  6
CONTINUOUS
 62
     7
 10
72.4289745798
 20
185.8301233521
 30
0.0
  0
VERTEX
  5
357
  8
0
  6
CONTINUOUS
 62
     7
 10
71.5601355543
 20
186.2065147629
 30
0.0
  0
VERTEX
  5
358
  8
0
  6
CONTINUOUS
 62
     7
 10
70.7668662777
 20
186.6480838528
 30
0.0
  0
VERTEX
  5
359
  8
0
  6
CONTINUOUS
 62
     7
 10
70.0093955507
 20
187.1684502831
 30
0.0
  0
VERTEX
  5
35A
  8
0
  6
CONTINUOUS
 62
     7
 10
69.3681002369
 20
187.6980077496
 30
0.0
  0
VERTEX
  5
35B
  8
0
  6
CONTINUOUS
 62
     7
 10
68.8218653908
 20
188.2350157967
 30
0.0
  0
VERTEX
  5
35C
  8
0
  6
CONTINUOUS
 62
     7
 10
68.613722991
 20
188.4736370316
 30
0.0
  0
VERTEX
  5
35D
  8
0
  6
CONTINUOUS
 62
     7
 10
68.4616089573
 20
188.6796664467
 30
0.0
  0
VERTEX
  5
35E
  8
0
  6
CONTINUOUS
 62
     7
 10
68.34076054
 20
188.9874529114
 30
0.0
  0
SEQEND
  5
580
  8
0
  6
CONTINUOUS
 62
     7
  0
POLYLINE
  5
93
  8
0
  6
CONTINUOUS
 62
     7
 66
     1
 10
0.0
 20
0.0
 30
0.0
  0
VERTEX
  5
35F
  8
0
  6
CONTINUOUS
 62
     7
 10
137.4533326139
 20
185.3387784233
 30
0.0
  0
VERTEX
  5
360
  8
0
  6
CONTINUOUS
 62
     7
 10
130.364002358
 20
184.537864851
 30
0.0
  0
VERTEX
  5
361
  8
0
  6
CONTINUOUS
 62
     7
 10
123.2469365706
 20
183.9104246369
 30
0.0
  0
VERTEX
  5
362
  8
0
  6
CONTINUOUS
 62
     7
 10
116.0740286818
 20
183.4838580361
 30
0.0
  0
VERTEX
  5
363
  8
0
  6
CONTINUOUS
 62
     7
 10
108.8871045744
 20
183.2766424885
 30
0.0
  0
VERTEX
  5
364
  8
0
  6
CONTINUOUS
 62
     7
 10
103.8240679314
 20
183.2674454918
 30
0.0
  0
VERTEX
  5
365
  8
0
  6
CONTINUOUS
 62
     7
 10
98.7625413349
 20
183.3711158505
 30
0.0
  0
VERTEX
  5
366
  8
0
  6
CONTINUOUS
 62
     7
 10
93.6918758562
 20
183.5870515576
 30
0.0
  0
VERTEX
  5
367
  8
0
  6
CONTINUOUS
 62
     7
 10
88.6295989862
 20
183.9108061066
 30
0.0
  0
VERTEX
  5
368
  8
0
  6
CONTINUOUS
 62
     7
 10
81.5187186708
 20
184.5373582115
 30
0.0
  0
VERTEX
  5
369
  8
0
  6
CONTINUOUS
 62
     7
 10
74.4283289423
 20
185.3387784233
 30
0.0
  0
SEQEND
  5
57F
  8
0
  6
CONTINUOUS
 62
     7
  0
POLYLINE
  5
94
  8
0
  6
CONTINUOUS
 62
     7
 66
     1
 10
0.0
 20
0.0
 30
0.0
  0
VERTEX
  5
36A
  8
0
  6
CONTINUOUS
 62
     7
 10
74.6082306614
 20
190.6713496914
 30
0.0
  0
VERTEX
  5
36B
  8
0
  6
CONTINUOUS
 62
     7
 10
73.6017555704
 20
190.8889960518
 30
0.0
  0
VERTEX
  5
36C
  8
0
  6
CONTINUOUS
 62
     7
 10
72.6771623602
 20
191.0788070431
 30
0.0
  0
VERTEX
  5
36D
  8
0
  6
CONTINUOUS
 62
     7
 10
71.9096720924
 20
191.2167798748
 30
0.0
  0
VERTEX
  5
36E
  8
0
  6
CONTINUOUS
 62
     7
 10
71.2741882315
 20
191.3007032147
 30
0.0
  0
VERTEX
  5
36F
  8
0
  6
CONTINUOUS
 62
     7
 10
70.9724605789
 20
191.321457552
 30
0.0
  0
VERTEX
  5
370
  8
0
  6
CONTINUOUS
 62
     7
 10
70.734468173
 20
191.320033001
 30
0.0
  0
SEQEND
  5
57E
  8
0
  6
CONTINUOUS
 62
     7
  0
ARC
  5
95
  8
0
  6
CONTINUOUS
 62
     7
 10
105.8244506665
 20
329.903306922
 30
0.0
 40
142.6884378836009
 50
257.3630892534
 51
260.3830757402
  0
ARC
  5
96
  8
0
  6
CONTINUOUS
 62
     7
 10
105.339282196
 20
333.5330184049
 30
0.0
 40
146.3873158464004
 50
279.6013439636
 51
282.6002988363
  0
POLYLINE
  5
97
  8
0
  6
CONTINUOUS
 62
     7
 66
     1
 10
0.0
 20
0.0
 30
0.0
  0
VERTEX
  5
371
  8
0
  6
CONTINUOUS
 62
     7
 10
141.1471933832
 20
191.320033001
 30
0.0
  0
VERTEX
  5
372
  8
0
  6
CONTINUOUS
 62
     7
 10
140.7281041851
 20
191.3111221066
 30
0.0
  0
VERTEX
  5
373
  8
0
  6
CONTINUOUS
 62
     7
 10
140.1184738388
 20
191.239405798
 30
0.0
  0
VERTEX
  5
374
  8
0
  6
CONTINUOUS
 62
     7
 10
139.367228817
 20
191.1101471653
 30
0.0
  0
VERTEX
  5
375
  8
0
  6
CONTINUOUS
 62
     7
 10
138.4498537293
 20
190.924955534
 30
0.0
  0
VERTEX
  5
376
  8
0
  6
CONTINUOUS
 62
     7
 10
137.2734308949
 20
190.6713496914
 30
0.0
  0
SEQEND
  5
57D
  8
0
  6
CONTINUOUS
 62
     7
  0
POLYLINE
  5
98
  8
0
  6
CONTINUOUS
 62
     7
 66
     1
 10
0.0
 20
0.0
 30
0.0
  0
VERTEX
  5
377
  8
0
  6
CONTINUOUS
 62
     7
 10
141.1471755018
 20
191.320110487
 30
0.0
  0
VERTEX
  5
378
  8
0
  6
CONTINUOUS
 62
     7
 10
142.0642406454
 20
191.2652980557
 30
0.0
  0
VERTEX
  5
379
  8
0
  6
CONTINUOUS
 62
     7
 10
142.6654160728
 20
191.2107598057
 30
0.0
  0
VERTEX
  5
37A
  8
0
  6
CONTINUOUS
 62
     7
 10
143.0229366531
 20
191.1550294628
 30
0.0
  0
VERTEX
  5
37B
  8
0
  6
CONTINUOUS
 62
     7
 10
143.2376951685
 20
191.0984169712
 30
0.0
  0
VERTEX
  5
37C
  8
0
  6
CONTINUOUS
 62
     7
 10
143.3194429388
 20
191.0399865379
 30
0.0
  0
VERTEX
  5
37D
  8
0
  6
CONTINUOUS
 62
     7
 10
143.3162779322
 20
190.982432293
 30
0.0
  0
VERTEX
  5
37E
  8
0
  6
CONTINUOUS
 62
     7
 10
143.2891757002
 20
190.9295808544
 30
0.0
  0
VERTEX
  5
37F
  8
0
  6
CONTINUOUS
 62
     7
 10
143.287018012
 20
190.8827196827
 30
0.0
  0
VERTEX
  5
380
  8
0
  6
CONTINUOUS
 62
     7
 10
143.3339536896
 20
190.7744240036
 30
0.0
  0
VERTEX
  5
381
  8
0
  6
CONTINUOUS
 62
     7
 10
143.3431894293
 20
190.7328676453
 30
0.0
  0
SEQEND
  5
57C
  8
0
  6
CONTINUOUS
 62
     7
  0
ARC
  5
99
  8
0
  6
CONTINUOUS
 62
     7
 10
138.4958116632
 20
189.9038964606
 30
0.0
 40
4.94651325906054
 50
3.5868728639
 51
8.4287436192
  0
POLYLINE
  5
9A
  8
0
  6
CONTINUOUS
 62
     7
 66
     1
 10
0.0
 20
0.0
 30
0.0
  0
VERTEX
  5
382
  8
0
  6
CONTINUOUS
 62
     7
 10
137.3439938536
 20
186.8355285397
 30
0.0
  0
VERTEX
  5
383
  8
0
  6
CONTINUOUS
 62
     7
 10
138.3676887264
 20
187.0144557228
 30
0.0
  0
VERTEX
  5
384
  8
0
  6
CONTINUOUS
 62
     7
 10
139.3636704197
 20
187.3052369824
 30
0.0
  0
VERTEX
  5
385
  8
0
  6
CONTINUOUS
 62
     7
 10
140.2439207544
 20
187.6641821137
 30
0.0
  0
VERTEX
  5
386
  8
0
  6
CONTINUOUS
 62
     7
 10
141.0485506763
 20
188.0829881897
 30
0.0
  0
VERTEX
  5
387
  8
0
  6
CONTINUOUS
 62
     7
 10
141.8082714787
 20
188.566691803
 30
0.0
  0
VERTEX
  5
388
  8
0
  6
CONTINUOUS
 62
     7
 10
142.4496740809
 20
189.0532683602
 30
0.0
  0
VERTEX
  5
389
  8
0
  6
CONTINUOUS
 62
     7
 10
142.9773927441
 20
189.5265650025
 30
0.0
  0
VERTEX
  5
38A
  8
0
  6
CONTINUOUS
 62
     7
 10
143.320626091
 20
189.9196933975
 30
0.0
  0
VERTEX
  5
38B
  8
0
  6
CONTINUOUS
 62
     7
 10
143.4087068548
 20
190.0803577175
 30
0.0
  0
VERTEX
  5
38C
  8
0
  6
CONTINUOUS
 62
     7
 10
143.4326351395
 20
190.2133535614
 30
0.0
  0
SEQEND
  5
57B
  8
0
  6
CONTINUOUS
 62
     7
  0
POLYLINE
  5
9B
  8
0
  6
CONTINUOUS
 62
     7
 66
     1
 10
0.0
 20
0.0
 30
0.0
  0
VERTEX
  5
38D
  8
0
  6
CONTINUOUS
 62
     7
 10
137.3439938536
 20
186.8355285397
 30
0.0
  0
VERTEX
  5
38E
  8
0
  6
CONTINUOUS
 62
     7
 10
131.993168663
 20
186.2489353886
 30
0.0
  0
VERTEX
  5
38F
  8
0
  6
CONTINUOUS
 62
     7
 10
126.6270116677
 20
185.750932621
 30
0.0
  0
VERTEX
  5
390
  8
0
  6
CONTINUOUS
 62
     7
 10
121.2347567787
 20
185.3537809124
 30
0.0
  0
VERTEX
  5
391
  8
0
  6
CONTINUOUS
 62
     7
 10
115.8316635301
 20
185.0687991848
 30
0.0
  0
VERTEX
  5
392
  8
0
  6
CONTINUOUS
 62
     7
 10
109.9301737508
 20
184.8951350918
 30
0.0
  0
VERTEX
  5
393
  8
0
  6
CONTINUOUS
 62
     7
 10
104.0250249913
 20
184.8688017597
 30
0.0
  0
VERTEX
  5
394
  8
0
  6
CONTINUOUS
 62
     7
 10
98.0998621097
 20
184.9920760861
 30
0.0
  0
VERTEX
  5
395
  8
0
  6
CONTINUOUS
 62
     7
 10
92.1818167677
 20
185.2608453503
 30
0.0
  0
VERTEX
  5
396
  8
0
  6
CONTINUOUS
 62
     7
 10
87.7605304828
 20
185.552860426
 30
0.0
  0
VERTEX
  5
397
  8
0
  6
CONTINUOUS
 62
     7
 10
83.347587358
 20
185.9167587032
 30
0.0
  0
VERTEX
  5
398
  8
0
  6
CONTINUOUS
 62
     7
 10
78.9373458138
 20
186.3469790688
 30
0.0
  0
VERTEX
  5
399
  8
0
  6
CONTINUOUS
 62
     7
 10
74.5376677027
 20
186.8355285397
 30
0.0
  0
SEQEND
  5
57A
  8
0
  6
CONTINUOUS
 62
     7
  0
POLYLINE
  5
9C
  8
0
  6
CONTINUOUS
 62
     7
 66
     1
 10
0.0
 20
0.0
 30
0.0
  0
VERTEX
  5
39A
  8
0
  6
CONTINUOUS
 62
     7
 10
68.4490264168
 20
190.2133535614
 30
0.0
  0
VERTEX
  5
39B
  8
0
  6
CONTINUOUS
 62
     7
 10
68.52336831
 20
189.9786960354
 30
0.0
  0
VERTEX
  5
39C
  8
0
  6
CONTINUOUS
 62
     7
 10
68.7806130161
 20
189.6532904377
 30
0.0
  0
VERTEX
  5
39D
  8
0
  6
CONTINUOUS
 62
     7
 10
69.1903651466
 20
189.2596613636
 30
0.0
  0
VERTEX
  5
39E
  8
0
  6
CONTINUOUS
 62
     7
 10
69.7581262102
 20
188.7958418598
 30
0.0
  0
VERTEX
  5
39F
  8
0
  6
CONTINUOUS
 62
     7
 10
70.4908520689
 20
188.2896017304
 30
0.0
  0
VERTEX
  5
3A0
  8
0
  6
CONTINUOUS
 62
     7
 10
71.3870436659
 20
187.7850007286
 30
0.0
  0
VERTEX
  5
3A1
  8
0
  6
CONTINUOUS
 62
     7
 10
72.2671569099
 20
187.3974572888
 30
0.0
  0
VERTEX
  5
3A2
  8
0
  6
CONTINUOUS
 62
     7
 10
73.26489396
 20
187.0761346092
 30
0.0
  0
VERTEX
  5
3A3
  8
0
  6
CONTINUOUS
 62
     7
 10
73.8877028933
 20
186.9353663197
 30
0.0
  0
VERTEX
  5
3A4
  8
0
  6
CONTINUOUS
 62
     7
 10
74.5376677027
 20
186.8355285397
 30
0.0
  0
SEQEND
  5
579
  8
0
  6
CONTINUOUS
 62
     7
  0
POLYLINE
  5
9D
  8
0
  6
CONTINUOUS
 62
     7
 66
     1
 10
0.0
 20
0.0
 30
0.0
  0
VERTEX
  5
3A5
  8
0
  6
CONTINUOUS
 62
     7
 10
68.4490264168
 20
190.2133595219
 30
0.0
  0
VERTEX
  5
3A6
  8
0
  6
CONTINUOUS
 62
     7
 10
68.4773445835
 20
190.5096959343
 30
0.0
  0
VERTEX
  5
3A7
  8
0
  6
CONTINUOUS
 62
     7
 10
68.4931725969
 20
190.6343709698
 30
0.0
  0
SEQEND
  5
578
  8
0
  6
CONTINUOUS
 62
     7
  0
POLYLINE
  5
9E
  8
0
  6
CONTINUOUS
 62
     7
 66
     1
 10
0.0
 20
0.0
 30
0.0
  0
VERTEX
  5
3A8
  8
0
  6
CONTINUOUS
 62
     7
 10
68.5385406723
 20
190.7323610058
 30
0.0
  0
VERTEX
  5
3A9
  8
0
  6
CONTINUOUS
 62
     7
 10
68.5486526003
 20
190.7770048847
 30
0.0
  0
VERTEX
  5
3AA
  8
0
  6
CONTINUOUS
 62
     7
 10
68.5946435442
 20
190.8827196827
 30
0.0
  0
VERTEX
  5
3AB
  8
0
  6
CONTINUOUS
 62
     7
 10
68.5924858561
 20
190.9295808544
 30
0.0
  0
VERTEX
  5
3AC
  8
0
  6
CONTINUOUS
 62
     7
 10
68.5653836241
 20
190.982432293
 30
0.0
  0
VERTEX
  5
3AD
  8
0
  6
CONTINUOUS
 62
     7
 10
68.5622186174
 20
191.0399865379
 30
0.0
  0
VERTEX
  5
3AE
  8
0
  6
CONTINUOUS
 62
     7
 10
68.6439663878
 20
191.0984169712
 30
0.0
  0
VERTEX
  5
3AF
  8
0
  6
CONTINUOUS
 62
     7
 10
68.8587249031
 20
191.1550294628
 30
0.0
  0
VERTEX
  5
3B0
  8
0
  6
CONTINUOUS
 62
     7
 10
69.2162454834
 20
191.2107598057
 30
0.0
  0
VERTEX
  5
3B1
  8
0
  6
CONTINUOUS
 62
     7
 10
69.8174209108
 20
191.2652980557
 30
0.0
  0
VERTEX
  5
3B2
  8
0
  6
CONTINUOUS
 62
     7
 10
70.7344860544
 20
191.320110487
 30
0.0
  0
SEQEND
  5
577
  8
0
  6
CONTINUOUS
 62
     7
  0
LINE
  5
9F
  8
0
  6
CONTINUOUS
 62
     7
 10
143.5408294907
 20
189.7551607361
 30
0.0
 11
143.5408294907
 21
190.0608610382
 31
0.0
  0
LINE
  5
A0
  8
0
  6
CONTINUOUS
 62
     7
 10
68.3408320656
 20
189.5801138153
 30
0.0
 11
68.3408320656
 21
189.4056510201
 31
0.0
  0
LINE
  5
A1
  8
0
  6
CONTINUOUS
 62
     7
 10
68.3408320656
 20
190.050668644
 30
0.0
 11
68.3408320656
 21
189.7551607361
 31
0.0
  0
LINE
  5
A2
  8
0
  6
CONTINUOUS
 62
     7
 10
68.2408303728
 20
184.7435008755
 30
0.0
 11
68.2408303728
 21
186.708207058
 31
0.0
  0
LINE
  5
A3
  8
0
  6
CONTINUOUS
 62
     7
 10
69.0408319941
 20
186.708207058
 30
0.0
 11
69.0408319941
 21
184.7435008755
 31
0.0
  0
LINE
  5
A4
  8
0
  6
CONTINUOUS
 62
     7
 10
68.2408303728
 20
187.959362196
 30
0.0
 11
68.2408303728
 21
186.708207058
 31
0.0
  0
ARC
  5
A5
  8
0
  6
CONTINUOUS
 62
     7
 10
69.2408307781
 20
187.9593614925
 30
0.0
 40
1.0
 50
138.1768700679
 51
180.0
  0
LINE
  5
A6
  8
0
  6
CONTINUOUS
 62
     7
 10
69.0408319941
 20
186.708207058
 30
0.0
 11
69.0408319941
 21
188.0197476616
 31
0.0
  0
LINE
  5
A7
  8
0
  6
CONTINUOUS
 62
     7
 10
68.2408303728
 20
178.9212476483
 30
0.0
 11
68.2408303728
 21
184.7435008755
 31
0.0
  0
LINE
  5
A8
  8
0
  6
CONTINUOUS
 62
     7
 10
69.0408319941
 20
184.7435008755
 30
0.0
 11
69.0408319941
 21
178.9212476483
 31
0.0
  0
LINE
  5
A9
  8
0
  6
CONTINUOUS
 62
     7
 10
68.2408303728
 20
178.9212476483
 30
0.0
 11
68.2408303728
 21
178.6566566696
 31
0.0
  0
LINE
  5
AA
  8
0
  6
CONTINUOUS
 62
     7
 10
69.0408319941
 20
178.6566566696
 30
0.0
 11
69.0408319941
 21
178.9212476483
 31
0.0
  0
LINE
  5
AB
  8
0
  6
CONTINUOUS
 62
     7
 10
68.2408303728
 20
176.7642866841
 30
0.0
 11
68.2408303728
 21
178.6566566696
 31
0.0
  0
LINE
  5
AC
  8
0
  6
CONTINUOUS
 62
     7
 10
69.0408319941
 20
178.6566566696
 30
0.0
 11
69.0408319941
 21
176.7642866841
 31
0.0
  0
LINE
  5
AD
  8
0
  6
CONTINUOUS
 62
     7
 10
68.2408303728
 20
173.3523141613
 30
0.0
 11
68.2408303728
 21
176.7642866841
 31
0.0
  0
LINE
  5
AE
  8
0
  6
CONTINUOUS
 62
     7
 10
69.0408319941
 20
176.7642866841
 30
0.0
 11
69.0408319941
 21
173.3523141613
 31
0.0
  0
LINE
  5
AF
  8
0
  6
CONTINUOUS
 62
     7
 10
68.2408303728
 20
171.4565765133
 30
0.0
 11
68.2408303728
 21
173.3523141613
 31
0.0
  0
LINE
  5
B0
  8
0
  6
CONTINUOUS
 62
     7
 10
69.0408319941
 20
173.3523141613
 30
0.0
 11
69.0408319941
 21
171.4565765133
 31
0.0
  0
LINE
  5
B1
  8
0
  6
CONTINUOUS
 62
     7
 10
69.0408319941
 20
169.4565784207
 30
0.0
 11
68.2408303728
 21
169.4565784207
 31
0.0
  0
LINE
  5
B2
  8
0
  6
CONTINUOUS
 62
     7
 10
68.2408303728
 20
169.4565784207
 30
0.0
 11
68.2408303728
 21
171.4565765133
 31
0.0
  0
LINE
  5
B3
  8
0
  6
CONTINUOUS
 62
     7
 10
69.0408319941
 20
171.4565765133
 30
0.0
 11
69.0408319941
 21
169.4565784207
 31
0.0
  0
LINE
  5
B4
  8
0
  6
CONTINUOUS
 62
     7
 10
63.440829586
 20
172.2565781346
 30
0.0
 11
63.440829586
 21
164.8565780392
 31
0.0
  0
LINE
  5
B5
  8
0
  6
CONTINUOUS
 62
     7
 10
73.4408319702
 20
172.2565781346
 30
0.0
 11
73.4408319702
 21
164.8565780392
 31
0.0
  0
ARC
  5
B6
  8
0
  6
CONTINUOUS
 62
     7
 10
71.4408307781
 20
164.8565755596
 30
0.0
 40
2.0
 50
270.0
 51
0.0
  0
ARC
  5
B7
  8
0
  6
CONTINUOUS
 62
     7
 10
65.4408307781
 20
164.8565755596
 30
0.0
 40
2.0
 50
180.0
 51
270.0
  0
LINE
  5
B8
  8
0
  6
CONTINUOUS
 62
     7
 10
71.4408308973
 20
162.8565739861
 30
0.0
 11
65.4408306589
 21
162.8565739861
 31
0.0
  0
LINE
  5
B9
  8
0
  6
CONTINUOUS
 62
     7
 10
73.4408319702
 20
173.2565771809
 30
0.0
 11
69.0408319941
 21
173.2565771809
 31
0.0
  0
LINE
  5
BA
  8
0
  6
CONTINUOUS
 62
     7
 10
73.4408319702
 20
173.2565771809
 30
0.0
 11
73.4408319702
 21
172.2565781346
 31
0.0
  0
LINE
  5
BB
  8
0
  6
CONTINUOUS
 62
     7
 10
68.2408303728
 20
173.2565771809
 30
0.0
 11
63.440829586
 21
173.2565771809
 31
0.0
  0
LINE
  5
BC
  8
0
  6
CONTINUOUS
 62
     7
 10
63.440829586
 20
173.2565771809
 30
0.0
 11
63.440829586
 21
172.2565781346
 31
0.0
  0
ARC
  5
BD
  8
0
  6
CONTINUOUS
 62
     7
 10
142.6408307781
 20
187.9593614925
 30
0.0
 40
1.000000000000009
 50
0.0
 51
42.1872028391
  0
LINE
  5
BE
  8
0
  6
CONTINUOUS
 62
     7
 10
143.6408311834
 20
187.959362196
 30
0.0
 11
143.6408311834
 21
186.708207058
 31
0.0
  0
LINE
  5
BF
  8
0
  6
CONTINUOUS
 62
     7
 10
142.8408295622
 20
186.708207058
 30
0.0
 11
142.8408295622
 21
188.0119990578
 31
0.0
  0
LINE
  5
C0
  8
0
  6
CONTINUOUS
 62
     7
 10
142.8408295622
 20
186.708207058
 30
0.0
 11
142.8408295622
 21
184.7435008755
 31
0.0
  0
LINE
  5
C1
  8
0
  6
CONTINUOUS
 62
     7
 10
143.6408311834
 20
184.7435008755
 30
0.0
 11
143.6408311834
 21
186.708207058
 31
0.0
  0
LINE
  5
C2
  8
0
  6
CONTINUOUS
 62
     7
 10
142.8408295622
 20
184.7435008755
 30
0.0
 11
142.8408295622
 21
178.9212476483
 31
0.0
  0
LINE
  5
C3
  8
0
  6
CONTINUOUS
 62
     7
 10
143.6408311834
 20
178.9212476483
 30
0.0
 11
143.6408311834
 21
184.7435008755
 31
0.0
  0
LINE
  5
C4
  8
0
  6
CONTINUOUS
 62
     7
 10
142.8408295622
 20
178.6566566696
 30
0.0
 11
142.8408295622
 21
178.9212476483
 31
0.0
  0
LINE
  5
C5
  8
0
  6
CONTINUOUS
 62
     7
 10
143.6408311834
 20
178.9212476483
 30
0.0
 11
143.6408311834
 21
178.6566566696
 31
0.0
  0
LINE
  5
C6
  8
0
  6
CONTINUOUS
 62
     7
 10
142.8408295622
 20
178.6566566696
 30
0.0
 11
142.8408295622
 21
176.7642866841
 31
0.0
  0
LINE
  5
C7
  8
0
  6
CONTINUOUS
 62
     7
 10
143.6408311834
 20
176.7642866841
 30
0.0
 11
143.6408311834
 21
178.6566566696
 31
0.0
  0
LINE
  5
C8
  8
0
  6
CONTINUOUS
 62
     7
 10
142.8408295622
 20
176.7642866841
 30
0.0
 11
142.8408295622
 21
173.3523141613
 31
0.0
  0
LINE
  5
C9
  8
0
  6
CONTINUOUS
 62
     7
 10
143.6408311834
 20
173.3523141613
 30
0.0
 11
143.6408311834
 21
176.7642866841
 31
0.0
  0
LINE
  5
CA
  8
0
  6
CONTINUOUS
 62
     7
 10
142.8408295622
 20
173.3523141613
 30
0.0
 11
142.8408295622
 21
171.4565765133
 31
0.0
  0
LINE
  5
CB
  8
0
  6
CONTINUOUS
 62
     7
 10
143.6408311834
 20
171.4565765133
 30
0.0
 11
143.6408311834
 21
173.3523141613
 31
0.0
  0
LINE
  5
CC
  8
0
  6
CONTINUOUS
 62
     7
 10
142.8408295622
 20
169.4565784207
 30
0.0
 11
143.6408311834
 21
169.4565784207
 31
0.0
  0
LINE
  5
CD
  8
0
  6
CONTINUOUS
 62
     7
 10
142.8408295622
 20
171.4565765133
 30
0.0
 11
142.8408295622
 21
169.4565784207
 31
0.0
  0
LINE
  5
CE
  8
0
  6
CONTINUOUS
 62
     7
 10
143.6408311834
 20
169.4565784207
 30
0.0
 11
143.6408311834
 21
171.4565765133
 31
0.0
  0
LINE
  5
CF
  8
0
  6
CONTINUOUS
 62
     7
 10
138.440829586
 20
172.2565781346
 30
0.0
 11
138.440829586
 21
164.8565780392
 31
0.0
  0
LINE
  5
D0
  8
0
  6
CONTINUOUS
 62
     7
 10
148.4408319702
 20
172.2565781346
 30
0.0
 11
148.4408319702
 21
164.8565780392
 31
0.0
  0
ARC
  5
D1
  8
0
  6
CONTINUOUS
 62
     7
 10
146.4408307781
 20
164.8565755596
 30
0.0
 40
2.0
 50
270.0
 51
0.0
  0
LINE
  5
D2
  8
0
  6
CONTINUOUS
 62
     7
 10
140.4408306589
 20
162.8565739861
 30
0.0
 11
146.4408308973
 21
162.8565739861
 31
0.0
  0
ARC
  5
D3
  8
0
  6
CONTINUOUS
 62
     7
 10
140.4408307781
 20
164.8565755596
 30
0.0
 40
2.0
 50
180.0
 51
270.0
  0
LINE
  5
D4
  8
0
  6
CONTINUOUS
 62
     7
 10
138.440829586
 20
173.2565771809
 30
0.0
 11
142.8408295622
 21
173.2565771809
 31
0.0
  0
LINE
  5
D5
  8
0
  6
CONTINUOUS
 62
     7
 10
138.440829586
 20
173.2565771809
 30
0.0
 11
138.440829586
 21
172.2565781346
 31
0.0
  0
LINE
  5
D6
  8
0
  6
CONTINUOUS
 62
     7
 10
143.6408311834
 20
173.2565771809
 30
0.0
 11
148.4408319702
 21
173.2565771809
 31
0.0
  0
LINE
  5
D7
  8
0
  6
CONTINUOUS
 62
     7
 10
148.4408319702
 20
173.2565771809
 30
0.0
 11
148.4408319702
 21
172.2565781346
 31
0.0
  0
LINE
  5
D8
  8
0
  6
CONTINUOUS
 62
     7
 10
98.7678997924
 20
98.6565755701
 30
0.0
 11
102.5265463402
 21
98.6565755701
 31
0.0
  0
LINE
  5
D9
  8
0
  6
CONTINUOUS
 62
     7
 10
102.5265463402
 20
97.4565755596
 30
0.0
 11
98.7678997924
 21
97.4565755596
 31
0.0
  0
LINE
  5
DA
  8
0
  6
CONTINUOUS
 62
     7
 10
109.355115216
 20
98.6565755701
 30
0.0
 11
113.1137617638
 21
98.6565755701
 31
0.0
  0
LINE
  5
DB
  8
0
  6
CONTINUOUS
 62
     7
 10
113.1137617638
 20
97.4565755596
 30
0.0
 11
109.355115216
 21
97.4565755596
 31
0.0
  0
LINE
  5
DC
  8
0
  6
CONTINUOUS
 62
     7
 10
102.5265463402
 20
97.4565755596
 30
0.0
 11
109.355115216
 21
97.4565755596
 31
0.0
  0
LINE
  5
DD
  8
0
  6
CONTINUOUS
 62
     7
 10
102.5265463402
 20
98.6565755701
 30
0.0
 11
109.355115216
 21
98.6565755701
 31
0.0
  0
LINE
  5
DE
  8
0
  6
CONTINUOUS
 62
     7
 10
117.9408305099
 20
97.4565755596
 30
0.0
 11
117.9408305099
 21
98.6565755701
 31
0.0
  0
LINE
  5
DF
  8
0
  6
CONTINUOUS
 62
     7
 10
113.1137617638
 20
97.4565755596
 30
0.0
 11
117.9408305099
 21
97.4565755596
 31
0.0
  0
LINE
  5
E0
  8
0
  6
CONTINUOUS
 62
     7
 10
117.9408305099
 20
98.6565755701
 30
0.0
 11
113.1137617638
 21
98.6565755701
 31
0.0
  0
LINE
  5
E1
  8
0
  6
CONTINUOUS
 62
     7
 10
93.9408310463
 20
97.4565755596
 30
0.0
 11
93.9408310463
 21
98.6565755701
 31
0.0
  0
LINE
  5
E2
  8
0
  6
CONTINUOUS
 62
     7
 10
93.9408310463
 20
97.4565755596
 30
0.0
 11
98.7678997924
 21
97.4565755596
 31
0.0
  0
LINE
  5
E3
  8
0
  6
CONTINUOUS
 62
     7
 10
98.7678997924
 20
98.6565755701
 30
0.0
 11
93.9408310463
 21
98.6565755701
 31
0.0
  0
LINE
  5
E4
  8
0
  6
CONTINUOUS
 62
     7
 10
37.1408284416
 20
163.6565756073
 30
0.0
 11
37.1408284416
 21
171.6565739384
 31
0.0
  0
POLYLINE
  5
E5
  8
0
  6
CONTINUOUS
 62
     7
 66
     1
 10
0.0
 20
0.0
 30
0.0
  0
VERTEX
  5
3B3
  8
0
  6
CONTINUOUS
 62
     7
 10
110.7408308198
 20
162.8565739861
 30
0.0
  0
VERTEX
  5
3B4
  8
0
  6
CONTINUOUS
 62
     7
 10
110.7723002096
 20
162.8251086941
 30
0.0
  0
VERTEX
  5
3B5
  8
0
  6
CONTINUOUS
 62
     7
 10
110.8647101333
 20
162.7326976528
 30
0.0
  0
VERTEX
  5
3B6
  8
0
  6
CONTINUOUS
 62
     7
 10
110.9216161778
 20
162.6757930985
 30
0.0
  0
VERTEX
  5
3B7
  8
0
  6
CONTINUOUS
 62
     7
 10
110.9408308526
 20
162.656576561
 30
0.0
  0
SEQEND
  5
576
  8
0
  6
CONTINUOUS
 62
     7
  0
LINE
  5
E6
  8
0
  6
CONTINUOUS
 62
     7
 10
110.9408308526
 20
162.656576561
 30
0.0
 11
110.9408308526
 21
98.6565755701
 31
0.0
  0
LINE
  5
E7
  8
0
  6
CONTINUOUS
 62
     7
 10
37.5408292522
 20
172.6565729847
 30
0.0
 11
39.9408281555
 21
172.6565729847
 31
0.0
  0
LINE
  5
E8
  8
0
  6
CONTINUOUS
 62
     7
 10
51.9408286324
 20
172.6565729847
 30
0.0
 11
63.440829586
 21
172.6565729847
 31
0.0
  0
LINE
  5
E9
  8
0
  6
CONTINUOUS
 62
     7
 10
73.4408319702
 20
172.6565729847
 30
0.0
 11
87.9408300629
 21
172.6565729847
 31
0.0
  0
LINE
  5
EA
  8
0
  6
CONTINUOUS
 62
     7
 10
123.9408314934
 20
172.6565729847
 30
0.0
 11
138.440829586
 21
172.6565729847
 31
0.0
  0
LINE
  5
EB
  8
0
  6
CONTINUOUS
 62
     7
 10
148.4408319702
 20
172.6565729847
 30
0.0
 11
159.9408329239
 21
172.6565729847
 31
0.0
  0
LINE
  5
EC
  8
0
  6
CONTINUOUS
 62
     7
 10
171.9408334007
 20
172.6565729847
 30
0.0
 11
174.340832304
 21
172.6565729847
 31
0.0
  0
LINE
  5
ED
  8
0
  6
CONTINUOUS
 62
     7
 10
100.9408307036
 20
98.6565755701
 30
0.0
 11
100.9408307036
 21
162.656576561
 31
0.0
  0
POLYLINE
  5
EE
  8
0
  6
CONTINUOUS
 62
     7
 66
     1
 10
0.0
 20
0.0
 30
0.0
  0
VERTEX
  5
3B8
  8
0
  6
CONTINUOUS
 62
     7
 10
100.9408307036
 20
162.656576561
 30
0.0
  0
VERTEX
  5
3B9
  8
0
  6
CONTINUOUS
 62
     7
 10
100.9600453784
 20
162.6757930985
 30
0.0
  0
VERTEX
  5
3BA
  8
0
  6
CONTINUOUS
 62
     7
 10
101.0169514229
 20
162.7326976528
 30
0.0
  0
VERTEX
  5
3BB
  8
0
  6
CONTINUOUS
 62
     7
 10
101.1093613466
 20
162.8251086941
 30
0.0
  0
VERTEX
  5
3BC
  8
0
  6
CONTINUOUS
 62
     7
 10
101.1408307364
 20
162.8565739861
 30
0.0
  0
SEQEND
  5
575
  8
0
  6
CONTINUOUS
 62
     7
  0
LINE
  5
EF
  8
0
  6
CONTINUOUS
 62
     7
 10
100.9408307036
 20
162.656576561
 30
0.0
 11
37.5408292522
 21
162.656576561
 31
0.0
  0
LINE
  5
F0
  8
0
  6
CONTINUOUS
 62
     7
 10
174.340832304
 20
162.656576561
 30
0.0
 11
110.9408308526
 21
162.656576561
 31
0.0
  0
LINE
  5
F1
  8
0
  6
CONTINUOUS
 62
     7
 10
37.1408284416
 20
171.6565739384
 30
0.0
 11
37.1408284416
 21
172.2565781346
 31
0.0
  0
ARC
  5
F2
  8
0
  6
CONTINUOUS
 62
     7
 10
37.5408307781
 20
172.2565755596
 30
0.0
 40
0.3999999999999915
 50
90.0
 51
180.0
  0
LINE
  5
F3
  8
0
  6
CONTINUOUS
 62
     7
 10
174.7408331146
 20
163.6565756073
 30
0.0
 11
174.7408331146
 21
163.0565773716
 31
0.0
  0
ARC
  5
F4
  8
0
  6
CONTINUOUS
 62
     7
 10
174.3408307781
 20
163.0565755596
 30
0.0
 40
0.4000000000000341
 50
270.0
 51
0.0
  0
LINE
  5
F5
  8
0
  6
CONTINUOUS
 62
     7
 10
174.7408331146
 20
171.6565739384
 30
0.0
 11
174.7408331146
 21
163.6565756073
 31
0.0
  0
LINE
  5
F6
  8
0
  6
CONTINUOUS
 62
     7
 10
37.1408284416
 20
163.0565773716
 30
0.0
 11
37.1408284416
 21
163.6565756073
 31
0.0
  0
ARC
  5
F7
  8
0
  6
CONTINUOUS
 62
     7
 10
37.5408307781
 20
163.0565755596
 30
0.0
 40
0.4000000000000057
 50
180.0
 51
270.0
  0
LINE
  5
F8
  8
0
  6
CONTINUOUS
 62
     7
 10
174.7408331146
 20
172.2565781346
 30
0.0
 11
174.7408331146
 21
171.6565739384
 31
0.0
  0
ARC
  5
F9
  8
0
  6
CONTINUOUS
 62
     7
 10
174.3408307781
 20
172.2565755596
 30
0.0
 40
0.4000000000000057
 50
0.0
 51
90.0
  0
LINE
  5
FA
  8
0
  6
CONTINUOUS
 62
     7
 10
316.7467648592
 20
173.456574606
 30
0.0
 11
316.7467648592
 21
198.456574606
 31
0.0
  0
LINE
  5
FB
  8
0
  6
CONTINUOUS
 62
     7
 10
311.3467649054
 20
198.456574606
 30
0.0
 11
311.3467649054
 21
173.456574606
 31
0.0
  0
ARC
  5
FC
  8
0
  6
CONTINUOUS
 62
     7
 10
329.0467649427
 20
198.4565755596
 30
0.0
 40
12.30000000000001
 50
90.0
 51
180.0
  0
ARC
  5
FD
  8
0
  6
CONTINUOUS
 62
     7
 10
329.0467649427
 20
198.4565755596
 30
0.0
 40
17.70000000000002
 50
90.0
 51
180.0
  0
LINE
  5
FE
  8
0
  6
CONTINUOUS
 62
     7
 10
320.0467648413
 20
164.1565751305
 30
0.0
 11
349.0467647519
 21
164.1565751305
 31
0.0
  0
LINE
  5
FF
  8
0
  6
CONTINUOUS
 62
     7
 10
349.0467647519
 20
169.5565771332
 30
0.0
 11
320.0467648413
 21
169.5565771332
 31
0.0
  0
LINE
  5
100
  8
0
  6
CONTINUOUS
 62
     7
 10
349.0467647519
 20
216.1565791836
 30
0.0
 11
329.0467644539
 21
216.1565791836
 31
0.0
  0
LINE
  5
101
  8
0
  6
CONTINUOUS
 62
     7
 10
329.0467644539
 20
210.7565771809
 30
0.0
 11
349.0467647519
 21
210.7565771809
 31
0.0
  0
ARC
  5
102
  8
0
  6
CONTINUOUS
 62
     7
 10
349.0467649427
 20
181.8565755596
 30
0.0
 40
12.30000000000001
 50
270.0
 51
0.0
  0
ARC
  5
103
  8
0
  6
CONTINUOUS
 62
     7
 10
349.0467649427
 20
181.8565755596
 30
0.0
 40
17.69999999999999
 50
270.0
 51
0.0
  0
ARC
  5
104
  8
0
  6
CONTINUOUS
 62
     7
 10
349.0467649427
 20
198.4565755596
 30
0.0
 40
12.30000000000001
 50
0.0
 51
90.0
  0
ARC
  5
105
  8
0
  6
CONTINUOUS
 62
     7
 10
349.0467649427
 20
198.4565755596
 30
0.0
 40
17.69999999999999
 50
360.0
 51
90.0
  0
LINE
  5
106
  8
0
  6
CONTINUOUS
 62
     7
 10
366.7467633691
 20
181.8565737476
 30
0.0
 11
366.7467633691
 21
198.456574606
 31
0.0
  0
LINE
  5
107
  8
0
  6
CONTINUOUS
 62
     7
 10
361.3467643466
 20
198.456574606
 30
0.0
 11
361.3467643466
 21
181.8565737476
 31
0.0
  0
POLYLINE
  5
108
  8
0
  6
CONTINUOUS
 62
     7
 66
     1
 10
0.0
 20
0.0
 30
0.0
  0
VERTEX
  5
3BD
  8
0
  6
CONTINUOUS
 62
     7
 10
295.1037968006
 20
264.1956459751
 30
0.0
  0
VERTEX
  5
3BE
  8
0
  6
CONTINUOUS
 62
     7
 10
295.6890741792
 20
261.5561496487
 30
0.0
  0
VERTEX
  5
3BF
  8
0
  6
CONTINUOUS
 62
     7
 10
296.2484369483
 20
259.094382452
 30
0.0
  0
VERTEX
  5
3C0
  8
0
  6
CONTINUOUS
 62
     7
 10
296.7870066371
 20
256.8113457432
 30
0.0
  0
VERTEX
  5
3C1
  8
0
  6
CONTINUOUS
 62
     7
 10
297.2789491024
 20
254.7020565739
 30
0.0
  0
VERTEX
  5
3C2
  8
0
  6
CONTINUOUS
 62
     7
 10
297.6891452875
 20
252.7799140682
 30
0.0
  0
VERTEX
  5
3C3
  8
0
  6
CONTINUOUS
 62
     7
 10
298.0014155116
 20
251.07935779
 30
0.0
  0
VERTEX
  5
3C4
  8
0
  6
CONTINUOUS
 62
     7
 10
298.1331462469
 20
250.2609621754
 30
0.0
  0
SEQEND
  5
574
  8
0
  6
CONTINUOUS
 62
     7
  0
ARC
  5
109
  8
0
  6
CONTINUOUS
 62
     7
 10
84.8023035296
 20
213.5872802533
 30
0.0
 40
216.3961531960894
 50
5.3056924443
 51
8.16556371
  0
LINE
  5
10A
  8
0
  6
CONTINUOUS
 62
     7
 10
296.2755883541
 20
264.4543062916
 30
0.0
 11
295.1037968006
 21
264.1956459751
 31
0.0
  0
LINE
  5
10B
  8
0
  6
CONTINUOUS
 62
     7
 10
300.2713108864
 20
233.5973273983
 30
0.0
 11
301.465393832
 21
233.7163578739
 31
0.0
  0
POLYLINE
  5
10C
  8
0
  6
CONTINUOUS
 62
     7
 66
     1
 10
0.0
 20
0.0
 30
0.0
  0
VERTEX
  5
3C5
  8
0
  6
CONTINUOUS
 62
     7
 10
380.3467670884
 20
187.0848786106
 30
0.0
  0
VERTEX
  5
3C6
  8
0
  6
CONTINUOUS
 62
     7
 10
382.1307817903
 20
187.1811043492
 30
0.0
  0
VERTEX
  5
3C7
  8
0
  6
CONTINUOUS
 62
     7
 10
384.5518747773
 20
187.3254429569
 30
0.0
  0
VERTEX
  5
3C8
  8
0
  6
CONTINUOUS
 62
     7
 10
385.7435623612
 20
187.3153459301
 30
0.0
  0
VERTEX
  5
3C9
  8
0
  6
CONTINUOUS
 62
     7
 10
386.8933717217
 20
187.1657919159
 30
0.0
  0
VERTEX
  5
3CA
  8
0
  6
CONTINUOUS
 62
     7
 10
387.9842678514
 20
186.8281494846
 30
0.0
  0
VERTEX
  5
3CB
  8
0
  6
CONTINUOUS
 62
     7
 10
389.0212336984
 20
186.3193701973
 30
0.0
  0
VERTEX
  5
3CC
  8
0
  6
CONTINUOUS
 62
     7
 10
390.3386095967
 20
185.4339491596
 30
0.0
  0
VERTEX
  5
3CD
  8
0
  6
CONTINUOUS
 62
     7
 10
391.6048566308
 20
184.386272358
 30
0.0
  0
VERTEX
  5
3CE
  8
0
  6
CONTINUOUS
 62
     7
 10
392.8455392327
 20
183.2574617138
 30
0.0
  0
SEQEND
  5
573
  8
0
  6
CONTINUOUS
 62
     7
  0
LINE
  5
10D
  8
0
  6
CONTINUOUS
 62
     7
 10
392.8457776513
 20
183.2711290589
 30
0.0
 11
392.8738156762
 21
184.87714641
 31
0.0
  0
LINE
  5
10E
  8
0
  6
CONTINUOUS
 62
     7
 10
380.3467670884
 20
188.9593612423
 30
0.0
 11
366.7467633691
 21
188.9593612423
 31
0.0
  0
LINE
  5
10F
  8
0
  6
CONTINUOUS
 62
     7
 10
361.3467643466
 20
188.9593612423
 30
0.0
 11
319.2122353669
 21
188.9593612423
 31
0.0
  0
LINE
  5
110
  8
0
  6
CONTINUOUS
 62
     7
 10
308.8467648681
 20
163.6565756073
 30
0.0
 11
308.0467651095
 21
163.6565756073
 31
0.0
  0
LINE
  5
111
  8
0
  6
CONTINUOUS
 62
     7
 10
308.0467651095
 20
163.6565756073
 30
0.0
 11
308.0467651095
 21
165.6565737
 31
0.0
  0
LINE
  5
112
  8
0
  6
CONTINUOUS
 62
     7
 10
319.2467650827
 20
172.2565781346
 30
0.0
 11
319.2467650827
 21
165.6565737
 31
0.0
  0
ARC
  5
113
  8
0
  6
CONTINUOUS
 62
     7
 10
318.8467649427
 20
172.2565755596
 30
0.0
 40
0.4000000000000057
 50
0.0
 51
90.0
  0
LINE
  5
114
  8
0
  6
CONTINUOUS
 62
     7
 10
309.2467649337
 20
172.6565729847
 30
0.0
 11
309.8467650321
 21
172.6565729847
 31
0.0
  0
LINE
  5
115
  8
0
  6
CONTINUOUS
 62
     7
 10
317.8467648532
 20
172.6565729847
 30
0.0
 11
318.8467650172
 21
172.6565729847
 31
0.0
  0
ARC
  5
116
  8
0
  6
CONTINUOUS
 62
     7
 10
309.2467649427
 20
172.2565755596
 30
0.0
 40
0.4000000000000057
 50
90.0
 51
180.0
  0
LINE
  5
117
  8
0
  6
CONTINUOUS
 62
     7
 10
308.8467648681
 20
171.6565739384
 30
0.0
 11
308.8467648681
 21
172.2565781346
 31
0.0
  0
LINE
  5
118
  8
0
  6
CONTINUOUS
 62
     7
 10
308.0467651095
 20
165.6565737
 30
0.0
 11
308.0467651095
 21
172.2565781346
 31
0.0
  0
ARC
  5
119
  8
0
  6
CONTINUOUS
 62
     7
 10
309.2467649427
 20
172.2565755596
 30
0.0
 40
1.199999999999989
 50
90.0
 51
180.0
  0
LINE
  5
11A
  8
0
  6
CONTINUOUS
 62
     7
 10
309.2467649337
 20
173.456574606
 30
0.0
 11
318.8467650172
 21
173.456574606
 31
0.0
  0
ARC
  5
11B
  8
0
  6
CONTINUOUS
 62
     7
 10
318.8467649427
 20
172.2565755596
 30
0.0
 40
1.199999999999989
 50
0.0
 51
90.0
  0
LINE
  5
11C
  8
0
  6
CONTINUOUS
 62
     7
 10
320.0467648413
 20
172.2565781346
 30
0.0
 11
320.0467648413
 21
165.6565737
 31
0.0
  0
LINE
  5
11D
  8
0
  6
CONTINUOUS
 62
     7
 10
320.0467648413
 20
165.6565737
 30
0.0
 11
320.0467648413
 21
163.6565756073
 31
0.0
  0
LINE
  5
11E
  8
0
  6
CONTINUOUS
 62
     7
 10
320.0467648413
 20
163.6565756073
 30
0.0
 11
319.2467650827
 21
163.6565756073
 31
0.0
  0
LINE
  5
11F
  8
0
  6
CONTINUOUS
 62
     7
 10
319.2467650827
 20
163.6565756073
 30
0.0
 11
319.2467650827
 21
165.6565737
 31
0.0
  0
POLYLINE
  5
120
  8
0
  6
CONTINUOUS
 62
     7
 66
     1
 10
0.0
 20
0.0
 30
0.0
  0
VERTEX
  5
3CF
  8
0
  6
CONTINUOUS
 62
     7
 10
305.1630126741
 20
234.1979514828
 30
0.0
  0
VERTEX
  5
3D0
  8
0
  6
CONTINUOUS
 62
     7
 10
305.7105655279
 20
234.3927752247
 30
0.0
  0
VERTEX
  5
3D1
  8
0
  6
CONTINUOUS
 62
     7
 10
306.2434914019
 20
234.8350416889
 30
0.0
  0
VERTEX
  5
3D2
  8
0
  6
CONTINUOUS
 62
     7
 10
306.7424687054
 20
235.5168949833
 30
0.0
  0
VERTEX
  5
3D3
  8
0
  6
CONTINUOUS
 62
     7
 10
307.1871633139
 20
236.4156734219
 30
0.0
  0
VERTEX
  5
3D4
  8
0
  6
CONTINUOUS
 62
     7
 10
307.5552778747
 20
237.503958868
 30
0.0
  0
VERTEX
  5
3D5
  8
0
  6
CONTINUOUS
 62
     7
 10
307.8310201373
 20
238.7505423298
 30
0.0
  0
VERTEX
  5
3D6
  8
0
  6
CONTINUOUS
 62
     7
 10
307.9972187486
 20
240.1242744198
 30
0.0
  0
VERTEX
  5
3D7
  8
0
  6
CONTINUOUS
 62
     7
 10
308.0428755339
 20
241.5815245381
 30
0.0
  0
VERTEX
  5
3D8
  8
0
  6
CONTINUOUS
 62
     7
 10
307.9944191929
 20
242.6800619831
 30
0.0
  0
SEQEND
  5
572
  8
0
  6
CONTINUOUS
 62
     7
  0
POLYLINE
  5
121
  8
0
  6
CONTINUOUS
 62
     7
 66
     1
 10
0.0
 20
0.0
 30
0.0
  0
VERTEX
  5
3D9
  8
0
  6
CONTINUOUS
 62
     7
 10
305.1630126741
 20
234.1979514828
 30
0.0
  0
VERTEX
  5
3DA
  8
0
  6
CONTINUOUS
 62
     7
 10
304.1022519078
 20
234.067703413
 30
0.0
  0
VERTEX
  5
3DB
  8
0
  6
CONTINUOUS
 62
     7
 10
303.1678395774
 20
233.9529763928
 30
0.0
  0
VERTEX
  5
3DC
  8
0
  6
CONTINUOUS
 62
     7
 10
302.3614997473
 20
233.8539730778
 30
0.0
  0
VERTEX
  5
3DD
  8
0
  6
CONTINUOUS
 62
     7
 10
301.4496015813
 20
233.7419997921
 30
0.0
  0
VERTEX
  5
3DE
  8
0
  6
CONTINUOUS
 62
     7
 10
300.7957676854
 20
233.6617242565
 30
0.0
  0
VERTEX
  5
3DF
  8
0
  6
CONTINUOUS
 62
     7
 10
300.4025826659
 20
233.6134444943
 30
0.0
  0
VERTEX
  5
3E0
  8
0
  6
CONTINUOUS
 62
     7
 10
300.2713108864
 20
233.5973273983
 30
0.0
  0
SEQEND
  5
571
  8
0
  6
CONTINUOUS
 62
     7
  0
POLYLINE
  5
122
  8
0
  6
CONTINUOUS
 62
     7
 66
     1
 10
0.0
 20
0.0
 30
0.0
  0
VERTEX
  5
3E1
  8
0
  6
CONTINUOUS
 62
     7
 10
295.1037968006
 20
264.1956459751
 30
0.0
  0
VERTEX
  5
3E2
  8
0
  6
CONTINUOUS
 62
     7
 10
295.2008137908
 20
264.2075549832
 30
0.0
  0
VERTEX
  5
3E3
  8
0
  6
CONTINUOUS
 62
     7
 10
295.4914534893
 20
264.2432343235
 30
0.0
  0
VERTEX
  5
3E4
  8
0
  6
CONTINUOUS
 62
     7
 10
295.9750691857
 20
264.3026243916
 30
0.0
  0
VERTEX
  5
3E5
  8
0
  6
CONTINUOUS
 62
     7
 10
296.650389811
 20
264.3855344525
 30
0.0
  0
VERTEX
  5
3E6
  8
0
  6
CONTINUOUS
 62
     7
 10
297.5155139771
 20
264.4917618504
 30
0.0
  0
VERTEX
  5
3E7
  8
0
  6
CONTINUOUS
 62
     7
 10
298.485891005
 20
264.6109115353
 30
0.0
  0
VERTEX
  5
3E8
  8
0
  6
CONTINUOUS
 62
     7
 10
299.6154392567
 20
264.7495996227
 30
0.0
  0
VERTEX
  5
3E9
  8
0
  6
CONTINUOUS
 62
     7
 10
300.901656827
 20
264.9075280895
 30
0.0
  0
SEQEND
  5
570
  8
0
  6
CONTINUOUS
 62
     7
  0
POLYLINE
  5
123
  8
0
  6
CONTINUOUS
 62
     7
 66
     1
 10
0.0
 20
0.0
 30
0.0
  0
VERTEX
  5
3EA
  8
0
  6
CONTINUOUS
 62
     7
 10
306.3598173168
 20
257.0972215405
 30
0.0
  0
VERTEX
  5
3EB
  8
0
  6
CONTINUOUS
 62
     7
 10
306.0572365727
 20
258.4090363255
 30
0.0
  0
VERTEX
  5
3EC
  8
0
  6
CONTINUOUS
 62
     7
 10
305.639281353
 20
259.6792113056
 30
0.0
  0
VERTEX
  5
3ED
  8
0
  6
CONTINUOUS
 62
     7
 10
305.1214116123
 20
260.8720313778
 30
0.0
  0
VERTEX
  5
3EE
  8
0
  6
CONTINUOUS
 62
     7
 10
304.5278059747
 20
261.9572650662
 30
0.0
  0
VERTEX
  5
3EF
  8
0
  6
CONTINUOUS
 62
     7
 10
303.8823569622
 20
262.9054795971
 30
0.0
  0
VERTEX
  5
3F0
  8
0
  6
CONTINUOUS
 62
     7
 10
303.2121645715
 20
263.6926662197
 30
0.0
  0
VERTEX
  5
3F1
  8
0
  6
CONTINUOUS
 62
     7
 10
302.5450567212
 20
264.2939459553
 30
0.0
  0
VERTEX
  5
3F2
  8
0
  6
CONTINUOUS
 62
     7
 10
301.9017236736
 20
264.6994482746
 30
0.0
  0
VERTEX
  5
3F3
  8
0
  6
CONTINUOUS
 62
     7
 10
301.3791131284
 20
264.8827087155
 30
0.0
  0
VERTEX
  5
3F4
  8
0
  6
CONTINUOUS
 62
     7
 10
300.901656827
 20
264.9075280895
 30
0.0
  0
SEQEND
  5
56F
  8
0
  6
CONTINUOUS
 62
     7
  0
POLYLINE
  5
124
  8
0
  6
CONTINUOUS
 62
     7
 66
     1
 10
0.0
 20
0.0
 30
0.0
  0
VERTEX
  5
3F5
  8
0
  6
CONTINUOUS
 62
     7
 10
306.3598173168
 20
257.0972215405
 30
0.0
  0
VERTEX
  5
3F6
  8
0
  6
CONTINUOUS
 62
     7
 10
306.9329226818
 20
253.5243403187
 30
0.0
  0
VERTEX
  5
3F7
  8
0
  6
CONTINUOUS
 62
     7
 10
307.3571803477
 20
249.9208223095
 30
0.0
  0
VERTEX
  5
3F8
  8
0
  6
CONTINUOUS
 62
     7
 10
307.6974275019
 20
246.302426981
 30
0.0
  0
VERTEX
  5
3F9
  8
0
  6
CONTINUOUS
 62
     7
 10
307.9944191929
 20
242.6800619831
 30
0.0
  0
SEQEND
  5
56E
  8
0
  6
CONTINUOUS
 62
     7
  0
POLYLINE
  5
125
  8
0
  6
CONTINUOUS
 62
     7
 66
     1
 10
0.0
 20
0.0
 30
0.0
  0
VERTEX
  5
3FA
  8
0
  6
CONTINUOUS
 62
     7
 10
301.9122446384
 20
265.1765596142
 30
0.0
  0
VERTEX
  5
3FB
  8
0
  6
CONTINUOUS
 62
     7
 10
302.4648124781
 20
265.1358496418
 30
0.0
  0
VERTEX
  5
3FC
  8
0
  6
CONTINUOUS
 62
     7
 10
303.0757489111
 20
264.8849021664
 30
0.0
  0
VERTEX
  5
3FD
  8
0
  6
CONTINUOUS
 62
     7
 10
303.7278565075
 20
264.426220583
 30
0.0
  0
VERTEX
  5
3FE
  8
0
  6
CONTINUOUS
 62
     7
 10
304.398469856
 20
263.7741934528
 30
0.0
  0
VERTEX
  5
3FF
  8
0
  6
CONTINUOUS
 62
     7
 10
305.060440531
 20
262.9478227368
 30
0.0
  0
VERTEX
  5
400
  8
0
  6
CONTINUOUS
 62
     7
 10
305.6917073634
 20
261.9681011906
 30
0.0
  0
VERTEX
  5
401
  8
0
  6
CONTINUOUS
 62
     7
 10
306.2672647145
 20
260.8558189144
 30
0.0
  0
VERTEX
  5
402
  8
0
  6
CONTINUOUS
 62
     7
 10
306.761724731
 20
259.6439015141
 30
0.0
  0
VERTEX
  5
403
  8
0
  6
CONTINUOUS
 62
     7
 10
307.1089068856
 20
258.5285555592
 30
0.0
  0
VERTEX
  5
404
  8
0
  6
CONTINUOUS
 62
     7
 10
307.3671842423
 20
257.3846709004
 30
0.0
  0
SEQEND
  5
56D
  8
0
  6
CONTINUOUS
 62
     7
  0
POLYLINE
  5
126
  8
0
  6
CONTINUOUS
 62
     7
 66
     1
 10
0.0
 20
0.0
 30
0.0
  0
VERTEX
  5
405
  8
0
  6
CONTINUOUS
 62
     7
 10
307.3671842423
 20
257.3846709004
 30
0.0
  0
VERTEX
  5
406
  8
0
  6
CONTINUOUS
 62
     7
 10
307.9558050689
 20
253.7566673031
 30
0.0
  0
VERTEX
  5
407
  8
0
  6
CONTINUOUS
 62
     7
 10
308.3911059853
 20
250.1042734852
 30
0.0
  0
VERTEX
  5
408
  8
0
  6
CONTINUOUS
 62
     7
 10
308.7377218958
 20
246.4590560665
 30
0.0
  0
VERTEX
  5
409
  8
0
  6
CONTINUOUS
 62
     7
 10
309.0413978752
 20
242.8110491505
 30
0.0
  0
SEQEND
  5
56C
  8
0
  6
CONTINUOUS
 62
     7
  0
POLYLINE
  5
127
  8
0
  6
CONTINUOUS
 62
     7
 66
     1
 10
0.0
 20
0.0
 30
0.0
  0
VERTEX
  5
40A
  8
0
  6
CONTINUOUS
 62
     7
 10
306.221484622
 20
234.3070160618
 30
0.0
  0
VERTEX
  5
40B
  8
0
  6
CONTINUOUS
 62
     7
 10
305.2002700474
 20
234.1801892986
 30
0.0
  0
VERTEX
  5
40C
  8
0
  6
CONTINUOUS
 62
     7
 10
304.2993428614
 20
234.0682994595
 30
0.0
  0
VERTEX
  5
40D
  8
0
  6
CONTINUOUS
 62
     7
 10
303.520345917
 20
233.971561121
 30
0.0
  0
VERTEX
  5
40E
  8
0
  6
CONTINUOUS
 62
     7
 10
302.6238235142
 20
233.8602196446
 30
0.0
  0
VERTEX
  5
40F
  8
0
  6
CONTINUOUS
 62
     7
 10
301.9810097721
 20
233.7803851833
 30
0.0
  0
VERTEX
  5
410
  8
0
  6
CONTINUOUS
 62
     7
 10
301.5944542792
 20
233.7323796024
 30
0.0
  0
VERTEX
  5
411
  8
0
  6
CONTINUOUS
 62
     7
 10
301.465393832
 20
233.7163578739
 30
0.0
  0
SEQEND
  5
56B
  8
0
  6
CONTINUOUS
 62
     7
  0
POLYLINE
  5
128
  8
0
  6
CONTINUOUS
 62
     7
 66
     1
 10
0.0
 20
0.0
 30
0.0
  0
VERTEX
  5
412
  8
0
  6
CONTINUOUS
 62
     7
 10
309.0413982477
 20
242.8110491505
 30
0.0
  0
VERTEX
  5
413
  8
0
  6
CONTINUOUS
 62
     7
 10
309.0914784428
 20
241.3156401386
 30
0.0
  0
VERTEX
  5
414
  8
0
  6
CONTINUOUS
 62
     7
 10
309.0150731113
 20
239.8729454746
 30
0.0
  0
VERTEX
  5
415
  8
0
  6
CONTINUOUS
 62
     7
 10
308.8185681459
 20
238.5256778469
 30
0.0
  0
VERTEX
  5
416
  8
0
  6
CONTINUOUS
 62
     7
 10
308.517119145
 20
237.3114597073
 30
0.0
  0
VERTEX
  5
417
  8
0
  6
CONTINUOUS
 62
     7
 10
308.1265876498
 20
236.2684857121
 30
0.0
  0
VERTEX
  5
418
  8
0
  6
CONTINUOUS
 62
     7
 10
307.667317098
 20
235.4238044491
 30
0.0
  0
VERTEX
  5
419
  8
0
  6
CONTINUOUS
 62
     7
 10
307.1607569661
 20
234.8062884083
 30
0.0
  0
VERTEX
  5
41A
  8
0
  6
CONTINUOUS
 62
     7
 10
306.626174083
 20
234.4269763699
 30
0.0
  0
VERTEX
  5
41B
  8
0
  6
CONTINUOUS
 62
     7
 10
306.221484622
 20
234.3070160618
 30
0.0
  0
SEQEND
  5
56A
  8
0
  6
CONTINUOUS
 62
     7
  0
LINE
  5
129
  8
0
  6
CONTINUOUS
 62
     7
 10
301.9122655001
 20
265.1765596142
 30
0.0
 11
301.064246377
 21
265.0679122677
 31
0.0
  0
POLYLINE
  5
12A
  8
0
  6
CONTINUOUS
 62
     7
 66
     1
 10
0.0
 20
0.0
 30
0.0
  0
VERTEX
  5
41C
  8
0
  6
CONTINUOUS
 62
     7
 10
296.2755883541
 20
264.4543062916
 30
0.0
  0
VERTEX
  5
41D
  8
0
  6
CONTINUOUS
 62
     7
 10
296.370933434
 20
264.4665133228
 30
0.0
  0
VERTEX
  5
41E
  8
0
  6
CONTINUOUS
 62
     7
 10
296.6565574017
 20
264.5031224957
 30
0.0
  0
VERTEX
  5
41F
  8
0
  6
CONTINUOUS
 62
     7
 10
297.1318165269
 20
264.5640265217
 30
0.0
  0
VERTEX
  5
420
  8
0
  6
CONTINUOUS
 62
     7
 10
297.7954799738
 20
264.6490704289
 30
0.0
  0
VERTEX
  5
421
  8
0
  6
CONTINUOUS
 62
     7
 10
298.645656785
 20
264.7580157986
 30
0.0
  0
VERTEX
  5
422
  8
0
  6
CONTINUOUS
 62
     7
 10
299.5835761037
 20
264.8782026043
 30
0.0
  0
VERTEX
  5
423
  8
0
  6
CONTINUOUS
 62
     7
 10
300.6732339468
 20
265.0178205242
 30
0.0
  0
VERTEX
  5
424
  8
0
  6
CONTINUOUS
 62
     7
 10
301.9122446384
 20
265.1765596142
 30
0.0
  0
SEQEND
  5
569
  8
0
  6
CONTINUOUS
 62
     7
  0
LINE
  5
12B
  8
0
  6
CONTINUOUS
 62
     7
 10
302.8789544907
 20
244.7986137142
 30
0.0
 11
302.1477388647
 21
250.7538925877
 31
0.0
  0
LINE
  5
12C
  8
0
  6
CONTINUOUS
 62
     7
 10
302.8789544907
 20
244.7986137142
 30
0.0
 11
301.1564085689
 21
244.5871125927
 31
0.0
  0
LINE
  5
12D
  8
0
  6
CONTINUOUS
 62
     7
 10
302.1477388647
 20
250.7538925877
 30
0.0
 11
300.4251936879
 21
250.5423914662
 31
0.0
  0
LINE
  5
12E
  8
0
  6
CONTINUOUS
 62
     7
 10
303.4453349617
 20
244.8681484928
 30
0.0
 11
303.2887595203
 21
246.143354105
 31
0.0
  0
LINE
  5
12F
  8
0
  6
CONTINUOUS
 62
     7
 10
303.4453349617
 20
244.8681484928
 30
0.0
 11
302.8789544907
 21
244.7986137142
 31
0.0
  0
LINE
  5
130
  8
0
  6
CONTINUOUS
 62
     7
 10
302.6069241073
 20
250.8102666607
 30
0.0
 11
302.1477388647
 21
250.7538925877
 31
0.0
  0
POLYLINE
  5
131
  8
0
  6
CONTINUOUS
 62
     7
 66
     1
 10
0.0
 20
0.0
 30
0.0
  0
VERTEX
  5
425
  8
0
  6
CONTINUOUS
 62
     7
 10
301.1564085689
 20
244.5871125927
 30
0.0
  0
VERTEX
  5
426
  8
0
  6
CONTINUOUS
 62
     7
 10
301.1243844833
 20
244.5831786862
 30
0.0
  0
VERTEX
  5
427
  8
0
  6
CONTINUOUS
 62
     7
 10
301.0847086515
 20
244.5783030262
 30
0.0
  0
VERTEX
  5
428
  8
0
  6
CONTINUOUS
 62
     7
 10
301.0377133694
 20
244.5725332966
 30
0.0
  0
VERTEX
  5
429
  8
0
  6
CONTINUOUS
 62
     7
 10
300.9837950077
 20
244.565917181
 30
0.0
  0
VERTEX
  5
42A
  8
0
  6
CONTINUOUS
 62
     7
 10
300.9234050717
 20
244.5585023632
 30
0.0
  0
VERTEX
  5
42B
  8
0
  6
CONTINUOUS
 62
     7
 10
300.8570487108
 20
244.5503484478
 30
0.0
  0
VERTEX
  5
42C
  8
0
  6
CONTINUOUS
 62
     7
 10
300.7852847185
 20
244.5415388813
 30
0.0
  0
VERTEX
  5
42D
  8
0
  6
CONTINUOUS
 62
     7
 10
300.7087151017
 20
244.5321332684
 30
0.0
  0
SEQEND
  5
568
  8
0
  6
CONTINUOUS
 62
     7
  0
POLYLINE
  5
132
  8
0
  6
CONTINUOUS
 62
     7
 66
     1
 10
0.0
 20
0.0
 30
0.0
  0
VERTEX
  5
42E
  8
0
  6
CONTINUOUS
 62
     7
 10
299.9774987307
 20
250.4874121418
 30
0.0
  0
VERTEX
  5
42F
  8
0
  6
CONTINUOUS
 62
     7
 10
300.0540683475
 20
250.4968177548
 30
0.0
  0
VERTEX
  5
430
  8
0
  6
CONTINUOUS
 62
     7
 10
300.1258323398
 20
250.5056273213
 30
0.0
  0
VERTEX
  5
431
  8
0
  6
CONTINUOUS
 62
     7
 10
300.1921887007
 20
250.5137812367
 30
0.0
  0
VERTEX
  5
432
  8
0
  6
CONTINUOUS
 62
     7
 10
300.2525786367
 20
250.5211960545
 30
0.0
  0
VERTEX
  5
433
  8
0
  6
CONTINUOUS
 62
     7
 10
300.3064969983
 20
250.52781217
 30
0.0
  0
VERTEX
  5
434
  8
0
  6
CONTINUOUS
 62
     7
 10
300.3534922805
 20
250.5335818997
 30
0.0
  0
VERTEX
  5
435
  8
0
  6
CONTINUOUS
 62
     7
 10
300.3931681123
 20
250.5384575596
 30
0.0
  0
VERTEX
  5
436
  8
0
  6
CONTINUOUS
 62
     7
 10
300.4251936879
 20
250.5423914662
 30
0.0
  0
SEQEND
  5
567
  8
0
  6
CONTINUOUS
 62
     7
  0
LINE
  5
133
  8
0
  6
CONTINUOUS
 62
     7
 10
300.7087151017
 20
244.5321332684
 30
0.0
 11
296.3775242176
 21
244.0003406277
 31
0.0
  0
LINE
  5
134
  8
0
  6
CONTINUOUS
 62
     7
 10
299.9774987307
 20
250.4874121418
 30
0.0
 11
295.6463093367
 21
249.9556075802
 31
0.0
  0
LINE
  5
135
  8
0
  6
CONTINUOUS
 62
     7
 10
295.8812514749
 20
243.9394008389
 30
0.0
 11
295.1500351038
 21
249.8946797123
 31
0.0
  0
POLYLINE
  5
136
  8
0
  6
CONTINUOUS
 62
     7
 66
     1
 10
0.0
 20
0.0
 30
0.0
  0
VERTEX
  5
437
  8
0
  6
CONTINUOUS
 62
     7
 10
296.3775242176
 20
244.0003406277
 30
0.0
  0
VERTEX
  5
438
  8
0
  6
CONTINUOUS
 62
     7
 10
296.2695742455
 20
243.9870845547
 30
0.0
  0
VERTEX
  5
439
  8
0
  6
CONTINUOUS
 62
     7
 10
296.1719612088
 20
243.9750921002
 30
0.0
  0
VERTEX
  5
43A
  8
0
  6
CONTINUOUS
 62
     7
 10
296.0863585081
 20
243.9645897617
 30
0.0
  0
VERTEX
  5
43B
  8
0
  6
CONTINUOUS
 62
     7
 10
296.0142279472
 20
243.9557325115
 30
0.0
  0
VERTEX
  5
43C
  8
0
  6
CONTINUOUS
 62
     7
 10
295.9568048325
 20
243.9486753216
 30
0.0
  0
VERTEX
  5
43D
  8
0
  6
CONTINUOUS
 62
     7
 10
295.9150726404
 20
243.9435493221
 30
0.0
  0
VERTEX
  5
43E
  8
0
  6
CONTINUOUS
 62
     7
 10
295.8897436466
 20
243.9404379597
 30
0.0
  0
VERTEX
  5
43F
  8
0
  6
CONTINUOUS
 62
     7
 10
295.8812514749
 20
243.9394008389
 30
0.0
  0
SEQEND
  5
566
  8
0
  6
CONTINUOUS
 62
     7
  0
POLYLINE
  5
137
  8
0
  6
CONTINUOUS
 62
     7
 66
     1
 10
0.0
 20
0.0
 30
0.0
  0
VERTEX
  5
440
  8
0
  6
CONTINUOUS
 62
     7
 10
295.1500351038
 20
249.8946797123
 30
0.0
  0
VERTEX
  5
441
  8
0
  6
CONTINUOUS
 62
     7
 10
295.1585272756
 20
249.8957168331
 30
0.0
  0
VERTEX
  5
442
  8
0
  6
CONTINUOUS
 62
     7
 10
295.1838562694
 20
249.8988281956
 30
0.0
  0
VERTEX
  5
443
  8
0
  6
CONTINUOUS
 62
     7
 10
295.2255884614
 20
249.903954195
 30
0.0
  0
VERTEX
  5
444
  8
0
  6
CONTINUOUS
 62
     7
 10
295.2830115762
 20
249.911011385
 30
0.0
  0
VERTEX
  5
445
  8
0
  6
CONTINUOUS
 62
     7
 10
295.3551421371
 20
249.9198567143
 30
0.0
  0
VERTEX
  5
446
  8
0
  6
CONTINUOUS
 62
     7
 10
295.4407463279
 20
249.9303709736
 30
0.0
  0
VERTEX
  5
447
  8
0
  6
CONTINUOUS
 62
     7
 10
295.5383578744
 20
249.9423634281
 30
0.0
  0
VERTEX
  5
448
  8
0
  6
CONTINUOUS
 62
     7
 10
295.6463093367
 20
249.9556075802
 30
0.0
  0
SEQEND
  5
565
  8
0
  6
CONTINUOUS
 62
     7
  0
LINE
  5
138
  8
0
  6
CONTINUOUS
 62
     7
 10
303.2467650678
 20
162.8565739861
 30
0.0
 11
308.2467647698
 21
162.8565739861
 31
0.0
  0
LINE
  5
139
  8
0
  6
CONTINUOUS
 62
     7
 10
294.551549336
 20
249.8211871853
 30
0.0
 11
290.5813644137
 21
249.3337165585
 31
0.0
  0
LINE
  5
13A
  8
0
  6
CONTINUOUS
 62
     7
 10
292.0342842546
 20
229.2951237431
 30
0.0
 11
289.5888174381
 21
249.2118489018
 31
0.0
  0
POLYLINE
  5
13B
  8
0
  6
CONTINUOUS
 62
     7
 66
     1
 10
0.0
 20
0.0
 30
0.0
  0
VERTEX
  5
449
  8
0
  6
CONTINUOUS
 62
     7
 10
289.5888174381
 20
249.2118489018
 30
0.0
  0
VERTEX
  5
44A
  8
0
  6
CONTINUOUS
 62
     7
 10
289.6078894343
 20
249.2141854038
 30
0.0
  0
VERTEX
  5
44B
  8
0
  6
CONTINUOUS
 62
     7
 10
289.6643707957
 20
249.2211233845
 30
0.0
  0
VERTEX
  5
44C
  8
0
  6
CONTINUOUS
 62
     7
 10
289.7560919132
 20
249.2323886624
 30
0.0
  0
VERTEX
  5
44D
  8
0
  6
CONTINUOUS
 62
     7
 10
289.8795286622
 20
249.2475401631
 30
0.0
  0
VERTEX
  5
44E
  8
0
  6
CONTINUOUS
 62
     7
 10
290.0299350228
 20
249.266005682
 30
0.0
  0
VERTEX
  5
44F
  8
0
  6
CONTINUOUS
 62
     7
 10
290.2015338149
 20
249.2870818844
 30
0.0
  0
VERTEX
  5
450
  8
0
  6
CONTINUOUS
 62
     7
 10
290.3877282944
 20
249.3099343052
 30
0.0
  0
VERTEX
  5
451
  8
0
  6
CONTINUOUS
 62
     7
 10
290.5813644137
 20
249.3337165585
 30
0.0
  0
SEQEND
  5
564
  8
0
  6
CONTINUOUS
 62
     7
  0
ARC
  5
13C
  8
0
  6
CONTINUOUS
 62
     7
 10
311.8852067862
 20
231.7325132506
 30
0.0
 40
20.00000000000003
 50
187.0
 51
193.0
  0
LINE
  5
13D
  8
0
  6
CONTINUOUS
 62
     7
 10
301.8879460599
 20
186.1271809807
 30
0.0
 11
292.3978055325
 21
227.2334944477
 31
0.0
  0
LINE
  5
13E
  8
0
  6
CONTINUOUS
 62
     7
 10
296.2753111925
 20
243.9877878895
 30
0.0
 11
297.9895601478
 21
230.0263416042
 31
0.0
  0
POLYLINE
  5
13F
  8
0
  6
CONTINUOUS
 62
     7
 66
     1
 10
0.0
 20
0.0
 30
0.0
  0
VERTEX
  5
452
  8
0
  6
CONTINUOUS
 62
     7
 10
294.551549336
 20
249.8211871853
 30
0.0
  0
VERTEX
  5
453
  8
0
  6
CONTINUOUS
 62
     7
 10
294.6317622867
 20
249.8310457935
 30
0.0
  0
VERTEX
  5
454
  8
0
  6
CONTINUOUS
 62
     7
 10
294.7114507165
 20
249.8408209553
 30
0.0
  0
VERTEX
  5
455
  8
0
  6
CONTINUOUS
 62
     7
 10
294.7900945749
 20
249.8504769077
 30
0.0
  0
VERTEX
  5
456
  8
0
  6
CONTINUOUS
 62
     7
 10
294.8671753016
 20
249.8599421253
 30
0.0
  0
VERTEX
  5
457
  8
0
  6
CONTINUOUS
 62
     7
 10
294.9421937075
 20
249.8691570034
 30
0.0
  0
VERTEX
  5
458
  8
0
  6
CONTINUOUS
 62
     7
 10
295.0146550741
 20
249.8780500164
 30
0.0
  0
VERTEX
  5
459
  8
0
  6
CONTINUOUS
 62
     7
 10
295.0840870347
 20
249.8865854015
 30
0.0
  0
VERTEX
  5
45A
  8
0
  6
CONTINUOUS
 62
     7
 10
295.1500351038
 20
249.8946797123
 30
0.0
  0
SEQEND
  5
563
  8
0
  6
CONTINUOUS
 62
     7
  0
ARC
  5
140
  8
0
  6
CONTINUOUS
 62
     7
 10
311.8852067862
 20
231.7325132506
 30
0.0
 40
14.00000000000004
 50
187.0
 51
193.0
  0
LINE
  5
141
  8
0
  6
CONTINUOUS
 62
     7
 10
298.2440257874
 20
228.5831939449
 30
0.0
 11
307.7341663148
 21
187.4768864384
 31
0.0
  0
ARC
  5
142
  8
0
  6
CONTINUOUS
 62
     7
 10
288.2467649427
 20
182.9778633936
 30
0.0
 40
14.0
 50
0.0
 51
13.0
  0
LINE
  5
143
  8
0
  6
CONTINUOUS
 62
     7
 10
302.2467652764
 20
162.8565739861
 30
0.0
 11
302.2467652764
 21
182.9778622856
 31
0.0
  0
LINE
  5
144
  8
0
  6
CONTINUOUS
 62
     7
 10
303.2467650678
 20
162.8565739861
 30
0.0
 11
302.2467652764
 21
162.8565739861
 31
0.0
  0
ARC
  5
145
  8
0
  6
CONTINUOUS
 62
     7
 10
288.2467649427
 20
182.9778633936
 30
0.0
 40
20.00000000000003
 50
0.0
 51
13.0
  0
LINE
  5
146
  8
0
  6
CONTINUOUS
 62
     7
 10
308.2467647698
 20
182.9778622856
 30
0.0
 11
308.2467647698
 21
181.1940562
 31
0.0
  0
LINE
  5
147
  8
0
  6
CONTINUOUS
 62
     7
 10
325.302489331
 20
189.5251821747
 30
0.0
 11
324.0803579297
 21
188.9547597637
 31
0.0
  0
POLYLINE
  5
148
  8
0
  6
CONTINUOUS
 62
     7
 66
     1
 10
0.0
 20
0.0
 30
0.0
  0
VERTEX
  5
45B
  8
0
  6
CONTINUOUS
 62
     7
 10
329.935180625
 20
190.1564728489
 30
0.0
  0
VERTEX
  5
45C
  8
0
  6
CONTINUOUS
 62
     7
 10
328.8027013149
 20
190.1484500637
 30
0.0
  0
VERTEX
  5
45D
  8
0
  6
CONTINUOUS
 62
     7
 10
327.7240226474
 20
190.0782000294
 30
0.0
  0
VERTEX
  5
45E
  8
0
  6
CONTINUOUS
 62
     7
 10
326.7901922073
 20
189.9503242245
 30
0.0
  0
VERTEX
  5
45F
  8
0
  6
CONTINUOUS
 62
     7
 10
325.9763980713
 20
189.7655498257
 30
0.0
  0
VERTEX
  5
460
  8
0
  6
CONTINUOUS
 62
     7
 10
325.302489331
 20
189.5251821747
 30
0.0
  0
SEQEND
  5
562
  8
0
  6
CONTINUOUS
 62
     7
  0
POLYLINE
  5
149
  8
0
  6
CONTINUOUS
 62
     7
 66
     1
 10
0.0
 20
0.0
 30
0.0
  0
VERTEX
  5
461
  8
0
  6
CONTINUOUS
 62
     7
 10
332.955903789
 20
190.1037227383
 30
0.0
  0
VERTEX
  5
462
  8
0
  6
CONTINUOUS
 62
     7
 10
331.4455399718
 20
190.1301097145
 30
0.0
  0
VERTEX
  5
463
  8
0
  6
CONTINUOUS
 62
     7
 10
329.935180625
 20
190.1564728489
 30
0.0
  0
SEQEND
  5
561
  8
0
  6
CONTINUOUS
 62
     7
  0
POLYLINE
  5
14A
  8
0
  6
CONTINUOUS
 62
     7
 66
     1
 10
0.0
 20
0.0
 30
0.0
  0
VERTEX
  5
464
  8
0
  6
CONTINUOUS
 62
     7
 10
337.9551420417
 20
190.0164555779
 30
0.0
  0
VERTEX
  5
465
  8
0
  6
CONTINUOUS
 62
     7
 10
335.4520002809
 20
190.05318396
 30
0.0
  0
VERTEX
  5
466
  8
0
  6
CONTINUOUS
 62
     7
 10
332.961536428
 20
190.1035737267
 30
0.0
  0
SEQEND
  5
560
  8
0
  6
CONTINUOUS
 62
     7
  0
LINE
  5
14B
  8
0
  6
CONTINUOUS
 62
     7
 10
337.9812622871
 20
190.0160025826
 30
0.0
 11
337.9551420417
 21
190.0164555779
 31
0.0
  0
POLYLINE
  5
14C
  8
0
  6
CONTINUOUS
 62
     7
 66
     1
 10
0.0
 20
0.0
 30
0.0
  0
VERTEX
  5
467
  8
0
  6
CONTINUOUS
 62
     7
 10
342.9884622302
 20
189.9285864105
 30
0.0
  0
VERTEX
  5
468
  8
0
  6
CONTINUOUS
 62
     7
 10
340.4847154822
 20
189.9725746384
 30
0.0
  0
VERTEX
  5
469
  8
0
  6
CONTINUOUS
 62
     7
 10
337.9812950697
 20
190.0160025826
 30
0.0
  0
SEQEND
  5
55F
  8
0
  6
CONTINUOUS
 62
     7
  0
LINE
  5
14D
  8
0
  6
CONTINUOUS
 62
     7
 10
344.8391685691
 20
189.8890506497
 30
0.0
 11
342.9884771314
 21
189.9285089245
 31
0.0
  0
LINE
  5
14E
  8
0
  6
CONTINUOUS
 62
     7
 10
352.9528597798
 20
189.754671978
 30
0.0
 11
344.8391685691
 21
189.8890506497
 31
0.0
  0
POLYLINE
  5
14F
  8
0
  6
CONTINUOUS
 62
     7
 66
     1
 10
0.0
 20
0.0
 30
0.0
  0
VERTEX
  5
46A
  8
0
  6
CONTINUOUS
 62
     7
 10
361.3467643466
 20
189.6099340191
 30
0.0
  0
VERTEX
  5
46B
  8
0
  6
CONTINUOUS
 62
     7
 10
356.1247358527
 20
189.7069107762
 30
0.0
  0
VERTEX
  5
46C
  8
0
  6
CONTINUOUS
 62
     7
 10
352.9528717008
 20
189.754671978
 30
0.0
  0
SEQEND
  5
55E
  8
0
  6
CONTINUOUS
 62
     7
  0
POLYLINE
  5
150
  8
0
  6
CONTINUOUS
 62
     7
 66
     1
 10
0.0
 20
0.0
 30
0.0
  0
VERTEX
  5
46D
  8
0
  6
CONTINUOUS
 62
     7
 10
372.9506055322
 20
189.4056331387
 30
0.0
  0
VERTEX
  5
46E
  8
0
  6
CONTINUOUS
 62
     7
 10
367.9520706143
 20
189.4504737129
 30
0.0
  0
VERTEX
  5
46F
  8
0
  6
CONTINUOUS
 62
     7
 10
366.7467633691
 20
189.4817303887
 30
0.0
  0
SEQEND
  5
55D
  8
0
  6
CONTINUOUS
 62
     7
  0
POLYLINE
  5
151
  8
0
  6
CONTINUOUS
 62
     7
 66
     1
 10
0.0
 20
0.0
 30
0.0
  0
VERTEX
  5
470
  8
0
  6
CONTINUOUS
 62
     7
 10
384.6062878575
 20
188.9874529114
 30
0.0
  0
VERTEX
  5
471
  8
0
  6
CONTINUOUS
 62
     7
 10
384.580961844
 20
188.9921497574
 30
0.0
  0
VERTEX
  5
472
  8
0
  6
CONTINUOUS
 62
     7
 10
382.1679512467
 20
189.3106471768
 30
0.0
  0
VERTEX
  5
473
  8
0
  6
CONTINUOUS
 62
     7
 10
379.7794858422
 20
189.4498895874
 30
0.0
  0
VERTEX
  5
474
  8
0
  6
CONTINUOUS
 62
     7
 10
377.4135688748
 20
189.4732546082
 30
0.0
  0
VERTEX
  5
475
  8
0
  6
CONTINUOUS
 62
     7
 10
375.0587443318
 20
189.4385766258
 30
0.0
  0
VERTEX
  5
476
  8
0
  6
CONTINUOUS
 62
     7
 10
372.9506055322
 20
189.4056510201
 30
0.0
  0
SEQEND
  5
55C
  8
0
  6
CONTINUOUS
 62
     7
  0
ARC
  5
152
  8
0
  6
CONTINUOUS
 62
     7
 10
382.3706267854
 20
176.7000664678
 30
0.0
 40
12.48911710425708
 50
43.7647639822
 51
79.6879731616
  0
POLYLINE
  5
153
  8
0
  6
CONTINUOUS
 62
     7
 66
     1
 10
0.0
 20
0.0
 30
0.0
  0
VERTEX
  5
477
  8
0
  6
CONTINUOUS
 62
     7
 10
392.8364256825
 20
183.2712899914
 30
0.0
  0
VERTEX
  5
478
  8
0
  6
CONTINUOUS
 62
     7
 10
392.8389886823
 20
183.2674454918
 30
0.0
  0
VERTEX
  5
479
  8
0
  6
CONTINUOUS
 62
     7
 10
392.7702824082
 20
183.3711158505
 30
0.0
  0
VERTEX
  5
47A
  8
0
  6
CONTINUOUS
 62
     7
 10
392.6263193097
 20
183.5870515576
 30
0.0
  0
VERTEX
  5
47B
  8
0
  6
CONTINUOUS
 62
     7
 10
392.407462975
 20
183.9108061066
 30
0.0
  0
VERTEX
  5
47C
  8
0
  6
CONTINUOUS
 62
     7
 10
391.9726888146
 20
184.5373582115
 30
0.0
  0
VERTEX
  5
47D
  8
0
  6
CONTINUOUS
 62
     7
 10
391.3900891748
 20
185.3387784233
 30
0.0
  0
SEQEND
  5
55B
  8
0
  6
CONTINUOUS
 62
     7
  0
POLYLINE
  5
154
  8
0
  6
CONTINUOUS
 62
     7
 66
     1
 10
0.0
 20
0.0
 30
0.0
  0
VERTEX
  5
47E
  8
0
  6
CONTINUOUS
 62
     7
 10
384.5400194135
 20
190.2133535614
 30
0.0
  0
VERTEX
  5
47F
  8
0
  6
CONTINUOUS
 62
     7
 10
385.6881240811
 20
189.9741243591
 30
0.0
  0
VERTEX
  5
480
  8
0
  6
CONTINUOUS
 62
     7
 10
386.7901007142
 20
189.6532904377
 30
0.0
  0
VERTEX
  5
481
  8
0
  6
CONTINUOUS
 62
     7
 10
387.8105918374
 20
189.2533134689
 30
0.0
  0
VERTEX
  5
482
  8
0
  6
CONTINUOUS
 62
     7
 10
388.733367106
 20
188.7958418598
 30
0.0
  0
VERTEX
  5
483
  8
0
  6
CONTINUOUS
 62
     7
 10
389.5910243001
 20
188.2830213776
 30
0.0
  0
VERTEX
  5
484
  8
0
  6
CONTINUOUS
 62
     7
 10
390.3108874764
 20
187.7850007286
 30
0.0
  0
VERTEX
  5
485
  8
0
  6
CONTINUOUS
 62
     7
 10
390.8172706571
 20
187.3928677311
 30
0.0
  0
VERTEX
  5
486
  8
0
  6
CONTINUOUS
 62
     7
 10
391.1872128453
 20
187.0761346092
 30
0.0
  0
VERTEX
  5
487
  8
0
  6
CONTINUOUS
 62
     7
 10
391.3360456433
 20
186.9346987476
 30
0.0
  0
VERTEX
  5
488
  8
0
  6
CONTINUOUS
 62
     7
 10
391.4265731778
 20
186.8355285397
 30
0.0
  0
SEQEND
  5
55A
  8
0
  6
CONTINUOUS
 62
     7
  0
POLYLINE
  5
155
  8
0
  6
CONTINUOUS
 62
     7
 66
     1
 10
0.0
 20
0.0
 30
0.0
  0
VERTEX
  5
489
  8
0
  6
CONTINUOUS
 62
     7
 10
325.135280421
 20
190.6713496914
 30
0.0
  0
VERTEX
  5
48A
  8
0
  6
CONTINUOUS
 62
     7
 10
325.7186988797
 20
190.8889960518
 30
0.0
  0
VERTEX
  5
48B
  8
0
  6
CONTINUOUS
 62
     7
 10
326.4884749856
 20
191.0788070431
 30
0.0
  0
VERTEX
  5
48C
  8
0
  6
CONTINUOUS
 62
     7
 10
327.3787031379
 20
191.2167798748
 30
0.0
  0
VERTEX
  5
48D
  8
0
  6
CONTINUOUS
 62
     7
 10
328.4134263601
 20
191.3007032147
 30
0.0
  0
VERTEX
  5
48E
  8
0
  6
CONTINUOUS
 62
     7
 10
329.0850410667
 20
191.321457552
 30
0.0
  0
VERTEX
  5
48F
  8
0
  6
CONTINUOUS
 62
     7
 10
329.7901535835
 20
191.320033001
 30
0.0
  0
SEQEND
  5
559
  8
0
  6
CONTINUOUS
 62
     7
  0
ARC
  5
156
  8
0
  6
CONTINUOUS
 62
     7
 10
371.7272470721
 20
90.8172773222
 30
0.0
 40
110.1891425011272
 50
115.0137833831
 51
117.0477933463
  0
POLYLINE
  5
157
  8
0
  6
CONTINUOUS
 62
     7
 66
     1
 10
0.0
 20
0.0
 30
0.0
  0
VERTEX
  5
490
  8
0
  6
CONTINUOUS
 62
     7
 10
392.862353703
 20
184.8773431053
 30
0.0
  0
VERTEX
  5
491
  8
0
  6
CONTINUOUS
 62
     7
 10
392.8681651559
 20
184.8688017597
 30
0.0
  0
VERTEX
  5
492
  8
0
  6
CONTINUOUS
 62
     7
 10
392.7836338487
 20
184.9920760861
 30
0.0
  0
VERTEX
  5
493
  8
0
  6
CONTINUOUS
 62
     7
 10
392.5966361966
 20
185.2608453503
 30
0.0
  0
VERTEX
  5
494
  8
0
  6
CONTINUOUS
 62
     7
 10
392.3898200002
 20
185.552860426
 30
0.0
  0
VERTEX
  5
495
  8
0
  6
CONTINUOUS
 62
     7
 10
392.1259681191
 20
185.9167587032
 30
0.0
  0
VERTEX
  5
496
  8
0
  6
CONTINUOUS
 62
     7
 10
391.8047050443
 20
186.3469790688
 30
0.0
  0
VERTEX
  5
497
  8
0
  6
CONTINUOUS
 62
     7
 10
391.4265731778
 20
186.8355285397
 30
0.0
  0
SEQEND
  5
558
  8
0
  6
CONTINUOUS
 62
     7
  0
POLYLINE
  5
158
  8
0
  6
CONTINUOUS
 62
     7
 66
     1
 10
0.0
 20
0.0
 30
0.0
  0
VERTEX
  5
498
  8
0
  6
CONTINUOUS
 62
     7
 10
384.5400194135
 20
190.2133595219
 30
0.0
  0
VERTEX
  5
499
  8
0
  6
CONTINUOUS
 62
     7
 10
382.142994782
 20
190.5096959343
 30
0.0
  0
VERTEX
  5
49A
  8
0
  6
CONTINUOUS
 62
     7
 10
379.8033038583
 20
190.6399797669
 30
0.0
  0
VERTEX
  5
49B
  8
0
  6
CONTINUOUS
 62
     7
 10
377.5089005437
 20
190.6632255783
 30
0.0
  0
VERTEX
  5
49C
  8
0
  6
CONTINUOUS
 62
     7
 10
375.2510289159
 20
190.6313251724
 30
0.0
  0
VERTEX
  5
49D
  8
0
  6
CONTINUOUS
 62
     7
 10
373.0204979386
 20
190.5949782601
 30
0.0
  0
VERTEX
  5
49E
  8
0
  6
CONTINUOUS
 62
     7
 10
370.7930604425
 20
190.5935775509
 30
0.0
  0
VERTEX
  5
49F
  8
0
  6
CONTINUOUS
 62
     7
 10
368.552158257
 20
190.6254302731
 30
0.0
  0
VERTEX
  5
4A0
  8
0
  6
CONTINUOUS
 62
     7
 10
366.7467633691
 20
190.6695257893
 30
0.0
  0
SEQEND
  5
557
  8
0
  6
CONTINUOUS
 62
     7
  0
POLYLINE
  5
159
  8
0
  6
CONTINUOUS
 62
     7
 66
     1
 10
0.0
 20
0.0
 30
0.0
  0
VERTEX
  5
4A1
  8
0
  6
CONTINUOUS
 62
     7
 10
361.3467643466
 20
190.7940339317
 30
0.0
  0
VERTEX
  5
4A2
  8
0
  6
CONTINUOUS
 62
     7
 10
356.1421582904
 20
190.8827196827
 30
0.0
  0
VERTEX
  5
4A3
  8
0
  6
CONTINUOUS
 62
     7
 10
352.8446415868
 20
190.9295808544
 30
0.0
  0
VERTEX
  5
4A4
  8
0
  6
CONTINUOUS
 62
     7
 10
349.5443741288
 20
190.982432293
 30
0.0
  0
VERTEX
  5
4A5
  8
0
  6
CONTINUOUS
 62
     7
 10
346.2435523477
 20
191.0399865379
 30
0.0
  0
VERTEX
  5
4A6
  8
0
  6
CONTINUOUS
 62
     7
 10
342.9453621116
 20
191.0984169712
 30
0.0
  0
VERTEX
  5
4A7
  8
0
  6
CONTINUOUS
 62
     7
 10
339.6501789298
 20
191.1550294628
 30
0.0
  0
VERTEX
  5
4A8
  8
0
  6
CONTINUOUS
 62
     7
 10
336.3580385652
 20
191.2107598057
 30
0.0
  0
VERTEX
  5
4A9
  8
0
  6
CONTINUOUS
 62
     7
 10
333.0817634668
 20
191.2652980557
 30
0.0
  0
VERTEX
  5
4AA
  8
0
  6
CONTINUOUS
 62
     7
 10
329.790159544
 20
191.320110487
 30
0.0
  0
SEQEND
  5
556
  8
0
  6
CONTINUOUS
 62
     7
  0
POLYLINE
  5
15A
  8
0
  6
CONTINUOUS
 62
     7
 66
     1
 10
0.0
 20
0.0
 30
0.0
  0
VERTEX
  5
4AB
  8
0
  6
CONTINUOUS
 62
     7
 10
366.7467633691
 20
189.5053815117
 30
0.0
  0
VERTEX
  5
4AC
  8
0
  6
CONTINUOUS
 62
     7
 10
369.154034039
 20
189.4474755993
 30
0.0
  0
VERTEX
  5
4AD
  8
0
  6
CONTINUOUS
 62
     7
 10
372.9506055322
 20
189.4056510201
 30
0.0
  0
SEQEND
  5
555
  8
0
  6
CONTINUOUS
 62
     7
  0
POLYLINE
  5
15B
  8
0
  6
CONTINUOUS
 62
     7
 66
     1
 10
0.0
 20
0.0
 30
0.0
  0
VERTEX
  5
4AE
  8
0
  6
CONTINUOUS
 62
     7
 10
344.8413322177
 20
190.012915062
 30
0.0
  0
VERTEX
  5
4AF
  8
0
  6
CONTINUOUS
 62
     7
 10
347.2497174945
 20
190.0706838837
 30
0.0
  0
VERTEX
  5
4B0
  8
0
  6
CONTINUOUS
 62
     7
 10
350.1074234452
 20
189.9420868626
 30
0.0
  0
VERTEX
  5
4B1
  8
0
  6
CONTINUOUS
 62
     7
 10
352.9528895822
 20
189.7551607361
 30
0.0
  0
SEQEND
  5
554
  8
0
  6
CONTINUOUS
 62
     7
  0
LINE
  5
15C
  8
0
  6
CONTINUOUS
 62
     7
 10
342.9884771314
 20
189.9285625687
 30
0.0
 11
344.8413322177
 21
190.012915062
 31
0.0
  0
POLYLINE
  5
15D
  8
0
  6
CONTINUOUS
 62
     7
 66
     1
 10
0.0
 20
0.0
 30
0.0
  0
VERTEX
  5
4B2
  8
0
  6
CONTINUOUS
 62
     7
 10
332.961536428
 20
190.1036214104
 30
0.0
  0
VERTEX
  5
4B3
  8
0
  6
CONTINUOUS
 62
     7
 10
334.1412971225
 20
190.1867818108
 30
0.0
  0
VERTEX
  5
4B4
  8
0
  6
CONTINUOUS
 62
     7
 10
335.3357965555
 20
190.1802193394
 30
0.0
  0
VERTEX
  5
4B5
  8
0
  6
CONTINUOUS
 62
     7
 10
336.6564402785
 20
190.1072692146
 30
0.0
  0
VERTEX
  5
4B6
  8
0
  6
CONTINUOUS
 62
     7
 10
337.9812652674
 20
190.0160741081
 30
0.0
  0
SEQEND
  5
553
  8
0
  6
CONTINUOUS
 62
     7
  0
LINE
  5
15E
  8
0
  6
CONTINUOUS
 62
     7
 10
308.8467648681
 20
162.8565739861
 30
0.0
 11
308.2467647698
 21
162.8565739861
 31
0.0
  0
LINE
  5
15F
  8
0
  6
CONTINUOUS
 62
     7
 10
308.8467648681
 20
163.6565756073
 30
0.0
 11
308.8467648681
 21
162.8565739861
 31
0.0
  0
LINE
  5
160
  8
0
  6
CONTINUOUS
 62
     7
 10
308.2467647698
 20
162.8565739861
 30
0.0
 11
308.2467647698
 21
163.6565756073
 31
0.0
  0
LINE
  5
161
  8
0
  6
CONTINUOUS
 62
     7
 10
318.8467650172
 20
172.2565781346
 30
0.0
 11
318.8467650172
 21
171.6565739384
 31
0.0
  0
ARC
  5
162
  8
0
  6
CONTINUOUS
 62
     7
 10
318.4467649427
 20
172.2565755596
 30
0.0
 40
0.4000000000000341
 50
0.0
 51
90.0
  0
LINE
  5
163
  8
0
  6
CONTINUOUS
 62
     7
 10
319.4467651155
 20
162.8565739861
 30
0.0
 11
318.8467650172
 21
162.8565739861
 31
0.0
  0
LINE
  5
164
  8
0
  6
CONTINUOUS
 62
     7
 10
318.8467650172
 20
162.8565739861
 30
0.0
 11
318.8467650172
 21
163.6565756073
 31
0.0
  0
LINE
  5
165
  8
0
  6
CONTINUOUS
 62
     7
 10
319.4467651155
 20
163.6565756073
 30
0.0
 11
319.4467651155
 21
162.8565739861
 31
0.0
  0
ARC
  5
166
  8
0
  6
CONTINUOUS
 62
     7
 10
378.3467649427
 20
186.7082056778
 30
0.0
 40
2.0
 50
280.7804509646
 51
0.0
  0
ARC
  5
167
  8
0
  6
CONTINUOUS
 62
     7
 10
303.9023963855
 20
577.6839542737
 30
0.0
 40
400.0000000000001
 50
274.5077079787
 51
278.256844918
  0
ARC
  5
168
  8
0
  6
CONTINUOUS
 62
     7
 10
303.9023963855
 20
577.6839542737
 30
0.0
 40
400.0
 50
279.0392433502
 51
280.7804509646
  0
ARC
  5
169
  8
0
  6
CONTINUOUS
 62
     7
 10
322.7647667649
 20
338.42632956
 30
0.0
 40
160.0000000000002
 50
273.0746772222
 51
274.5077079787
  0
ARC
  5
16A
  8
0
  6
CONTINUOUS
 62
     7
 10
332.0440522946
 20
165.6753675943
 30
0.0
 40
13.0
 50
93.0746772222
 51
121.4611845106
  0
ARC
  5
16B
  8
0
  6
CONTINUOUS
 62
     7
 10
327.3467649427
 20
173.3523130502
 30
0.0
 40
4.000000000000031
 50
121.4611845106
 51
180.0
  0
LINE
  5
16C
  8
0
  6
CONTINUOUS
 62
     7
 10
323.3467648234
 20
171.4565765133
 30
0.0
 11
323.3467648234
 21
173.3523141613
 31
0.0
  0
ARC
  5
16D
  8
0
  6
CONTINUOUS
 62
     7
 10
321.3467649427
 20
171.4565755596
 30
0.0
 40
2.0
 50
288.1948723388
 51
0.0
  0
LINE
  5
16E
  8
0
  6
CONTINUOUS
 62
     7
 10
307.2467649784
 20
169.4565784207
 30
0.0
 11
308.0467651095
 21
169.4565784207
 31
0.0
  0
LINE
  5
16F
  8
0
  6
CONTINUOUS
 62
     7
 10
319.1467648801
 20
187.7565752735
 30
0.0
 11
319.1467648801
 21
187.959362196
 31
0.0
  0
LINE
  5
170
  8
0
  6
CONTINUOUS
 62
     7
 10
380.3467670884
 20
187.959362196
 30
0.0
 11
380.3467670884
 21
186.708207058
 31
0.0
  0
LINE
  5
171
  8
0
  6
CONTINUOUS
 62
     7
 10
305.2467646506
 20
174.5034050217
 30
0.0
 11
305.2467646506
 21
171.4565765133
 31
0.0
  0
ARC
  5
172
  8
0
  6
CONTINUOUS
 62
     7
 10
313.2467649427
 20
174.5034032273
 30
0.0
 40
8.0
 50
148.4862321611
 51
180.0
  0
ARC
  5
173
  8
0
  6
CONTINUOUS
 62
     7
 10
323.4769399795
 20
168.2309620187
 30
0.0
 40
19.99999999999992
 50
102.5040575207
 51
109.6643105065
  0
ARC
  5
174
  8
0
  6
CONTINUOUS
 62
     7
 10
323.4769399795
 20
168.2309620187
 30
0.0
 40
19.99999999999991
 50
127.337488847
 51
148.4862321611
  0
ARC
  5
175
  8
0
  6
CONTINUOUS
 62
     7
 10
307.2467649427
 20
171.4565755596
 30
0.0
 40
2.0
 50
180.0
 51
270.0
  0
LINE
  5
176
  8
0
  6
CONTINUOUS
 62
     7
 10
319.1467648801
 20
188.9514338246
 30
0.0
 11
319.2035841253
 21
188.9514338246
 31
0.0
  0
LINE
  5
177
  8
0
  6
CONTINUOUS
 62
     7
 10
319.2035841253
 20
188.9514338246
 30
0.0
 11
319.2122353669
 21
188.9533232918
 31
0.0
  0
LINE
  5
178
  8
0
  6
CONTINUOUS
 62
     7
 10
380.3467670884
 20
188.9593612423
 30
0.0
 11
380.3467670884
 21
187.959362196
 31
0.0
  0
LINE
  5
179
  8
0
  6
CONTINUOUS
 62
     7
 10
319.1467648801
 20
187.959362196
 30
0.0
 11
319.1467648801
 21
188.9514338246
 31
0.0
  0
LINE
  5
17A
  8
0
  6
CONTINUOUS
 62
     7
 10
308.8467648681
 20
163.6565756073
 30
0.0
 11
308.8467648681
 21
171.6565739384
 31
0.0
  0
ARC
  5
17B
  8
0
  6
CONTINUOUS
 62
     7
 10
309.8467649427
 20
171.6565755596
 30
0.0
 40
1.0
 50
90.0
 51
180.0
  0
ARC
  5
17C
  8
0
  6
CONTINUOUS
 62
     7
 10
309.8467649427
 20
163.6565755596
 30
0.0
 40
1.0
 50
180.0
 51
270.0
  0
LINE
  5
17D
  8
0
  6
CONTINUOUS
 62
     7
 10
309.8467650321
 20
172.6565729847
 30
0.0
 11
317.8467648532
 21
172.6565729847
 31
0.0
  0
LINE
  5
17E
  8
0
  6
CONTINUOUS
 62
     7
 10
317.8467648532
 20
162.656576561
 30
0.0
 11
309.8467650321
 21
162.656576561
 31
0.0
  0
ARC
  5
17F
  8
0
  6
CONTINUOUS
 62
     7
 10
317.8467649427
 20
171.6565755596
 30
0.0
 40
1.0
 50
0.0
 51
90.0
  0
ARC
  5
180
  8
0
  6
CONTINUOUS
 62
     7
 10
317.8467649427
 20
163.6565755596
 30
0.0
 40
1.0
 50
270.0
 51
0.0
  0
LINE
  5
181
  8
0
  6
CONTINUOUS
 62
     7
 10
318.8467650172
 20
171.6565739384
 30
0.0
 11
318.8467650172
 21
163.6565756073
 31
0.0
  0
LINE
  5
182
  8
0
  6
CONTINUOUS
 62
     7
 10
301.8467652109
 20
97.4565755596
 30
0.0
 11
301.8467652109
 21
98.6565755701
 31
0.0
  0
LINE
  5
183
  8
0
  6
CONTINUOUS
 62
     7
 10
305.8467651215
 20
97.4565755596
 30
0.0
 11
301.8467652109
 21
97.4565755596
 31
0.0
  0
LINE
  5
184
  8
0
  6
CONTINUOUS
 62
     7
 10
301.8467652109
 20
98.6565755701
 30
0.0
 11
305.8467651215
 21
98.6565755701
 31
0.0
  0
LINE
  5
185
  8
0
  6
CONTINUOUS
 62
     7
 10
305.8467651215
 20
97.4565755596
 30
0.0
 11
307.8467650768
 21
97.4565755596
 31
0.0
  0
LINE
  5
186
  8
0
  6
CONTINUOUS
 62
     7
 10
305.8467651215
 20
98.6565755701
 30
0.0
 11
307.8467650768
 21
98.6565755701
 31
0.0
  0
LINE
  5
187
  8
0
  6
CONTINUOUS
 62
     7
 10
307.8467650768
 20
97.4565755596
 30
0.0
 11
335.2151865568
 21
97.4565755596
 31
0.0
  0
LINE
  5
188
  8
0
  6
CONTINUOUS
 62
     7
 10
335.2151865568
 20
98.6565755701
 30
0.0
 11
307.8467650768
 21
98.6565755701
 31
0.0
  0
LINE
  5
189
  8
0
  6
CONTINUOUS
 62
     7
 10
337.8467644062
 20
98.6565755701
 30
0.0
 11
337.8467644062
 21
97.4565755596
 31
0.0
  0
LINE
  5
18A
  8
0
  6
CONTINUOUS
 62
     7
 10
337.8467644062
 20
97.4565755596
 30
0.0
 11
335.2151865568
 21
97.4565755596
 31
0.0
  0
LINE
  5
18B
  8
0
  6
CONTINUOUS
 62
     7
 10
335.2151865568
 20
98.6565755701
 30
0.0
 11
337.8467644062
 21
98.6565755701
 31
0.0
  0
LINE
  5
18C
  8
0
  6
CONTINUOUS
 62
     7
 10
308.8467648681
 20
98.6565755701
 30
0.0
 11
308.8467648681
 21
162.8565739861
 31
0.0
  0
LINE
  5
18D
  8
0
  6
CONTINUOUS
 62
     7
 10
318.8467650172
 20
162.8565739861
 30
0.0
 11
318.8467650172
 21
98.6565755701
 31
0.0
  0
LINE
  5
18E
  8
0
  6
CONTINUOUS
 62
     7
 10
163.240832161
 20
8.8035652907
 30
0.0
 11
163.240832161
 21
-6.196434211
 31
0.0
  0
LINE
  5
18F
  8
0
  6
CONTINUOUS
 62
     7
 10
168.6408282032
 20
-6.196434211
 30
0.0
 11
168.6408282032
 21
8.8035652907
 31
0.0
  0
LINE
  5
190
  8
0
  6
CONTINUOUS
 62
     7
 10
168.6408282032
 20
-26.1964345091
 30
0.0
 11
168.6408282032
 21
-6.196434211
 31
0.0
  0
LINE
  5
191
  8
0
  6
CONTINUOUS
 62
     7
 10
163.240832161
 20
-6.196434211
 30
0.0
 11
163.240832161
 21
-26.1964345091
 31
0.0
  0
LINE
  5
192
  8
0
  6
CONTINUOUS
 62
     7
 10
163.240832161
 20
-26.1964345091
 30
0.0
 11
163.240832161
 21
-41.1964321249
 31
0.0
  0
LINE
  5
193
  8
0
  6
CONTINUOUS
 62
     7
 10
168.6408282032
 20
-41.1964321249
 30
0.0
 11
168.6408282032
 21
-26.1964345091
 31
0.0
  0
LINE
  5
194
  8
0
  6
CONTINUOUS
 62
     7
 10
43.240833353
 20
8.8035652907
 30
0.0
 11
43.240833353
 21
-6.196434211
 31
0.0
  0
LINE
  5
195
  8
0
  6
CONTINUOUS
 62
     7
 10
48.6408293953
 20
-6.196434211
 30
0.0
 11
48.6408293953
 21
8.8035652907
 31
0.0
  0
LINE
  5
196
  8
0
  6
CONTINUOUS
 62
     7
 10
48.6408293953
 20
-26.1964345091
 30
0.0
 11
48.6408293953
 21
-6.196434211
 31
0.0
  0
LINE
  5
197
  8
0
  6
CONTINUOUS
 62
     7
 10
43.240833353
 20
-6.196434211
 30
0.0
 11
43.240833353
 21
-26.1964345091
 31
0.0
  0
LINE
  5
198
  8
0
  6
CONTINUOUS
 62
     7
 10
43.240833353
 20
-26.1964345091
 30
0.0
 11
43.240833353
 21
-41.1964321249
 31
0.0
  0
LINE
  5
199
  8
0
  6
CONTINUOUS
 62
     7
 10
48.6408293953
 20
-41.1964321249
 30
0.0
 11
48.6408293953
 21
-26.1964345091
 31
0.0
  0
LINE
  5
19A
  8
0
  6
CONTINUOUS
 62
     7
 10
70.5492795219
 20
16.0984410233
 30
0.0
 11
71.1559355965
 21
15.044859264
 31
0.0
  0
LINE
  5
19B
  8
0
  6
CONTINUOUS
 62
     7
 10
140.7257855644
 20
15.0449065752
 30
0.0
 11
141.3324356785
 21
16.0984782762
 31
0.0
  0
ARC
  5
19C
  8
0
  6
CONTINUOUS
 62
     7
 10
136.3675273316
 20
-60.5236354934
 30
0.0
 40
8.12996024503522
 50
287.2568980878
 51
289.6914725677
  0
ARC
  5
19D
  8
0
  6
CONTINUOUS
 62
     7
 10
75.6234222899
 20
-60.1587095565
 30
0.0
 40
8.510739561582822
 50
250.4724682313
 51
252.7375622255
  0
ARC
  5
19E
  8
0
  6
CONTINUOUS
 62
     7
 10
165.9408307781
 20
8.8035653002
 30
0.0
 40
2.700000000000017
 50
0.0
 51
180.0
  0
ARC
  5
19F
  8
0
  6
CONTINUOUS
 62
     7
 10
165.9408307781
 20
-41.1964346998
 30
0.0
 40
2.700000000000017
 50
180.0
 51
0.0
  0
LINE
  5
1A0
  8
0
  6
CONTINUOUS
 62
     7
 10
159.9408329239
 20
14.8035651333
 30
0.0
 11
171.9408334007
 21
14.8035651333
 31
0.0
  0
LINE
  5
1A1
  8
0
  6
CONTINUOUS
 62
     7
 10
171.9408334007
 20
14.8035651333
 30
0.0
 11
171.9408334007
 21
13.6035653092
 31
0.0
  0
LINE
  5
1A2
  8
0
  6
CONTINUOUS
 62
     7
 10
159.9408329239
 20
13.6035653092
 30
0.0
 11
159.9408329239
 21
14.8035651333
 31
0.0
  0
LINE
  5
1A3
  8
0
  6
CONTINUOUS
 62
     7
 10
171.9408334007
 20
13.6035653092
 30
0.0
 11
171.9408334007
 21
4.0035652257
 31
0.0
  0
LINE
  5
1A4
  8
0
  6
CONTINUOUS
 62
     7
 10
159.9408329239
 20
13.6035653092
 30
0.0
 11
159.9408329239
 21
4.0035652257
 31
0.0
  0
LINE
  5
1A5
  8
0
  6
CONTINUOUS
 62
     7
 10
171.9408334007
 20
2.8035654015
 30
0.0
 11
168.6408282032
 21
2.8035654015
 31
0.0
  0
LINE
  5
1A6
  8
0
  6
CONTINUOUS
 62
     7
 10
163.240832161
 20
2.8035654015
 30
0.0
 11
159.9408329239
 21
2.8035654015
 31
0.0
  0
LINE
  5
1A7
  8
0
  6
CONTINUOUS
 62
     7
 10
171.9408334007
 20
4.0035652257
 30
0.0
 11
171.9408334007
 21
2.8035654015
 31
0.0
  0
LINE
  5
1A8
  8
0
  6
CONTINUOUS
 62
     7
 10
159.9408329239
 20
2.8035654015
 30
0.0
 11
159.9408329239
 21
4.0035652257
 31
0.0
  0
ARC
  5
1A9
  8
0
  6
CONTINUOUS
 62
     7
 10
45.9408307781
 20
8.8035653002
 30
0.0
 40
2.700000000000003
 50
0.0
 51
180.0
  0
ARC
  5
1AA
  8
0
  6
CONTINUOUS
 62
     7
 10
45.9408307781
 20
-41.1964346998
 30
0.0
 40
2.700000000000003
 50
180.0
 51
0.0
  0
LINE
  5
1AB
  8
0
  6
CONTINUOUS
 62
     7
 10
39.9408281555
 20
14.8035651333
 30
0.0
 11
51.9408286324
 21
14.8035651333
 31
0.0
  0
LINE
  5
1AC
  8
0
  6
CONTINUOUS
 62
     7
 10
51.9408286324
 20
14.8035651333
 30
0.0
 11
51.9408286324
 21
13.6035653092
 31
0.0
  0
LINE
  5
1AD
  8
0
  6
CONTINUOUS
 62
     7
 10
39.9408281555
 20
13.6035653092
 30
0.0
 11
39.9408281555
 21
14.8035651333
 31
0.0
  0
LINE
  5
1AE
  8
0
  6
CONTINUOUS
 62
     7
 10
51.9408286324
 20
13.6035653092
 30
0.0
 11
51.9408286324
 21
4.0035652257
 31
0.0
  0
LINE
  5
1AF
  8
0
  6
CONTINUOUS
 62
     7
 10
39.9408281555
 20
13.6035653092
 30
0.0
 11
39.9408281555
 21
4.0035652257
 31
0.0
  0
LINE
  5
1B0
  8
0
  6
CONTINUOUS
 62
     7
 10
51.9408286324
 20
2.8035654015
 30
0.0
 11
48.6408293953
 21
2.8035654015
 31
0.0
  0
LINE
  5
1B1
  8
0
  6
CONTINUOUS
 62
     7
 10
43.240833353
 20
2.8035654015
 30
0.0
 11
39.9408281555
 21
2.8035654015
 31
0.0
  0
LINE
  5
1B2
  8
0
  6
CONTINUOUS
 62
     7
 10
51.9408286324
 20
4.0035652257
 30
0.0
 11
51.9408286324
 21
2.8035654015
 31
0.0
  0
LINE
  5
1B3
  8
0
  6
CONTINUOUS
 62
     7
 10
39.9408281555
 20
2.8035654015
 30
0.0
 11
39.9408281555
 21
4.0035652257
 31
0.0
  0
POLYLINE
  5
1B4
  8
0
  6
CONTINUOUS
 62
     7
 66
     1
 10
0.0
 20
0.0
 30
0.0
  0
VERTEX
  5
4B7
  8
0
  6
CONTINUOUS
 62
     7
 10
140.9661561956
 20
15.4830342419
 30
0.0
  0
VERTEX
  5
4B8
  8
0
  6
CONTINUOUS
 62
     7
 10
140.9935653915
 20
15.7875946052
 30
0.0
  0
VERTEX
  5
4B9
  8
0
  6
CONTINUOUS
 62
     7
 10
140.83172686
 20
16.2072105594
 30
0.0
  0
VERTEX
  5
4BA
  8
0
  6
CONTINUOUS
 62
     7
 10
140.4795885792
 20
16.7263394482
 30
0.0
  0
VERTEX
  5
4BB
  8
0
  6
CONTINUOUS
 62
     7
 10
139.9448782911
 20
17.3207162208
 30
0.0
  0
VERTEX
  5
4BC
  8
0
  6
CONTINUOUS
 62
     7
 10
139.234539937
 20
17.9663187153
 30
0.0
  0
VERTEX
  5
4BD
  8
0
  6
CONTINUOUS
 62
     7
 10
138.3673400393
 20
18.6360037215
 30
0.0
  0
VERTEX
  5
4BE
  8
0
  6
CONTINUOUS
 62
     7
 10
137.3664320221
 20
19.3017607815
 30
0.0
  0
VERTEX
  5
4BF
  8
0
  6
CONTINUOUS
 62
     7
 10
136.2573922386
 20
19.9430367238
 30
0.0
  0
VERTEX
  5
4C0
  8
0
  6
CONTINUOUS
 62
     7
 10
135.2290035
 20
20.4633472748
 30
0.0
  0
VERTEX
  5
4C1
  8
0
  6
CONTINUOUS
 62
     7
 10
134.1634959688
 20
20.9380647428
 30
0.0
  0
SEQEND
  5
552
  8
0
  6
CONTINUOUS
 62
     7
  0
ARC
  5
1B5
  8
0
  6
CONTINUOUS
 62
     7
 10
136.4691636533
 20
17.7122236238
 30
0.0
 40
5.019185912710376
 50
308.9518845672
 51
333.6320764555
  0
POLYLINE
  5
1B6
  8
0
  6
CONTINUOUS
 62
     7
 66
     1
 10
0.0
 20
0.0
 30
0.0
  0
VERTEX
  5
4C2
  8
0
  6
CONTINUOUS
 62
     7
 10
131.5007478704
 20
16.6288456209
 30
0.0
  0
VERTEX
  5
4C3
  8
0
  6
CONTINUOUS
 62
     7
 10
132.9020560493
 20
16.0840442665
 30
0.0
  0
VERTEX
  5
4C4
  8
0
  6
CONTINUOUS
 62
     7
 10
134.2514247408
 20
15.5533245094
 30
0.0
  0
VERTEX
  5
4C5
  8
0
  6
CONTINUOUS
 62
     7
 10
135.511154007
 20
15.0560127832
 30
0.0
  0
VERTEX
  5
4C6
  8
0
  6
CONTINUOUS
 62
     7
 10
136.6489351501
 20
14.6125244237
 30
0.0
  0
VERTEX
  5
4C7
  8
0
  6
CONTINUOUS
 62
     7
 10
137.6302034369
 20
14.2452763654
 30
0.0
  0
VERTEX
  5
4C8
  8
0
  6
CONTINUOUS
 62
     7
 10
138.4380490294
 20
13.9701077975
 30
0.0
  0
VERTEX
  5
4C9
  8
0
  6
CONTINUOUS
 62
     7
 10
139.0524239054
 20
13.8042664416
 30
0.0
  0
VERTEX
  5
4CA
  8
0
  6
CONTINUOUS
 62
     7
 10
139.4606859198
 20
13.7588301934
 30
0.0
  0
VERTEX
  5
4CB
  8
0
  6
CONTINUOUS
 62
     7
 10
139.6245629301
 20
13.8089319951
 30
0.0
  0
SEQEND
  5
551
  8
0
  6
CONTINUOUS
 62
     7
  0
ARC
  5
1B7
  8
0
  6
CONTINUOUS
 62
     7
 10
105.9408307781
 20
-49.6638266785
 30
0.0
 40
71.04947404698487
 50
68.915269925
 51
111.084730075
  0
POLYLINE
  5
1B8
  8
0
  6
CONTINUOUS
 62
     7
 66
     1
 10
0.0
 20
0.0
 30
0.0
  0
VERTEX
  5
4CC
  8
0
  6
CONTINUOUS
 62
     7
 10
72.2570986261
 20
13.8089319951
 30
0.0
  0
VERTEX
  5
4CD
  8
0
  6
CONTINUOUS
 62
     7
 10
72.5052089205
 20
13.7588518001
 30
0.0
  0
VERTEX
  5
4CE
  8
0
  6
CONTINUOUS
 62
     7
 10
72.9668856373
 20
13.8352571316
 30
0.0
  0
VERTEX
  5
4CF
  8
0
  6
CONTINUOUS
 62
     7
 10
73.635217618
 20
14.031762097
 30
0.0
  0
VERTEX
  5
4D0
  8
0
  6
CONTINUOUS
 62
     7
 10
74.4926304331
 20
14.3332110978
 30
0.0
  0
VERTEX
  5
4D1
  8
0
  6
CONTINUOUS
 62
     7
 10
75.5208463182
 20
14.723742593
 30
0.0
  0
VERTEX
  5
4D2
  8
0
  6
CONTINUOUS
 62
     7
 10
76.6926259508
 20
15.1830131448
 30
0.0
  0
VERTEX
  5
4D3
  8
0
  6
CONTINUOUS
 62
     7
 10
77.9758126249
 20
15.6895732767
 30
0.0
  0
VERTEX
  5
4D4
  8
0
  6
CONTINUOUS
 62
     7
 10
79.337790679
 20
16.2241561599
 30
0.0
  0
VERTEX
  5
4D5
  8
0
  6
CONTINUOUS
 62
     7
 10
80.3809136858
 20
16.6288456209
 30
0.0
  0
SEQEND
  5
550
  8
0
  6
CONTINUOUS
 62
     7
  0
ARC
  5
1B9
  8
0
  6
CONTINUOUS
 62
     7
 10
75.412058823
 20
17.7117389842
 30
0.0
 40
5.018532985870423
 50
206.364019141
 51
231.0485353891
  0
POLYLINE
  5
1BA
  8
0
  6
CONTINUOUS
 62
     7
 66
     1
 10
0.0
 20
0.0
 30
0.0
  0
VERTEX
  5
4D6
  8
0
  6
CONTINUOUS
 62
     7
 10
77.7182132711
 20
20.9380856044
 30
0.0
  0
VERTEX
  5
4D7
  8
0
  6
CONTINUOUS
 62
     7
 10
76.4908403864
 20
20.3855177648
 30
0.0
  0
VERTEX
  5
4D8
  8
0
  6
CONTINUOUS
 62
     7
 10
75.3173769226
 20
19.7745813317
 30
0.0
  0
VERTEX
  5
4D9
  8
0
  6
CONTINUOUS
 62
     7
 10
74.2316246738
 20
19.1224737353
 30
0.0
  0
VERTEX
  5
4DA
  8
0
  6
CONTINUOUS
 62
     7
 10
73.2622981777
 20
18.4518603868
 30
0.0
  0
VERTEX
  5
4DB
  8
0
  6
CONTINUOUS
 62
     7
 10
72.4406213274
 20
17.7898897118
 30
0.0
  0
VERTEX
  5
4DC
  8
0
  6
CONTINUOUS
 62
     7
 10
71.7788190355
 20
17.1586228795
 30
0.0
  0
VERTEX
  5
4DD
  8
0
  6
CONTINUOUS
 62
     7
 10
71.2925345411
 20
16.5830655284
 30
0.0
  0
VERTEX
  5
4DE
  8
0
  6
CONTINUOUS
 62
     7
 10
70.9897936096
 20
16.0886055119
 30
0.0
  0
VERTEX
  5
4DF
  8
0
  6
CONTINUOUS
 62
     7
 10
70.8807647934
 20
15.7414233572
 30
0.0
  0
VERTEX
  5
4E0
  8
0
  6
CONTINUOUS
 62
     7
 10
70.9154994001
 20
15.4831460006
 30
0.0
  0
SEQEND
  5
54F
  8
0
  6
CONTINUOUS
 62
     7
  0
ARC
  5
1BB
  8
0
  6
CONTINUOUS
 62
     7
 10
105.9408295508
 20
-46.8914539197
 30
0.0
 40
73.46674418894797
 50
67.4086667073
 51
112.5912909408
  0
POLYLINE
  5
1BC
  8
0
  6
CONTINUOUS
 62
     7
 66
     1
 10
0.0
 20
0.0
 30
0.0
  0
VERTEX
  5
4E1
  8
0
  6
CONTINUOUS
 62
     7
 10
70.3282535782
 20
16.4905129261
 30
0.0
  0
VERTEX
  5
4E2
  8
0
  6
CONTINUOUS
 62
     7
 10
70.2982187977
 20
16.7930936701
 30
0.0
  0
VERTEX
  5
4E3
  8
0
  6
CONTINUOUS
 62
     7
 10
70.4573363771
 20
17.2110488899
 30
0.0
  0
VERTEX
  5
4E4
  8
0
  6
CONTINUOUS
 62
     7
 10
70.8067209234
 20
17.7289186306
 30
0.0
  0
VERTEX
  5
4E5
  8
0
  6
CONTINUOUS
 62
     7
 10
71.3386893978
 20
18.3225242681
 30
0.0
  0
VERTEX
  5
4E6
  8
0
  6
CONTINUOUS
 62
     7
 10
72.0463783255
 20
18.9679732807
 30
0.0
  0
VERTEX
  5
4E7
  8
0
  6
CONTINUOUS
 62
     7
 10
72.9110509863
 20
19.6381656713
 30
0.0
  0
VERTEX
  5
4E8
  8
0
  6
CONTINUOUS
 62
     7
 10
73.9098162165
 20
20.3052735217
 30
0.0
  0
VERTEX
  5
4E9
  8
0
  6
CONTINUOUS
 62
     7
 10
75.0170022955
 20
20.9486065693
 30
0.0
  0
VERTEX
  5
4EA
  8
0
  6
CONTINUOUS
 62
     7
 10
76.0439962854
 20
21.4712171144
 30
0.0
  0
VERTEX
  5
4EB
  8
0
  6
CONTINUOUS
 62
     7
 10
77.10839219
 20
21.9486734159
 30
0.0
  0
SEQEND
  5
54E
  8
0
  6
CONTINUOUS
 62
     7
  0
POLYLINE
  5
1BD
  8
0
  6
CONTINUOUS
 62
     7
 66
     1
 10
0.0
 20
0.0
 30
0.0
  0
VERTEX
  5
4EC
  8
0
  6
CONTINUOUS
 62
     7
 10
134.77331705
 20
21.9486540444
 30
0.0
  0
VERTEX
  5
4ED
  8
0
  6
CONTINUOUS
 62
     7
 10
135.9992206802
 20
21.3930404074
 30
0.0
  0
VERTEX
  5
4EE
  8
0
  6
CONTINUOUS
 62
     7
 10
137.1708542814
 20
20.7796676345
 30
0.0
  0
VERTEX
  5
4EF
  8
0
  6
CONTINUOUS
 62
     7
 10
138.2544637432
 20
20.1258292682
 30
0.0
  0
VERTEX
  5
4F0
  8
0
  6
CONTINUOUS
 62
     7
 10
139.2214298954
 20
19.4541869945
 30
0.0
  0
VERTEX
  5
4F1
  8
0
  6
CONTINUOUS
 62
     7
 10
140.0407791843
 20
18.7917275615
 30
0.0
  0
VERTEX
  5
4F2
  8
0
  6
CONTINUOUS
 62
     7
 10
140.7000929823
 20
18.1605985649
 30
0.0
  0
VERTEX
  5
4F3
  8
0
  6
CONTINUOUS
 62
     7
 10
141.1837459316
 20
17.5857676453
 30
0.0
  0
VERTEX
  5
4F4
  8
0
  6
CONTINUOUS
 62
     7
 10
141.4837837925
 20
17.0925466604
 30
0.0
  0
VERTEX
  5
4F5
  8
0
  6
CONTINUOUS
 62
     7
 10
141.5904254427
 20
16.7468985803
 30
0.0
  0
VERTEX
  5
4F6
  8
0
  6
CONTINUOUS
 62
     7
 10
141.5534020176
 20
16.4904011674
 30
0.0
  0
SEQEND
  5
54D
  8
0
  6
CONTINUOUS
 62
     7
  0
ARC
  5
1BE
  8
0
  6
CONTINUOUS
 62
     7
 10
105.940831513
 20
-46.8359994962
 30
0.0
 40
74.58311326932272
 50
67.2580150351
 51
112.7419464699
  0
ARC
  5
1BF
  8
0
  6
CONTINUOUS
 62
     7
 10
121.5121310646
 20
26.103442653
 30
0.0
 40
1.001325577889756
 50
30.2903213797
 51
90.0801256805
  0
LINE
  5
1C0
  8
0
  6
CONTINUOUS
 62
     7
 10
90.3709308019
 20
27.1047672517
 30
0.0
 11
96.3612378349
 21
27.1047672517
 31
0.0
  0
LINE
  5
1C1
  8
0
  6
CONTINUOUS
 62
     7
 10
115.5204237213
 20
27.1047672517
 30
0.0
 11
121.5107307544
 21
27.1047672517
 31
0.0
  0
ARC
  5
1C2
  8
0
  6
CONTINUOUS
 62
     7
 10
90.3695304916
 20
26.103442653
 30
0.0
 40
1.001325577889768
 50
89.9198743195
 51
149.7096786203
  0
LINE
  5
1C3
  8
0
  6
CONTINUOUS
 62
     7
 10
89.0219733825
 20
25.7782673724
 30
0.0
 11
89.5049051156
 21
26.6084930189
 31
0.0
  0
LINE
  5
1C4
  8
0
  6
CONTINUOUS
 62
     7
 10
88.2202119341
 20
25.5909806378
 30
0.0
 11
89.1584948411
 21
27.2040209062
 31
0.0
  0
ARC
  5
1C5
  8
0
  6
CONTINUOUS
 62
     7
 10
90.0231202171
 20
26.6989705403
 30
0.0
 40
1.001325577889754
 50
89.9198743195
 51
149.7096786203
  0
LINE
  5
1C6
  8
0
  6
CONTINUOUS
 62
     7
 10
90.0245205274
 20
27.7002951391
 30
0.0
 11
103.1430755516
 21
27.7002951391
 31
0.0
  0
ARC
  5
1C7
  8
0
  6
CONTINUOUS
 62
     7
 10
103.9285849712
 20
28.2991551438
 30
0.0
 40
0.987754196910883
 50
180.0217080282
 51
217.3213262934
  0
LINE
  5
1C8
  8
0
  6
CONTINUOUS
 62
     7
 10
102.9408308452
 20
28.2987809069
 30
0.0
 11
102.9408308452
 21
32.2689658291
 31
0.0
  0
ARC
  5
1C9
  8
0
  6
CONTINUOUS
 62
     7
 10
103.9371190798
 20
32.2652244593
 30
0.0
 40
0.9962952596054442
 50
89.7865414901
 51
179.7848376744
  0
LINE
  5
1CA
  8
0
  6
CONTINUOUS
 62
     7
 10
107.9408307334
 20
33.2615128047
 30
0.0
 11
103.9408308228
 21
33.2615128047
 31
0.0
  0
ARC
  5
1CB
  8
0
  6
CONTINUOUS
 62
     7
 10
107.9445424764
 20
32.2652244593
 30
0.0
 40
0.9962952596054442
 50
0.2151623256
 51
90.2134585099
  0
LINE
  5
1CC
  8
0
  6
CONTINUOUS
 62
     7
 10
108.9408307111
 20
28.2987809069
 30
0.0
 11
108.9408307111
 21
32.2689658291
 31
0.0
  0
ARC
  5
1CD
  8
0
  6
CONTINUOUS
 62
     7
 10
107.9530765851
 20
28.2991551438
 30
0.0
 40
0.9877541969108716
 50
322.6786737066
 51
359.9782919718
  0
LINE
  5
1CE
  8
0
  6
CONTINUOUS
 62
     7
 10
108.7385860046
 20
27.7002951391
 30
0.0
 11
121.8571410289
 21
27.7002951391
 31
0.0
  0
ARC
  5
1CF
  8
0
  6
CONTINUOUS
 62
     7
 10
121.8585413391
 20
26.6989705403
 30
0.0
 40
1.001325577889754
 50
30.2903213797
 51
90.0801256805
  0
LINE
  5
1D0
  8
0
  6
CONTINUOUS
 62
     7
 10
122.7231667151
 20
27.2040209062
 30
0.0
 11
123.6614496222
 21
25.5909806378
 31
0.0
  0
LINE
  5
1D1
  8
0
  6
CONTINUOUS
 62
     7
 10
122.3767564406
 20
26.6084930189
 30
0.0
 11
122.8596881738
 21
25.7782673724
 31
0.0
  0
ARC
  5
1D2
  8
0
  6
CONTINUOUS
 62
     7
 10
121.5121341662
 20
25.3722301779
 30
0.0
 40
1.001321686253474
 50
30.2902920238
 51
90.0803034654
  0
ARC
  5
1D3
  8
0
  6
CONTINUOUS
 62
     7
 10
90.36952739
 20
25.3722301779
 30
0.0
 40
1.001321686253485
 50
89.9196965346
 51
149.7097079762
  0
LINE
  5
1D4
  8
0
  6
CONTINUOUS
 62
     7
 10
90.3709308019
 20
26.3735508807
 30
0.0
 11
91.7894721737
 21
26.3735508807
 31
0.0
  0
LINE
  5
1D5
  8
0
  6
CONTINUOUS
 62
     7
 10
120.0921893826
 20
26.3735508807
 30
0.0
 11
121.5107307544
 21
26.3735508807
 31
0.0
  0
LINE
  5
1D6
  8
0
  6
CONTINUOUS
 62
     7
 10
102.9408308452
 20
27.7002951391
 30
0.0
 11
102.9408308452
 21
28.2987809069
 31
0.0
  0
LINE
  5
1D7
  8
0
  6
CONTINUOUS
 62
     7
 10
108.9408307111
 20
28.2987809069
 30
0.0
 11
108.9408307111
 21
27.7002951391
 31
0.0
  0
LINE
  5
1D8
  8
0
  6
CONTINUOUS
 62
     7
 10
102.9408308452
 20
16.0905337222
 30
0.0
 11
102.9408308452
 21
21.2945020087
 31
0.0
  0
LINE
  5
1D9
  8
0
  6
CONTINUOUS
 62
     7
 10
108.9408307111
 20
21.2945020087
 30
0.0
 11
108.9408307111
 21
16.0905337222
 31
0.0
  0
ARC
  5
1DA
  8
0
  6
CONTINUOUS
 62
     7
 10
107.9408307781
 20
15.6035653002
 30
0.0
 40
1.0
 50
270.0
 51
0.0
  0
LINE
  5
1DB
  8
0
  6
CONTINUOUS
 62
     7
 10
108.9408307111
 20
16.0905337222
 30
0.0
 11
108.9408307111
 21
15.6035652645
 31
0.0
  0
LINE
  5
1DC
  8
0
  6
CONTINUOUS
 62
     7
 10
107.9408307334
 20
14.6035654731
 30
0.0
 11
103.9408308228
 21
14.6035654731
 31
0.0
  0
ARC
  5
1DD
  8
0
  6
CONTINUOUS
 62
     7
 10
103.9408307781
 20
15.6035653002
 30
0.0
 40
1.0
 50
180.0
 51
270.0
  0
LINE
  5
1DE
  8
0
  6
CONTINUOUS
 62
     7
 10
102.9408308452
 20
15.6035652645
 30
0.0
 11
102.9408308452
 21
16.0905337222
 31
0.0
  0
LINE
  5
1DF
  8
0
  6
CONTINUOUS
 62
     7
 10
108.9408307111
 20
14.6035654731
 30
0.0
 11
123.9408314934
 21
14.6035654731
 31
0.0
  0
LINE
  5
1E0
  8
0
  6
CONTINUOUS
 62
     7
 10
123.9408314934
 20
14.6035654731
 30
0.0
 11
123.9408314934
 21
13.6035653092
 31
0.0
  0
LINE
  5
1E1
  8
0
  6
CONTINUOUS
 62
     7
 10
123.9408314934
 20
4.4035652913
 30
0.0
 11
123.9408314934
 21
13.6035653092
 31
0.0
  0
LINE
  5
1E2
  8
0
  6
CONTINUOUS
 62
     7
 10
87.9408300629
 20
4.4035652913
 30
0.0
 11
87.9408300629
 21
13.6035653092
 31
0.0
  0
LINE
  5
1E3
  8
0
  6
CONTINUOUS
 62
     7
 10
102.9408308452
 20
13.6035653092
 30
0.0
 11
102.9408308452
 21
15.6035652645
 31
0.0
  0
LINE
  5
1E4
  8
0
  6
CONTINUOUS
 62
     7
 10
108.9408307111
 20
15.6035652645
 30
0.0
 11
108.9408307111
 21
13.6035653092
 31
0.0
  0
LINE
  5
1E5
  8
0
  6
CONTINUOUS
 62
     7
 10
87.9408300629
 20
13.6035653092
 30
0.0
 11
87.9408300629
 21
14.6035654731
 31
0.0
  0
LINE
  5
1E6
  8
0
  6
CONTINUOUS
 62
     7
 10
87.9408300629
 20
14.6035654731
 30
0.0
 11
102.9408308452
 21
14.6035654731
 31
0.0
  0
LINE
  5
1E7
  8
0
  6
CONTINUOUS
 62
     7
 10
123.9408314934
 20
3.4035651274
 30
0.0
 11
119.9146614184
 21
3.4035651274
 31
0.0
  0
LINE
  5
1E8
  8
0
  6
CONTINUOUS
 62
     7
 10
91.9679061284
 20
3.4035651274
 30
0.0
 11
87.9408300629
 21
3.4035651274
 31
0.0
  0
LINE
  5
1E9
  8
0
  6
CONTINUOUS
 62
     7
 10
123.9408314934
 20
4.4035652913
 30
0.0
 11
123.9408314934
 21
3.4035651274
 31
0.0
  0
LINE
  5
1EA
  8
0
  6
CONTINUOUS
 62
     7
 10
87.9408300629
 20
3.4035651274
 30
0.0
 11
87.9408300629
 21
4.4035652913
 31
0.0
  0
ARC
  5
1EB
  8
0
  6
CONTINUOUS
 62
     7
 10
77.8186112022
 20
-8.895912631
 30
0.0
 40
7.349242666434307
 50
115.9018910856
 51
164.5639882162
  0
ARC
  5
1EC
  8
0
  6
CONTINUOUS
 62
     7
 10
105.9408307781
 20
-68.5852028274
 30
0.0
 40
73.33113480251568
 50
64.7052171818
 51
115.2947828182
  0
ARC
  5
1ED
  8
0
  6
CONTINUOUS
 62
     7
 10
134.0790961876
 20
-8.8825593675
 30
0.0
 40
7.330226547465844
 50
15.3687847357
 51
64.1653359624
  0
POLYLINE
  5
1EE
  8
0
  6
CONTINUOUS
 62
     7
 66
     1
 10
0.0
 20
0.0
 30
0.0
  0
VERTEX
  5
4F7
  8
0
  6
CONTINUOUS
 62
     7
 10
141.1471755018
 20
-6.9398293011
 30
0.0
  0
VERTEX
  5
4F8
  8
0
  6
CONTINUOUS
 62
     7
 10
142.0642406454
 20
-10.231433224
 30
0.0
  0
VERTEX
  5
4F9
  8
0
  6
CONTINUOUS
 62
     7
 10
142.6654160728
 20
-13.5077083223
 30
0.0
  0
VERTEX
  5
4FA
  8
0
  6
CONTINUOUS
 62
     7
 10
143.0229366531
 20
-16.7998486869
 30
0.0
  0
VERTEX
  5
4FB
  8
0
  6
CONTINUOUS
 62
     7
 10
143.2376951685
 20
-20.0950318687
 30
0.0
  0
VERTEX
  5
4FC
  8
0
  6
CONTINUOUS
 62
     7
 10
143.3194429388
 20
-23.3932221048
 30
0.0
  0
VERTEX
  5
4FD
  8
0
  6
CONTINUOUS
 62
     7
 10
143.3162779322
 20
-26.694043886
 30
0.0
  0
VERTEX
  5
4FE
  8
0
  6
CONTINUOUS
 62
     7
 10
143.2891757002
 20
-29.9943113439
 30
0.0
  0
VERTEX
  5
4FF
  8
0
  6
CONTINUOUS
 62
     7
 10
143.287018012
 20
-33.2918280475
 30
0.0
  0
VERTEX
  5
500
  8
0
  6
CONTINUOUS
 62
     7
 10
143.3339536896
 20
-39.611976754
 30
0.0
  0
VERTEX
  5
501
  8
0
  6
CONTINUOUS
 62
     7
 10
143.3680445662
 20
-45.9327066057
 30
0.0
  0
VERTEX
  5
502
  8
0
  6
CONTINUOUS
 62
     7
 10
143.3770478477
 20
-52.1859371774
 30
0.0
  0
VERTEX
  5
503
  8
0
  6
CONTINUOUS
 62
     7
 10
143.3788657894
 20
-54.03065921
 30
0.0
  0
VERTEX
  5
504
  8
0
  6
CONTINUOUS
 62
     7
 10
143.3833540192
 20
-55.8981859796
 30
0.0
  0
VERTEX
  5
505
  8
0
  6
CONTINUOUS
 62
     7
 10
143.3925510159
 20
-57.7935481184
 30
0.0
  0
VERTEX
  5
506
  8
0
  6
CONTINUOUS
 62
     7
 10
143.4085369816
 20
-59.7211146467
 30
0.0
  0
VERTEX
  5
507
  8
0
  6
CONTINUOUS
 62
     7
 10
143.4326351395
 20
-61.6896891706
 30
0.0
  0
SEQEND
  5
54C
  8
0
  6
CONTINUOUS
 62
     7
  0
ARC
  5
1EF
  8
0
  6
CONTINUOUS
 62
     7
 10
136.7124877072
 20
-61.8830399628
 30
0.0
 40
6.722928382776474
 50
275.3899218463
 51
1.6480485111
  0
ARC
  5
1F0
  8
0
  6
CONTINUOUS
 62
     7
 10
105.9408307781
 20
271.3547001539
 30
0.0
 40
341.3783893576872
 50
264.7219388975
 51
275.2780611025
  0
ARC
  5
1F1
  8
0
  6
CONTINUOUS
 62
     7
 10
75.1591798061
 20
-61.8918760431
 30
0.0
 40
6.71319879340373
 50
178.2741153836
 51
264.6879142591
  0
POLYLINE
  5
1F2
  8
0
  6
CONTINUOUS
 62
     7
 66
     1
 10
0.0
 20
0.0
 30
0.0
  0
VERTEX
  5
508
  8
0
  6
CONTINUOUS
 62
     7
 10
68.4490264168
 20
-61.6896891706
 30
0.0
  0
VERTEX
  5
509
  8
0
  6
CONTINUOUS
 62
     7
 10
68.4773445835
 20
-59.2926645391
 30
0.0
  0
VERTEX
  5
50A
  8
0
  6
CONTINUOUS
 62
     7
 10
68.4938848724
 20
-56.9529736154
 30
0.0
  0
VERTEX
  5
50B
  8
0
  6
CONTINUOUS
 62
     7
 10
68.50168116
 20
-54.6585703008
 30
0.0
  0
VERTEX
  5
50C
  8
0
  6
CONTINUOUS
 62
     7
 10
68.5044736376
 20
-52.400698673
 30
0.0
  0
VERTEX
  5
50D
  8
0
  6
CONTINUOUS
 62
     7
 10
68.5058743467
 20
-50.1701676958
 30
0.0
  0
VERTEX
  5
50E
  8
0
  6
CONTINUOUS
 62
     7
 10
68.5087860336
 20
-47.9427301996
 30
0.0
  0
VERTEX
  5
50F
  8
0
  6
CONTINUOUS
 62
     7
 10
68.5143262854
 20
-45.7018280141
 30
0.0
  0
VERTEX
  5
510
  8
0
  6
CONTINUOUS
 62
     7
 10
68.5486526003
 20
-39.4957685583
 30
0.0
  0
VERTEX
  5
511
  8
0
  6
CONTINUOUS
 62
     7
 10
68.5946435442
 20
-33.2918280475
 30
0.0
  0
VERTEX
  5
512
  8
0
  6
CONTINUOUS
 62
     7
 10
68.5924858561
 20
-29.9943113439
 30
0.0
  0
VERTEX
  5
513
  8
0
  6
CONTINUOUS
 62
     7
 10
68.5653836241
 20
-26.694043886
 30
0.0
  0
VERTEX
  5
514
  8
0
  6
CONTINUOUS
 62
     7
 10
68.5622186174
 20
-23.3932221048
 30
0.0
  0
VERTEX
  5
515
  8
0
  6
CONTINUOUS
 62
     7
 10
68.6439663878
 20
-20.0950318687
 30
0.0
  0
VERTEX
  5
516
  8
0
  6
CONTINUOUS
 62
     7
 10
68.8587249031
 20
-16.7998486869
 30
0.0
  0
VERTEX
  5
517
  8
0
  6
CONTINUOUS
 62
     7
 10
69.2162454834
 20
-13.5077083223
 30
0.0
  0
VERTEX
  5
518
  8
0
  6
CONTINUOUS
 62
     7
 10
69.8174209108
 20
-10.231433224
 30
0.0
  0
VERTEX
  5
519
  8
0
  6
CONTINUOUS
 62
     7
 10
70.7344860544
 20
-6.9398293011
 30
0.0
  0
SEQEND
  5
54B
  8
0
  6
CONTINUOUS
 62
     7
  0
ARC
  5
1F3
  8
0
  6
CONTINUOUS
 62
     7
 10
105.9408307781
 20
-68.5729250735
 30
0.0
 40
73.33969272412405
 50
64.365028314
 51
115.634971686
  0
ARC
  5
1F4
  8
0
  6
CONTINUOUS
 62
     7
 10
134.4146180533
 20
-9.0585956166
 30
0.0
 40
7.365053893038749
 50
15.544569452
 51
63.7661944591
  0
ARC
  5
1F5
  8
0
  6
CONTINUOUS
 62
     7
 10
77.4491951044
 20
-9.0438010547
 30
0.0
 40
7.343899690940156
 50
116.159920293
 51
164.5293157959
  0
LINE
  5
1F6
  8
0
  6
CONTINUOUS
 62
     7
 10
68.3408320656
 20
-40.1024305933
 30
0.0
 11
68.3408320656
 21
-50.1002752893
 31
0.0
  0
POLYLINE
  5
1F7
  8
0
  6
CONTINUOUS
 62
     7
 66
     1
 10
0.0
 20
0.0
 30
0.0
  0
VERTEX
  5
51A
  8
0
  6
CONTINUOUS
 62
     7
 10
68.3408261051
 20
-40.1024305933
 30
0.0
  0
VERTEX
  5
51B
  8
0
  6
CONTINUOUS
 62
     7
 10
68.3555395117
 20
-33.2744056099
 30
0.0
  0
VERTEX
  5
51C
  8
0
  6
CONTINUOUS
 62
     7
 10
68.3408320656
 20
-30.1025414579
 30
0.0
  0
SEQEND
  5
54A
  8
0
  6
CONTINUOUS
 62
     7
  0
LINE
  5
1F8
  8
0
  6
CONTINUOUS
 62
     7
 10
68.3408320656
 20
-21.9910019748
 30
0.0
 11
68.3408320656
 21
-30.1025593393
 31
0.0
  0
LINE
  5
1F9
  8
0
  6
CONTINUOUS
 62
     7
 10
68.3696538916
 20
-20.1381468885
 30
0.0
 11
68.3408320656
 21
-21.9910019748
 31
0.0
  0
POLYLINE
  5
1FA
  8
0
  6
CONTINUOUS
 62
     7
 66
     1
 10
0.0
 20
0.0
 30
0.0
  0
VERTEX
  5
51D
  8
0
  6
CONTINUOUS
 62
     7
 10
68.3693052044
 20
-20.1381319873
 30
0.0
  0
VERTEX
  5
51E
  8
0
  6
CONTINUOUS
 62
     7
 10
68.5138136854
 20
-17.6343852394
 30
0.0
  0
VERTEX
  5
51F
  8
0
  6
CONTINUOUS
 62
     7
 10
68.7380761614
 20
-15.1309648268
 30
0.0
  0
SEQEND
  5
549
  8
0
  6
CONTINUOUS
 62
     7
  0
ARC
  5
1FB
  8
0
  6
CONTINUOUS
 62
     7
 10
128.1411517279
 20
-22.0465820623
 30
0.0
 40
59.80456129352176
 50
168.488009485
 51
173.3596063875
  0
POLYLINE
  5
1FC
  8
0
  6
CONTINUOUS
 62
     7
 66
     1
 10
0.0
 20
0.0
 30
0.0
  0
VERTEX
  5
520
  8
0
  6
CONTINUOUS
 62
     7
 10
69.5408315172
 20
-10.1055735462
 30
0.0
  0
VERTEX
  5
521
  8
0
  6
CONTINUOUS
 62
     7
 10
69.9382574072
 20
-8.595209729
 30
0.0
  0
VERTEX
  5
522
  8
0
  6
CONTINUOUS
 62
     7
 10
70.3713864794
 20
-7.0848503821
 30
0.0
  0
SEQEND
  5
548
  8
0
  6
CONTINUOUS
 62
     7
  0
POLYLINE
  5
1FD
  8
0
  6
CONTINUOUS
 62
     7
 66
     1
 10
0.0
 20
0.0
 30
0.0
  0
VERTEX
  5
523
  8
0
  6
CONTINUOUS
 62
     7
 10
68.34076054
 20
-61.7559576147
 30
0.0
  0
VERTEX
  5
524
  8
0
  6
CONTINUOUS
 62
     7
 10
68.34076054
 20
-61.7306316011
 30
0.0
  0
VERTEX
  5
525
  8
0
  6
CONTINUOUS
 62
     7
 10
68.3409304132
 20
-59.3176210039
 30
0.0
  0
VERTEX
  5
526
  8
0
  6
CONTINUOUS
 62
     7
 10
68.3413953295
 20
-56.9291555994
 30
0.0
  0
VERTEX
  5
527
  8
0
  6
CONTINUOUS
 62
     7
 10
68.3417797794
 20
-54.563238632
 30
0.0
  0
VERTEX
  5
528
  8
0
  6
CONTINUOUS
 62
     7
 10
68.3416784515
 20
-52.208414089
 30
0.0
  0
VERTEX
  5
529
  8
0
  6
CONTINUOUS
 62
     7
 10
68.3408320656
 20
-50.1002752893
 30
0.0
  0
SEQEND
  5
547
  8
0
  6
CONTINUOUS
 62
     7
  0
POLYLINE
  5
1FE
  8
0
  6
CONTINUOUS
 62
     7
 66
     1
 10
0.0
 20
0.0
 30
0.0
  0
VERTEX
  5
52A
  8
0
  6
CONTINUOUS
 62
     7
 10
141.5102750769
 20
-7.0848503821
 30
0.0
  0
VERTEX
  5
52B
  8
0
  6
CONTINUOUS
 62
     7
 10
141.9441909304
 20
-8.5980051868
 30
0.0
  0
VERTEX
  5
52C
  8
0
  6
CONTINUOUS
 62
     7
 10
142.3421622028
 20
-10.1111629717
 30
0.0
  0
SEQEND
  5
546
  8
0
  6
CONTINUOUS
 62
     7
  0
ARC
  5
1FF
  8
0
  6
CONTINUOUS
 62
     7
 10
83.6958529346
 20
-22.0537159069
 30
0.0
 40
59.84974357641568
 50
6.6422335737
 51
11.5101505537
  0
POLYLINE
  5
200
  8
0
  6
CONTINUOUS
 62
     7
 66
     1
 10
0.0
 20
0.0
 30
0.0
  0
VERTEX
  5
52D
  8
0
  6
CONTINUOUS
 62
     7
 10
143.1435853949
 20
-15.1309648268
 30
0.0
  0
VERTEX
  5
52E
  8
0
  6
CONTINUOUS
 62
     7
 10
143.3678478708
 20
-17.6343852394
 30
0.0
  0
VERTEX
  5
52F
  8
0
  6
CONTINUOUS
 62
     7
 10
143.5123563519
 20
-20.1381319873
 30
0.0
  0
SEQEND
  5
545
  8
0
  6
CONTINUOUS
 62
     7
  0
LINE
  5
201
  8
0
  6
CONTINUOUS
 62
     7
 10
143.5408294907
 20
-21.9910019748
 30
0.0
 11
143.5120076647
 21
-20.1381468885
 31
0.0
  0
LINE
  5
202
  8
0
  6
CONTINUOUS
 62
     7
 10
143.5408294907
 20
-30.1025593393
 30
0.0
 11
143.5408294907
 21
-21.9910019748
 31
0.0
  0
POLYLINE
  5
203
  8
0
  6
CONTINUOUS
 62
     7
 66
     1
 10
0.0
 20
0.0
 30
0.0
  0
VERTEX
  5
530
  8
0
  6
CONTINUOUS
 62
     7
 10
143.5408294907
 20
-30.1025414579
 30
0.0
  0
VERTEX
  5
531
  8
0
  6
CONTINUOUS
 62
     7
 10
143.5261220446
 20
-33.2744056099
 30
0.0
  0
VERTEX
  5
532
  8
0
  6
CONTINUOUS
 62
     7
 10
143.5408354511
 20
-40.1024305933
 30
0.0
  0
SEQEND
  5
544
  8
0
  6
CONTINUOUS
 62
     7
  0
POLYLINE
  5
204
  8
0
  6
CONTINUOUS
 62
     7
 66
     1
 10
0.0
 20
0.0
 30
0.0
  0
VERTEX
  5
533
  8
0
  6
CONTINUOUS
 62
     7
 10
143.5409010162
 20
-61.7569053285
 30
0.0
  0
VERTEX
  5
534
  8
0
  6
CONTINUOUS
 62
     7
 10
143.5409010162
 20
-61.4489638918
 30
0.0
  0
VERTEX
  5
535
  8
0
  6
CONTINUOUS
 62
     7
 10
143.5406864395
 20
-59.0371155851
 30
0.0
  0
VERTEX
  5
536
  8
0
  6
CONTINUOUS
 62
     7
 10
143.5402096024
 20
-56.6525602453
 30
0.0
  0
VERTEX
  5
537
  8
0
  6
CONTINUOUS
 62
     7
 10
143.539857935
 20
-54.2892122381
 30
0.0
  0
VERTEX
  5
538
  8
0
  6
CONTINUOUS
 62
     7
 10
143.5411781778
 20
-49.5803618543
 30
0.0
  0
VERTEX
  5
539
  8
0
  6
CONTINUOUS
 62
     7
 10
143.5446531286
 20
-44.8464596384
 30
0.0
  0
VERTEX
  5
53A
  8
0
  6
CONTINUOUS
 62
     7
 10
143.5408294907
 20
-40.1024305933
 30
0.0
  0
SEQEND
  5
543
  8
0
  6
CONTINUOUS
 62
     7
  0
ARC
  5
205
  8
0
  6
CONTINUOUS
 62
     7
 10
136.8964194144
 20
-61.8935495676
 30
0.0
 40
6.645886502543082
 50
292.544393283
 51
1.1781257346
  0
ARC
  5
206
  8
0
  6
CONTINUOUS
 62
     7
 10
74.9882874012
 20
-61.8895652056
 30
0.0
 40
6.648869404511459
 50
178.8485762181
 51
250.641800128
  0
LINE
  5
207
  8
0
  6
CONTINUOUS
 62
     7
 10
143.1408316603
 20
-15.1048117988
 30
0.0
 11
143.1438714972
 21
-15.1309320443
 31
0.0
  0
POLYLINE
  5
208
  8
0
  6
CONTINUOUS
 62
     7
 66
     1
 10
0.0
 20
0.0
 30
0.0
  0
VERTEX
  5
53B
  8
0
  6
CONTINUOUS
 62
     7
 10
142.3419804087
 20
-10.1112061851
 30
0.0
  0
VERTEX
  5
53C
  8
0
  6
CONTINUOUS
 62
     7
 10
142.7941650858
 20
-12.5970715397
 30
0.0
  0
VERTEX
  5
53D
  8
0
  6
CONTINUOUS
 62
     7
 10
143.1408316603
 20
-15.1048117988
 30
0.0
  0
SEQEND
  5
542
  8
0
  6
CONTINUOUS
 62
     7
  0
POLYLINE
  5
209
  8
0
  6
CONTINUOUS
 62
     7
 66
     1
 10
0.0
 20
0.0
 30
0.0
  0
VERTEX
  5
53E
  8
0
  6
CONTINUOUS
 62
     7
 10
68.740829896
 20
-15.1048117988
 30
0.0
  0
VERTEX
  5
53F
  8
0
  6
CONTINUOUS
 62
     7
 10
69.0867603531
 20
-12.601670038
 30
0.0
  0
VERTEX
  5
540
  8
0
  6
CONTINUOUS
 62
     7
 10
69.5396811476
 20
-10.1112061851
 30
0.0
  0
SEQEND
  5
541
  8
0
  6
CONTINUOUS
 62
     7
  0
LINE
  5
20A
  8
0
  6
CONTINUOUS
 62
     7
 10
68.7377900591
 20
-15.1309320443
 30
0.0
 11
68.740829896
 21
-15.1048117988
 31
0.0
  0
LINE
  5
20B
  8
0
  6
CONTINUOUS
 62
     7
 10
143.5120076647
 20
-20.1381468885
 30
0.0
 11
143.5408294907
 21
-21.9888383262
 31
0.0
  0
LINE
  5
20C
  8
0
  6
CONTINUOUS
 62
     7
 10
68.3408320656
 20
-21.9888383262
 30
0.0
 11
68.3696538916
 21
-20.1381468885
 31
0.0
  0
LINE
  5
20D
  8
0
  6
CONTINUOUS
 62
     7
 10
69.1151560059
 20
3.7035653628
 30
0.0
 11
69.1151560059
 21
3.6467461176
 31
0.0
  0
LINE
  5
20E
  8
0
  6
CONTINUOUS
 62
     7
 10
68.3374077787
 20
-57.4964368456
 30
0.0
 11
68.2408303728
 21
-57.4964368456
 31
0.0
  0
LINE
  5
20F
  8
0
  6
CONTINUOUS
 62
     7
 10
68.2408303728
 20
-57.4964368456
 30
0.0
 11
68.2408303728
 21
3.7035653628
 31
0.0
  0
LINE
  5
210
  8
0
  6
CONTINUOUS
 62
     7
 10
68.2408303728
 20
3.7035653628
 30
0.0
 11
69.1151560059
 21
3.7035653628
 31
0.0
  0
LINE
  5
211
  8
0
  6
CONTINUOUS
 62
     7
 10
69.1151560059
 20
3.6467461176
 30
0.0
 11
69.3366766682
 21
3.6315081901
 31
0.0
  0
ARC
  5
212
  8
0
  6
CONTINUOUS
 62
     7
 10
69.9047917993
 20
1.5919804594
 30
0.0
 40
1.996146637964908
 50
359.8798940359
 51
86.0295312065
  0
LINE
  5
213
  8
0
  6
CONTINUOUS
 62
     7
 10
71.9009340515
 20
1.587796051
 30
0.0
 11
71.9009340515
 21
-2.8147252016
 31
0.0
  0
ARC
  5
214
  8
0
  6
CONTINUOUS
 62
     7
 10
73.1027266273
 20
-2.8155085538
 30
0.0
 40
1.201792831047193
 50
179.9626534821
 51
232.2494355137
  0
LINE
  5
215
  8
0
  6
CONTINUOUS
 62
     7
 10
70.0430095902
 20
3.5833360888
 30
0.0
 11
69.3366766682
 21
3.6315081901
 31
0.0
  0
LINE
  5
216
  8
0
  6
CONTINUOUS
 62
     7
 10
68.2408303728
 20
3.7035653628
 30
0.0
 11
68.2408303728
 21
16.4236819632
 31
0.0
  0
LINE
  5
217
  8
0
  6
CONTINUOUS
 62
     7
 10
69.0408319941
 20
16.4236819632
 30
0.0
 11
69.0408319941
 21
3.7035653628
 31
0.0
  0
LINE
  5
218
  8
0
  6
CONTINUOUS
 62
     7
 10
68.2408303728
 20
17.6035655923
 30
0.0
 11
69.0408319941
 21
17.6035655923
 31
0.0
  0
LINE
  5
219
  8
0
  6
CONTINUOUS
 62
     7
 10
68.2408303728
 20
16.4236819632
 30
0.0
 11
68.2408303728
 21
17.6035655923
 31
0.0
  0
LINE
  5
21A
  8
0
  6
CONTINUOUS
 62
     7
 10
69.0408319941
 20
17.6035655923
 30
0.0
 11
69.0408319941
 21
16.4236819632
 31
0.0
  0
LINE
  5
21B
  8
0
  6
CONTINUOUS
 62
     7
 10
68.2408303728
 20
14.6035654731
 30
0.0
 11
63.440829586
 21
14.6035654731
 31
0.0
  0
LINE
  5
21C
  8
0
  6
CONTINUOUS
 62
     7
 10
63.440829586
 20
14.6035654731
 30
0.0
 11
63.440829586
 21
13.6035653092
 31
0.0
  0
LINE
  5
21D
  8
0
  6
CONTINUOUS
 62
     7
 10
73.4408319702
 20
13.9757903553
 30
0.0
 11
73.4408319702
 21
13.6035653092
 31
0.0
  0
LINE
  5
21E
  8
0
  6
CONTINUOUS
 62
     7
 10
71.4755744448
 20
14.6035654731
 30
0.0
 11
69.0408319941
 21
14.6035654731
 31
0.0
  0
LINE
  5
21F
  8
0
  6
CONTINUOUS
 62
     7
 10
63.440829586
 20
13.6035653092
 30
0.0
 11
63.440829586
 21
4.4035652913
 31
0.0
  0
LINE
  5
220
  8
0
  6
CONTINUOUS
 62
     7
 10
73.4408319702
 20
13.6035653092
 30
0.0
 11
73.4408319702
 21
4.4035652913
 31
0.0
  0
LINE
  5
221
  8
0
  6
CONTINUOUS
 62
     7
 10
68.2408303728
 20
3.4035651274
 30
0.0
 11
63.440829586
 21
3.4035651274
 31
0.0
  0
LINE
  5
222
  8
0
  6
CONTINUOUS
 62
     7
 10
63.440829586
 20
4.4035652913
 30
0.0
 11
63.440829586
 21
3.4035651274
 31
0.0
  0
LINE
  5
223
  8
0
  6
CONTINUOUS
 62
     7
 10
73.4408319702
 20
3.4035651274
 30
0.0
 11
70.7447201719
 21
3.4035651274
 31
0.0
  0
LINE
  5
224
  8
0
  6
CONTINUOUS
 62
     7
 10
73.4408319702
 20
4.4035652913
 30
0.0
 11
73.4408319702
 21
3.4035651274
 31
0.0
  0
LINE
  5
225
  8
0
  6
CONTINUOUS
 62
     7
 10
143.6408311834
 20
-57.4964368456
 30
0.0
 11
143.6408311834
 21
3.7035653628
 31
0.0
  0
LINE
  5
226
  8
0
  6
CONTINUOUS
 62
     7
 10
143.5442537775
 20
-57.4964368456
 30
0.0
 11
143.6408311834
 21
-57.4964368456
 31
0.0
  0
LINE
  5
227
  8
0
  6
CONTINUOUS
 62
     7
 10
142.7665055504
 20
3.7035653628
 30
0.0
 11
142.7665055504
 21
3.6467461176
 31
0.0
  0
LINE
  5
228
  8
0
  6
CONTINUOUS
 62
     7
 10
143.6408311834
 20
3.7035653628
 30
0.0
 11
142.7665055504
 21
3.7035653628
 31
0.0
  0
LINE
  5
229
  8
0
  6
CONTINUOUS
 62
     7
 10
142.7665055504
 20
3.6467461176
 30
0.0
 11
142.5449848881
 21
3.6315081901
 31
0.0
  0
ARC
  5
22A
  8
0
  6
CONTINUOUS
 62
     7
 10
138.7788929547
 20
-2.8154979551
 30
0.0
 40
1.201834798489375
 50
308.2419419619
 51
0.0368399334
  0
LINE
  5
22B
  8
0
  6
CONTINUOUS
 62
     7
 10
139.9807275047
 20
1.587796051
 30
0.0
 11
139.9807275047
 21
-2.8147252016
 31
0.0
  0
ARC
  5
22C
  8
0
  6
CONTINUOUS
 62
     7
 10
141.9768697569
 20
1.5919804594
 30
0.0
 40
1.99614663796491
 50
93.9704687935
 51
180.1201059642
  0
LINE
  5
22D
  8
0
  6
CONTINUOUS
 62
     7
 10
141.8386519661
 20
3.5833360888
 30
0.0
 11
142.5449848881
 21
3.6315081901
 31
0.0
  0
LINE
  5
22E
  8
0
  6
CONTINUOUS
 62
     7
 10
143.6408311834
 20
3.7035653628
 30
0.0
 11
143.6408311834
 21
16.4236819632
 31
0.0
  0
LINE
  5
22F
  8
0
  6
CONTINUOUS
 62
     7
 10
142.8408295622
 20
16.4236819632
 30
0.0
 11
142.8408295622
 21
3.7035653628
 31
0.0
  0
LINE
  5
230
  8
0
  6
CONTINUOUS
 62
     7
 10
143.6408311834
 20
17.6035655923
 30
0.0
 11
142.8408295622
 21
17.6035655923
 31
0.0
  0
LINE
  5
231
  8
0
  6
CONTINUOUS
 62
     7
 10
143.6408311834
 20
16.4236819632
 30
0.0
 11
143.6408311834
 21
17.6035655923
 31
0.0
  0
LINE
  5
232
  8
0
  6
CONTINUOUS
 62
     7
 10
142.8408295622
 20
17.6035655923
 30
0.0
 11
142.8408295622
 21
16.4236819632
 31
0.0
  0
LINE
  5
233
  8
0
  6
CONTINUOUS
 62
     7
 10
143.6408311834
 20
14.6035654731
 30
0.0
 11
148.4408319702
 21
14.6035654731
 31
0.0
  0
LINE
  5
234
  8
0
  6
CONTINUOUS
 62
     7
 10
148.4408319702
 20
14.6035654731
 30
0.0
 11
148.4408319702
 21
13.6035653092
 31
0.0
  0
LINE
  5
235
  8
0
  6
CONTINUOUS
 62
     7
 10
138.440829586
 20
13.9699587859
 30
0.0
 11
138.440829586
 21
13.6035653092
 31
0.0
  0
LINE
  5
236
  8
0
  6
CONTINUOUS
 62
     7
 10
140.4060960522
 20
14.6035654731
 30
0.0
 11
142.8408295622
 21
14.6035654731
 31
0.0
  0
LINE
  5
237
  8
0
  6
CONTINUOUS
 62
     7
 10
138.440829586
 20
13.6035653092
 30
0.0
 11
138.440829586
 21
4.4035652913
 31
0.0
  0
LINE
  5
238
  8
0
  6
CONTINUOUS
 62
     7
 10
148.4408319702
 20
13.6035653092
 30
0.0
 11
148.4408319702
 21
4.4035652913
 31
0.0
  0
LINE
  5
239
  8
0
  6
CONTINUOUS
 62
     7
 10
138.440829586
 20
3.4035651274
 30
0.0
 11
141.1369413843
 21
3.4035651274
 31
0.0
  0
LINE
  5
23A
  8
0
  6
CONTINUOUS
 62
     7
 10
138.440829586
 20
4.4035652913
 30
0.0
 11
138.440829586
 21
3.4035651274
 31
0.0
  0
LINE
  5
23B
  8
0
  6
CONTINUOUS
 62
     7
 10
143.6408311834
 20
3.4035651274
 30
0.0
 11
148.4408319702
 21
3.4035651274
 31
0.0
  0
LINE
  5
23C
  8
0
  6
CONTINUOUS
 62
     7
 10
148.4408319702
 20
4.4035652913
 30
0.0
 11
148.4408319702
 21
3.4035651274
 31
0.0
  0
LINE
  5
23D
  8
0
  6
CONTINUOUS
 62
     7
 10
174.7408331146
 20
13.6035653092
 30
0.0
 11
174.7408331146
 21
13.0035652108
 31
0.0
  0
ARC
  5
23E
  8
0
  6
CONTINUOUS
 62
     7
 10
174.3408307781
 20
13.6035653002
 30
0.0
 40
0.4000000000000341
 50
0.0
 51
90.0
  0
LINE
  5
23F
  8
0
  6
CONTINUOUS
 62
     7
 10
37.5408292522
 20
14.0035653747
 30
0.0
 11
39.9408281555
 21
14.0035653747
 31
0.0
  0
LINE
  5
240
  8
0
  6
CONTINUOUS
 62
     7
 10
51.9408286324
 20
14.0035653747
 30
0.0
 11
63.440829586
 21
14.0035653747
 31
0.0
  0
LINE
  5
241
  8
0
  6
CONTINUOUS
 62
     7
 10
73.5393167248
 20
14.0035653747
 30
0.0
 11
87.9408300629
 21
14.0035653747
 31
0.0
  0
LINE
  5
242
  8
0
  6
CONTINUOUS
 62
     7
 10
123.9408314934
 20
14.0035653747
 30
0.0
 11
138.339823555
 21
14.0035653747
 31
0.0
  0
LINE
  5
243
  8
0
  6
CONTINUOUS
 62
     7
 10
148.4408319702
 20
14.0035653747
 30
0.0
 11
159.9408329239
 21
14.0035653747
 31
0.0
  0
LINE
  5
244
  8
0
  6
CONTINUOUS
 62
     7
 10
171.9408334007
 20
14.0035653747
 30
0.0
 11
174.340832304
 21
14.0035653747
 31
0.0
  0
LINE
  5
245
  8
0
  6
CONTINUOUS
 62
     7
 10
37.1408284416
 20
13.0035652108
 30
0.0
 11
37.1408284416
 21
13.6035653092
 31
0.0
  0
ARC
  5
246
  8
0
  6
CONTINUOUS
 62
     7
 10
37.5408307781
 20
13.6035653002
 30
0.0
 40
0.3999999999999986
 50
90.0
 51
180.0
  0
LINE
  5
247
  8
0
  6
CONTINUOUS
 62
     7
 10
37.1408284416
 20
5.0035653896
 30
0.0
 11
37.1408284416
 21
13.0035652108
 31
0.0
  0
LINE
  5
248
  8
0
  6
CONTINUOUS
 62
     7
 10
174.7408331146
 20
13.0035652108
 30
0.0
 11
174.7408331146
 21
5.0035653896
 31
0.0
  0
LINE
  5
249
  8
0
  6
CONTINUOUS
 62
     7
 10
174.7408331146
 20
5.0035653896
 30
0.0
 11
174.7408331146
 21
4.4035652913
 31
0.0
  0
ARC
  5
24A
  8
0
  6
CONTINUOUS
 62
     7
 10
174.3408307781
 20
4.4035653002
 30
0.0
 40
0.4000000000000057
 50
270.0
 51
0.0
  0
LINE
  5
24B
  8
0
  6
CONTINUOUS
 62
     7
 10
37.1408284416
 20
4.4035652913
 30
0.0
 11
37.1408284416
 21
5.0035653896
 31
0.0
  0
ARC
  5
24C
  8
0
  6
CONTINUOUS
 62
     7
 10
37.5408307781
 20
4.4035653002
 30
0.0
 40
0.3999999999999977
 50
180.0
 51
270.0
  0
LINE
  5
24D
  8
0
  6
CONTINUOUS
 62
     7
 10
174.340832304
 20
4.0035652257
 30
0.0
 11
171.9408334007
 21
4.0035652257
 31
0.0
  0
LINE
  5
24E
  8
0
  6
CONTINUOUS
 62
     7
 10
159.9408329239
 20
4.0035652257
 30
0.0
 11
148.4408319702
 21
4.0035652257
 31
0.0
  0
LINE
  5
24F
  8
0
  6
CONTINUOUS
 62
     7
 10
138.440829586
 20
4.0035652257
 30
0.0
 11
123.9408314934
 21
4.0035652257
 31
0.0
  0
LINE
  5
250
  8
0
  6
CONTINUOUS
 62
     7
 10
87.9408300629
 20
4.0035652257
 30
0.0
 11
73.4408319702
 21
4.0035652257
 31
0.0
  0
LINE
  5
251
  8
0
  6
CONTINUOUS
 62
     7
 10
63.440829586
 20
4.0035652257
 30
0.0
 11
51.9408286324
 21
4.0035652257
 31
0.0
  0
LINE
  5
252
  8
0
  6
CONTINUOUS
 62
     7
 10
39.9408281555
 20
4.0035652257
 30
0.0
 11
37.5408292522
 21
4.0035652257
 31
0.0
  0
CIRCLE
  5
253
  8
0
  6
CONTINUOUS
 62
     7
 10
113.9408307781
 20
17.0035653002
 30
0.0
 40
1.500000000000004
  0
CIRCLE
  5
254
  8
0
  6
CONTINUOUS
 62
     7
 10
97.9408307781
 20
17.0035653002
 30
0.0
 40
1.500000000000004
  0
LINE
  5
255
  8
0
  6
CONTINUOUS
 62
     7
 10
93.9418309143
 20
14.6035654731
 30
0.0
 11
93.9408310463
 21
15.0035651661
 31
0.0
  0
LINE
  5
256
  8
0
  6
CONTINUOUS
 62
     7
 10
93.9408310463
 20
17.0035651214
 30
0.0
 11
93.9408310463
 21
15.0035651661
 31
0.0
  0
ARC
  5
257
  8
0
  6
CONTINUOUS
 62
     7
 10
97.9408307781
 20
17.0035653002
 30
0.0
 40
4.0
 50
109.2880580441
 51
180.0
  0
LINE
  5
258
  8
0
  6
CONTINUOUS
 62
     7
 10
113.0063743105
 20
21.003565032
 30
0.0
 11
108.9408307111
 21
21.003565032
 31
0.0
  0
LINE
  5
259
  8
0
  6
CONTINUOUS
 62
     7
 10
102.9408308452
 20
21.003565032
 30
0.0
 11
98.8752872458
 21
21.003565032
 31
0.0
  0
ARC
  5
25A
  8
0
  6
CONTINUOUS
 62
     7
 10
113.9408307781
 20
17.0035653002
 30
0.0
 40
4.000000000000014
 50
0.0
 51
70.9439465439
  0
LINE
  5
25B
  8
0
  6
CONTINUOUS
 62
     7
 10
117.9408305099
 20
15.0035651661
 30
0.0
 11
117.9408305099
 21
17.0035651214
 31
0.0
  0
LINE
  5
25C
  8
0
  6
CONTINUOUS
 62
     7
 10
117.9408305099
 20
15.0035651661
 30
0.0
 11
117.939830642
 21
14.6035654731
 31
0.0
  0
ENDSEC
  0
EOF
