  0
SECTION
  2
HEADER
  9
$ACADVER
  1
AC1009
  9
$DWGCODEPAGE
  3
ansi_1252
  9
$INSBASE
 10
0.0
 20
0.0
 30
0.0
  9
$EXTMIN
 10
0.0
 20
0.0
 30
0.0
  9
$EXTMAX
 10
420.0
 20
297.0
 30
0.0
  9
$LIMMIN
 10
0.0
 20
0.0
  9
$LIMMAX
 10
420.0
 20
297.0
  9
$ORTHOMODE
 70
     0
  9
$REGENMODE
 70
     1
  9
$FILLMODE
 70
     1
  9
$QTEXTMODE
 70
     0
  9
$MIRRTEXT
 70
     1
  9
$DRAGMODE
 70
     2
  9
$LTSCALE
 40
1.0
  9
$OSMODE
 70
    37
  9
$ATTMODE
 70
     1
  9
$TEXTSIZE
 40
3.5
  9
$TRACEWID
 40
1.0
  9
$TEXTSTYLE
  7
STANDARD
  9
$CLAYER
  8
0
  9
$CELTYPE
  6
BYLAYER
  9
$CECOLOR
 62
   256
  9
$DIMSCALE
 40
1.0
  9
$DIMASZ
 40
4.0
  9
$DIMEXO
 40
0.0
  9
$DIMDLI
 40
3.75
  9
$DIMRND
 40
0.0
  9
$DIMDLE
 40
0.0
  9
$DIMEXE
 40
2.0
  9
$DIMTP
 40
0.0
  9
$DIMTM
 40
0.0
  9
$DIMTXT
 40
3.5
  9
$DIMCEN
 40
2.5
  9
$DIMTSZ
 40
0.0
  9
$DIMTOL
 70
     0
  9
$DIMLIM
 70
     0
  9
$DIMTIH
 70
     1
  9
$DIMTOH
 70
     1
  9
$DIMSE1
 70
     0
  9
$DIMSE2
 70
     0
  9
$DIMTAD
 70
     1
  9
$DIMZIN
 70
     0
  9
$DIMBLK
  1

  9
$DIMASO
 70
     1
  9
$DIMSHO
 70
     1
  9
$DIMPOST
  1

  9
$DIMAPOST
  1

  9
$DIMALT
 70
     0
  9
$DIMALTD
 70
     3
  9
$DIMALTF
 40
0.0393700787
  9
$DIMLFAC
 40
5.0
  9
$DIMTOFL
 70
     1
  9
$DIMTVP
 40
0.0
  9
$DIMTIX
 70
     0
  9
$DIMSOXD
 70
     0
  9
$DIMSAH
 70
     0
  9
$DIMBLK1
  1

  9
$DIMBLK2
  1

  9
$DIMSTYLE
  2
ISO-25
  9
$DIMCLRD
 70
     0
  9
$DIMCLRE
 70
     0
  9
$DIMCLRT
 70
     0
  9
$DIMTFAC
 40
1.0
  9
$DIMGAP
 40
1.524
  9
$LUNITS
 70
     2
  9
$LUPREC
 70
     2
  9
$SKETCHINC
 40
1.0
  9
$FILLETRAD
 40
10.0
  9
$AUNITS
 70
     0
  9
$AUPREC
 70
     2
  9
$MENU
  1
.
  9
$ELEVATION
 40
0.0
  9
$PELEVATION
 40
0.0
  9
$THICKNESS
 40
0.0
  9
$LIMCHECK
 70
     0
  9
$CHAMFERA
 40
10.0
  9
$CHAMFERB
 40
10.0
  9
$SKPOLY
 70
     0
  9
$TDCREATE
 40
2457802.447186331
  9
$TDUPDATE
 40
2457802.447186528
  9
$TDINDWG
 40
0.0000000116
  9
$TDUSRTIMER
 40
0.0000000116
  9
$USRTIMER
 70
     1
  9
$ANGBASE
 50
0.0
  9
$ANGDIR
 70
     0
  9
$PDMODE
 70
     0
  9
$PDSIZE
 40
-1.0
  9
$PLINEWID
 40
0.0
  9
$COORDS
 70
     1
  9
$SPLFRAME
 70
     0
  9
$SPLINETYPE
 70
     6
  9
$SPLINESEGS
 70
     8
  9
$ATTDIA
 70
     0
  9
$ATTREQ
 70
     1
  9
$HANDLING
 70
     1
  9
$HANDSEED
  5
536
  9
$SURFTAB1
 70
     6
  9
$SURFTAB2
 70
     6
  9
$SURFTYPE
 70
     6
  9
$SURFU
 70
     6
  9
$SURFV
 70
     6
  9
$UCSNAME
  2

  9
$UCSORG
 10
0.0
 20
0.0
 30
0.0
  9
$UCSXDIR
 10
1.0
 20
0.0
 30
0.0
  9
$UCSYDIR
 10
0.0
 20
1.0
 30
0.0
  9
$PUCSNAME
  2

  9
$PUCSORG
 10
0.0
 20
0.0
 30
0.0
  9
$PUCSXDIR
 10
1.0
 20
0.0
 30
0.0
  9
$PUCSYDIR
 10
0.0
 20
1.0
 30
0.0
  9
$USERI1
 70
     0
  9
$USERI2
 70
     0
  9
$USERI3
 70
     0
  9
$USERI4
 70
     0
  9
$USERI5
 70
     0
  9
$USERR1
 40
0.0
  9
$USERR2
 40
0.0
  9
$USERR3
 40
0.0
  9
$USERR4
 40
0.0
  9
$USERR5
 40
0.0
  9
$WORLDVIEW
 70
     1
  9
$SHADEDGE
 70
     3
  9
$SHADEDIF
 70
    70
  9
$TILEMODE
 70
     1
  9
$MAXACTVP
 70
    64
  9
$PLIMCHECK
 70
     0
  9
$PEXTMIN
 10
1.0000000000E+20
 20
1.0000000000E+20
 30
1.0000000000E+20
  9
$PEXTMAX
 10
-1.0000000000E+20
 20
-1.0000000000E+20
 30
-1.0000000000E+20
  9
$PLIMMIN
 10
0.0
 20
0.0
  9
$PLIMMAX
 10
420.0
 20
297.0
  9
$UNITMODE
 70
     0
  9
$VISRETAIN
 70
     1
  9
$PLINEGEN
 70
     0
  9
$PSLTSCALE
 70
     1
  0
ENDSEC
  0
SECTION
  2
TABLES
  0
TABLE
  2
VPORT
 70
     1
  0
VPORT
  2
*ACTIVE
 70
     0
 10
0.0
 20
0.0
 11
1.0
 21
1.0
 12
210.0
 22
148.5
 13
0.0
 23
0.0
 14
10.0
 24
10.0
 15
10.0
 25
10.0
 16
0.0
 26
0.0
 36
1.0
 17
0.0
 27
0.0
 37
0.0
 40
297.0
 41
1.4141414141
 42
50.0
 43
0.0
 44
0.0
 50
0.0
 51
0.0
 71
     0
 72
  2000
 73
     1
 74
     3
 75
     0
 76
     0
 77
     0
 78
     0
  0
ENDTAB
  0
TABLE
  2
LTYPE
 70
     6
  0
LTYPE
  2
CONTINUOUS
 70
     0
  3
Solid line
 72
    65
 73
     0
 40
0.0
  0
LTYPE
  2
HIDDEN
 70
     0
  3
Hidden __ __ __ __ __ __ __ __ __ __ __ __ __ __
 72
    65
 73
     2
 40
1.905
 49
1.27
 49
-0.635
  0
LTYPE
  2
PHANTOM
 70
     0
  3
Phantom ______  __  __  ______  __  __  ______
 72
    65
 73
     6
 40
12.7
 49
6.35
 49
-1.27
 49
1.27
 49
-1.27
 49
1.27
 49
-1.27
  0
LTYPE
  2
CENTER
 70
     0
  3
Center ____ _ ____ _ ____ _ ____ _ ____ _ ____
 72
    65
 73
     4
 40
10.16
 49
6.35
 49
-1.27
 49
1.27
 49
-1.27
  0
LTYPE
  2
CENTERX2
 70
     0
  3
Center (2x) ________  __  ________  __  _____
 72
    65
 73
     4
 40
20.32
 49
12.7
 49
-2.54
 49
2.54
 49
-2.54
  0
LTYPE
  2
DOT2
 70
     0
  3
Dot (.5x) ........................................
 72
    65
 73
     2
 40
0.635
 49
0.0
 49
-0.635
  0
ENDTAB
  0
TABLE
  2
LAYER
 70
     2
  0
LAYER
  2
0
 70
     0
 62
     7
  6
CONTINUOUS
  0
LAYER
  2
FORMAT
 70
     0
 62
     7
  6
CONTINUOUS
  0
ENDTAB
  0
TABLE
  2
STYLE
 70
     1
  0
STYLE
  2
STANDARD
 70
     0
 40
0.0
 41
1.0
 50
0.0
 71
     0
 42
3.5
  3
txt
  4

  0
ENDTAB
  0
TABLE
  2
VIEW
 70
     0
  0
ENDTAB
  0
TABLE
  2
UCS
 70
     0
  0
ENDTAB
  0
TABLE
  2
APPID
 70
     1
  0
APPID
  2
ACAD
 70
     0
  0
ENDTAB
  0
TABLE
  2
DIMSTYLE
 70
     1
  0
DIMSTYLE
  2
ISO-25
 70
     0
  3

  4

  5

  6

  7

 40
1.0
 41
2.5
 42
0.625
 43
3.75
 44
1.25
 45
0.0
 46
0.0
 47
0.0
 48
0.0
140
2.5
141
2.5
142
0.0
143
0.0393700787
144
1.0
145
0.0
146
1.0
147
0.625
 71
     0
 72
     0
 73
     0
 74
     0
 75
     0
 76
     0
 77
     1
 78
     8
170
     0
171
     3
172
     1
173
     0
174
     0
175
     0
176
     0
177
     0
178
     0
  0
ENDTAB
  0
ENDSEC
  0
SECTION
  2
BLOCKS
  0
BLOCK
  8
0
  2
$MODEL_SPACE
 70
     0
 10
0.0
 20
0.0
 30
0.0
  3
$MODEL_SPACE
  1

  0
ENDBLK
  5
21
  8
0
  0
BLOCK
 67
     1
  8
0
  2
$PAPER_SPACE
 70
     0
 10
0.0
 20
0.0
 30
0.0
  3
$PAPER_SPACE
  1

  0
ENDBLK
  5
1D
 67
     1
  8
0
  0
ENDSEC
  0
SECTION
  2
ENTITIES
  0
POLYLINE
  5
45
  8
0
  6
CONTINUOUS
 62
     7
 66
     1
 10
0.0
 20
0.0
 30
0.0
  0
VERTEX
  5
1FB
  8
0
  6
CONTINUOUS
 62
     7
 10
120.1146497569
 20
291.0005729866
 30
0.0
  0
VERTEX
  5
1FC
  8
0
  6
CONTINUOUS
 62
     7
 10
120.0501366696
 20
291.0300057602
 30
0.0
  0
VERTEX
  5
1FD
  8
0
  6
CONTINUOUS
 62
     7
 10
119.5198222241
 20
291.2713330459
 30
0.0
  0
SEQEND
  5
535
  8
0
  6
CONTINUOUS
 62
     7
  0
LINE
  5
46
  8
0
  6
CONTINUOUS
 62
     7
 10
56.849621161
 20
291.2719648552
 30
0.0
 11
56.2527074656
 21
290.9999888611
 31
0.0
  0
POLYLINE
  5
47
  8
0
  6
CONTINUOUS
 62
     7
 66
     1
 10
0.0
 20
0.0
 30
0.0
  0
VERTEX
  5
1FE
  8
0
  6
CONTINUOUS
 62
     7
 10
125.6211145959
 20
217.3034172726
 30
0.0
  0
VERTEX
  5
1FF
  8
0
  6
CONTINUOUS
 62
     7
 10
124.3462546906
 20
217.1332042885
 30
0.0
  0
VERTEX
  5
200
  8
0
  6
CONTINUOUS
 62
     7
 10
123.2534124694
 20
216.9921379757
 30
0.0
  0
VERTEX
  5
201
  8
0
  6
CONTINUOUS
 62
     7
 10
122.3428859553
 20
216.8780070019
 30
0.0
  0
VERTEX
  5
202
  8
0
  6
CONTINUOUS
 62
     7
 10
121.6149105868
 20
216.788975544
 30
0.0
  0
VERTEX
  5
203
  8
0
  6
CONTINUOUS
 62
     7
 10
121.0165186963
 20
216.7172592354
 30
0.0
  0
VERTEX
  5
204
  8
0
  6
CONTINUOUS
 62
     7
 10
120.5954714856
 20
216.6676681709
 30
0.0
  0
VERTEX
  5
205
  8
0
  6
CONTINUOUS
 62
     7
 10
120.1592906556
 20
216.6174393368
 30
0.0
  0
VERTEX
  5
206
  8
0
  6
CONTINUOUS
 62
     7
 10
119.689942821
 20
216.564635582
 30
0.0
  0
VERTEX
  5
207
  8
0
  6
CONTINUOUS
 62
     7
 10
119.1874101004
 20
216.5094536018
 30
0.0
  0
VERTEX
  5
208
  8
0
  6
CONTINUOUS
 62
     7
 10
118.6516746125
 20
216.4520841312
 30
0.0
  0
VERTEX
  5
209
  8
0
  6
CONTINUOUS
 62
     7
 10
117.2573699794
 20
216.3094680977
 30
0.0
  0
VERTEX
  5
20A
  8
0
  6
CONTINUOUS
 62
     7
 10
115.6782015405
 20
216.1589723301
 30
0.0
  0
VERTEX
  5
20B
  8
0
  6
CONTINUOUS
 62
     7
 10
114.3586411319
 20
216.0418492031
 30
0.0
  0
VERTEX
  5
20C
  8
0
  6
CONTINUOUS
 62
     7
 10
113.0319326362
 20
215.9326713753
 30
0.0
  0
VERTEX
  5
20D
  8
0
  6
CONTINUOUS
 62
     7
 10
111.798368319
 20
215.840004034
 30
0.0
  0
VERTEX
  5
20E
  8
0
  6
CONTINUOUS
 62
     7
 10
110.6581210337
 20
215.7627266121
 30
0.0
  0
VERTEX
  5
20F
  8
0
  6
CONTINUOUS
 62
     7
 10
109.6113457522
 20
215.699897356
 30
0.0
  0
VERTEX
  5
210
  8
0
  6
CONTINUOUS
 62
     7
 10
108.6581899962
 20
215.6507771683
 30
0.0
  0
VERTEX
  5
211
  8
0
  6
CONTINUOUS
 62
     7
 10
107.7987923465
 20
215.614829607
 30
0.0
  0
VERTEX
  5
212
  8
0
  6
CONTINUOUS
 62
     7
 10
107.0325835786
 20
215.5915659141
 30
0.0
  0
VERTEX
  5
213
  8
0
  6
CONTINUOUS
 62
     7
 10
106.6719710073
 20
215.5821185779
 30
0.0
  0
VERTEX
  5
214
  8
0
  6
CONTINUOUS
 62
     7
 10
106.3183023772
 20
215.5713659
 30
0.0
  0
VERTEX
  5
215
  8
0
  6
CONTINUOUS
 62
     7
 10
105.9715612969
 20
215.5589085293
 30
0.0
  0
VERTEX
  5
216
  8
0
  6
CONTINUOUS
 62
     7
 10
105.6317537269
 20
215.5453603935
 30
0.0
  0
VERTEX
  5
217
  8
0
  6
CONTINUOUS
 62
     7
 10
105.076089426
 20
215.5223231983
 30
0.0
  0
VERTEX
  5
218
  8
0
  6
CONTINUOUS
 62
     7
 10
104.4609247885
 20
215.4974382591
 30
0.0
  0
VERTEX
  5
219
  8
0
  6
CONTINUOUS
 62
     7
 10
103.7280499182
 20
215.4691737366
 30
0.0
  0
VERTEX
  5
21A
  8
0
  6
CONTINUOUS
 62
     7
 10
102.8774394832
 20
215.4382210445
 30
0.0
  0
VERTEX
  5
21B
  8
0
  6
CONTINUOUS
 62
     7
 10
101.8600179992
 20
215.4037337971
 30
0.0
  0
VERTEX
  5
21C
  8
0
  6
CONTINUOUS
 62
     7
 10
100.7133259616
 20
215.3681140613
 30
0.0
  0
VERTEX
  5
21D
  8
0
  6
CONTINUOUS
 62
     7
 10
99.4375220678
 20
215.3324585628
 30
0.0
  0
VERTEX
  5
21E
  8
0
  6
CONTINUOUS
 62
     7
 10
93.3899677536
 20
215.2178030681
 30
0.0
  0
VERTEX
  5
21F
  8
0
  6
CONTINUOUS
 62
     7
 10
87.3729160233
 20
215.188298769
 30
0.0
  0
VERTEX
  5
220
  8
0
  6
CONTINUOUS
 62
     7
 10
84.998375102
 20
215.1992421818
 30
0.0
  0
VERTEX
  5
221
  8
0
  6
CONTINUOUS
 62
     7
 10
82.7633219949
 20
215.2212720585
 30
0.0
  0
VERTEX
  5
222
  8
0
  6
CONTINUOUS
 62
     7
 10
80.6820898495
 20
215.2520995807
 30
0.0
  0
VERTEX
  5
223
  8
0
  6
CONTINUOUS
 62
     7
 10
78.7547028801
 20
215.2896564674
 30
0.0
  0
VERTEX
  5
224
  8
0
  6
CONTINUOUS
 62
     7
 10
76.9714369616
 20
215.3322916698
 30
0.0
  0
VERTEX
  5
225
  8
0
  6
CONTINUOUS
 62
     7
 10
76.0620138786
 20
215.3570156765
 30
0.0
  0
VERTEX
  5
226
  8
0
  6
CONTINUOUS
 62
     7
 10
75.1098721466
 20
215.3851311874
 30
0.0
  0
VERTEX
  5
227
  8
0
  6
CONTINUOUS
 62
     7
 10
74.1150348625
 20
215.4170256328
 30
0.0
  0
VERTEX
  5
228
  8
0
  6
CONTINUOUS
 62
     7
 10
73.077523633
 20
215.4531281662
 30
0.0
  0
VERTEX
  5
229
  8
0
  6
CONTINUOUS
 62
     7
 10
72.0531686387
 20
215.4917162132
 30
0.0
  0
VERTEX
  5
22A
  8
0
  6
CONTINUOUS
 62
     7
 10
71.3848470888
 20
215.5185144615
 30
0.0
  0
VERTEX
  5
22B
  8
0
  6
CONTINUOUS
 62
     7
 10
70.9041773519
 20
215.5385952663
 30
0.0
  0
VERTEX
  5
22C
  8
0
  6
CONTINUOUS
 62
     7
 10
70.59013836
 20
215.5520718765
 30
0.0
  0
VERTEX
  5
22D
  8
0
  6
CONTINUOUS
 62
     7
 10
70.1092570267
 20
215.572879858
 30
0.0
  0
VERTEX
  5
22E
  8
0
  6
CONTINUOUS
 62
     7
 10
69.5533453665
 20
215.5959468555
 30
0.0
  0
VERTEX
  5
22F
  8
0
  6
CONTINUOUS
 62
     7
 10
68.9224644742
 20
215.6200748157
 30
0.0
  0
VERTEX
  5
230
  8
0
  6
CONTINUOUS
 62
     7
 10
68.2166173301
 20
215.6474810314
 30
0.0
  0
VERTEX
  5
231
  8
0
  6
CONTINUOUS
 62
     7
 10
67.4348875127
 20
215.681700058
 30
0.0
  0
VERTEX
  5
232
  8
0
  6
CONTINUOUS
 62
     7
 10
66.5727361283
 20
215.7265346718
 30
0.0
  0
VERTEX
  5
233
  8
0
  6
CONTINUOUS
 62
     7
 10
65.6295909724
 20
215.7828849029
 30
0.0
  0
VERTEX
  5
234
  8
0
  6
CONTINUOUS
 62
     7
 10
64.6055667839
 20
215.8513110351
 30
0.0
  0
VERTEX
  5
235
  8
0
  6
CONTINUOUS
 62
     7
 10
63.5007857523
 20
215.9325104427
 30
0.0
  0
VERTEX
  5
236
  8
0
  6
CONTINUOUS
 62
     7
 10
62.3153790078
 20
216.0272997093
 30
0.0
  0
VERTEX
  5
237
  8
0
  6
CONTINUOUS
 62
     7
 10
60.251395329
 20
216.2096660805
 30
0.0
  0
VERTEX
  5
238
  8
0
  6
CONTINUOUS
 62
     7
 10
57.9961343846
 20
216.4323609543
 30
0.0
  0
VERTEX
  5
239
  8
0
  6
CONTINUOUS
 62
     7
 10
55.6502922616
 20
216.6887562942
 30
0.0
  0
VERTEX
  5
23A
  8
0
  6
CONTINUOUS
 62
     7
 10
53.2338603577
 20
216.9786077213
 30
0.0
  0
VERTEX
  5
23B
  8
0
  6
CONTINUOUS
 62
     7
 10
50.7472141824
 20
217.3034172726
 30
0.0
  0
SEQEND
  5
534
  8
0
  6
CONTINUOUS
 62
     7
  0
POLYLINE
  5
48
  8
0
  6
CONTINUOUS
 62
     7
 66
     1
 10
0.0
 20
0.0
 30
0.0
  0
VERTEX
  5
23C
  8
0
  6
CONTINUOUS
 62
     7
 10
125.7842286668
 20
216.7196613026
 30
0.0
  0
VERTEX
  5
23D
  8
0
  6
CONTINUOUS
 62
     7
 10
125.702013
 20
217.0806568336
 30
0.0
  0
VERTEX
  5
23E
  8
0
  6
CONTINUOUS
 62
     7
 10
125.5679979167
 20
217.669640131
 30
0.0
  0
SEQEND
  5
533
  8
0
  6
CONTINUOUS
 62
     7
  0
POLYLINE
  5
49
  8
0
  6
CONTINUOUS
 62
     7
 66
     1
 10
0.0
 20
0.0
 30
0.0
  0
VERTEX
  5
23F
  8
0
  6
CONTINUOUS
 62
     7
 10
50.8003308616
 20
217.669640131
 30
0.0
  0
VERTEX
  5
240
  8
0
  6
CONTINUOUS
 62
     7
 10
50.6676419816
 20
217.0864921284
 30
0.0
  0
VERTEX
  5
241
  8
0
  6
CONTINUOUS
 62
     7
 10
50.5818917594
 20
216.7099695873
 30
0.0
  0
SEQEND
  5
532
  8
0
  6
CONTINUOUS
 62
     7
  0
POLYLINE
  5
4A
  8
0
  6
CONTINUOUS
 62
     7
 66
     1
 10
0.0
 20
0.0
 30
0.0
  0
VERTEX
  5
242
  8
0
  6
CONTINUOUS
 62
     7
 10
123.2094898066
 20
284.043423481
 30
0.0
  0
VERTEX
  5
243
  8
0
  6
CONTINUOUS
 62
     7
 10
123.2368990025
 20
285.354892559
 30
0.0
  0
VERTEX
  5
244
  8
0
  6
CONTINUOUS
 62
     7
 10
123.075060471
 20
286.6242211532
 30
0.0
  0
VERTEX
  5
245
  8
0
  6
CONTINUOUS
 62
     7
 10
122.7229221902
 20
287.8157537651
 30
0.0
  0
VERTEX
  5
246
  8
0
  6
CONTINUOUS
 62
     7
 10
122.1882119021
 20
288.8992708397
 30
0.0
  0
VERTEX
  5
247
  8
0
  6
CONTINUOUS
 62
     7
 10
121.477873548
 20
289.8453872871
 30
0.0
  0
VERTEX
  5
248
  8
0
  6
CONTINUOUS
 62
     7
 10
120.6106736503
 20
290.630189724
 30
0.0
  0
VERTEX
  5
249
  8
0
  6
CONTINUOUS
 62
     7
 10
119.6097656331
 20
291.2288230133
 30
0.0
  0
VERTEX
  5
24A
  8
0
  6
CONTINUOUS
 62
     7
 10
118.5007258496
 20
291.6316312027
 30
0.0
  0
VERTEX
  5
24B
  8
0
  6
CONTINUOUS
 62
     7
 10
117.472337111
 20
291.8126505089
 30
0.0
  0
VERTEX
  5
24C
  8
0
  6
CONTINUOUS
 62
     7
 10
116.4068295798
 20
291.8353479576
 30
0.0
  0
SEQEND
  5
531
  8
0
  6
CONTINUOUS
 62
     7
  0
POLYLINE
  5
4B
  8
0
  6
CONTINUOUS
 62
     7
 66
     1
 10
0.0
 20
0.0
 30
0.0
  0
VERTEX
  5
24D
  8
0
  6
CONTINUOUS
 62
     7
 10
121.8678965411
 20
269.4698374939
 30
0.0
  0
VERTEX
  5
24E
  8
0
  6
CONTINUOUS
 62
     7
 10
122.2017928204
 20
273.117832489
 30
0.0
  0
VERTEX
  5
24F
  8
0
  6
CONTINUOUS
 62
     7
 10
122.5377603612
 20
276.7630379867
 30
0.0
  0
VERTEX
  5
250
  8
0
  6
CONTINUOUS
 62
     7
 10
122.8744968018
 20
280.4154079628
 30
0.0
  0
VERTEX
  5
251
  8
0
  6
CONTINUOUS
 62
     7
 10
123.2094898066
 20
284.043423481
 30
0.0
  0
SEQEND
  5
530
  8
0
  6
CONTINUOUS
 62
     7
  0
POLYLINE
  5
4C
  8
0
  6
CONTINUOUS
 62
     7
 66
     1
 10
0.0
 20
0.0
 30
0.0
  0
VERTEX
  5
252
  8
0
  6
CONTINUOUS
 62
     7
 10
113.7440814814
 20
260.9658044052
 30
0.0
  0
VERTEX
  5
253
  8
0
  6
CONTINUOUS
 62
     7
 10
115.1453896603
 20
261.160985775
 30
0.0
  0
VERTEX
  5
254
  8
0
  6
CONTINUOUS
 62
     7
 10
116.4947583518
 20
261.6035741043
 30
0.0
  0
VERTEX
  5
255
  8
0
  6
CONTINUOUS
 62
     7
 10
117.754487618
 20
262.2857492637
 30
0.0
  0
VERTEX
  5
256
  8
0
  6
CONTINUOUS
 62
     7
 10
118.8922687611
 20
263.1848376465
 30
0.0
  0
VERTEX
  5
257
  8
0
  6
CONTINUOUS
 62
     7
 10
119.8735370478
 20
264.2732899856
 30
0.0
  0
VERTEX
  5
258
  8
0
  6
CONTINUOUS
 62
     7
 10
120.6813826403
 20
265.5199688148
 30
0.0
  0
VERTEX
  5
259
  8
0
  6
CONTINUOUS
 62
     7
 10
121.2957575164
 20
266.8938081932
 30
0.0
  0
VERTEX
  5
25A
  8
0
  6
CONTINUOUS
 62
     7
 10
121.7040195308
 20
268.3510940742
 30
0.0
  0
VERTEX
  5
25B
  8
0
  6
CONTINUOUS
 62
     7
 10
121.8678965411
 20
269.4698374939
 30
0.0
  0
SEQEND
  5
52F
  8
0
  6
CONTINUOUS
 62
     7
  0
POLYLINE
  5
4D
  8
0
  6
CONTINUOUS
 62
     7
 66
     1
 10
0.0
 20
0.0
 30
0.0
  0
VERTEX
  5
25C
  8
0
  6
CONTINUOUS
 62
     7
 10
62.6242472968
 20
260.9658044052
 30
0.0
  0
VERTEX
  5
25D
  8
0
  6
CONTINUOUS
 62
     7
 10
65.4486878953
 20
260.838977642
 30
0.0
  0
VERTEX
  5
25E
  8
0
  6
CONTINUOUS
 62
     7
 10
68.314452394
 20
260.7270878029
 30
0.0
  0
VERTEX
  5
25F
  8
0
  6
CONTINUOUS
 62
     7
 10
71.2162389598
 20
260.6303494644
 30
0.0
  0
VERTEX
  5
260
  8
0
  6
CONTINUOUS
 62
     7
 10
75.4032044849
 20
260.519007988
 30
0.0
  0
VERTEX
  5
261
  8
0
  6
CONTINUOUS
 62
     7
 10
79.637252464
 20
260.4391735267
 30
0.0
  0
VERTEX
  5
262
  8
0
  6
CONTINUOUS
 62
     7
 10
83.902815654
 20
260.3911679458
 30
0.0
  0
VERTEX
  5
263
  8
0
  6
CONTINUOUS
 62
     7
 10
88.1841643891
 20
260.3751462173
 30
0.0
  0
VERTEX
  5
264
  8
0
  6
CONTINUOUS
 62
     7
 10
92.4655131242
 20
260.3911679458
 30
0.0
  0
VERTEX
  5
265
  8
0
  6
CONTINUOUS
 62
     7
 10
96.7310763142
 20
260.4391735267
 30
0.0
  0
VERTEX
  5
266
  8
0
  6
CONTINUOUS
 62
     7
 10
100.9651242933
 20
260.519007988
 30
0.0
  0
VERTEX
  5
267
  8
0
  6
CONTINUOUS
 62
     7
 10
105.1520898185
 20
260.6303494644
 30
0.0
  0
VERTEX
  5
268
  8
0
  6
CONTINUOUS
 62
     7
 10
108.0538763842
 20
260.7270878029
 30
0.0
  0
VERTEX
  5
269
  8
0
  6
CONTINUOUS
 62
     7
 10
110.919640883
 20
260.838977642
 30
0.0
  0
VERTEX
  5
26A
  8
0
  6
CONTINUOUS
 62
     7
 10
113.7440814814
 20
260.9658044052
 30
0.0
  0
SEQEND
  5
52E
  8
0
  6
CONTINUOUS
 62
     7
  0
POLYLINE
  5
4E
  8
0
  6
CONTINUOUS
 62
     7
 66
     1
 10
0.0
 20
0.0
 30
0.0
  0
VERTEX
  5
26B
  8
0
  6
CONTINUOUS
 62
     7
 10
54.5004322371
 20
269.4698374939
 30
0.0
  0
VERTEX
  5
26C
  8
0
  6
CONTINUOUS
 62
     7
 10
54.7485425315
 20
267.974428482
 30
0.0
  0
VERTEX
  5
26D
  8
0
  6
CONTINUOUS
 62
     7
 10
55.2102192483
 20
266.531733818
 30
0.0
  0
VERTEX
  5
26E
  8
0
  6
CONTINUOUS
 62
     7
 10
55.878551229
 20
265.1844661903
 30
0.0
  0
VERTEX
  5
26F
  8
0
  6
CONTINUOUS
 62
     7
 10
56.7359640441
 20
263.9702480507
 30
0.0
  0
VERTEX
  5
270
  8
0
  6
CONTINUOUS
 62
     7
 10
57.7641799292
 20
262.9272740555
 30
0.0
  0
VERTEX
  5
271
  8
0
  6
CONTINUOUS
 62
     7
 10
58.9359595618
 20
262.0825927925
 30
0.0
  0
VERTEX
  5
272
  8
0
  6
CONTINUOUS
 62
     7
 10
60.2191462359
 20
261.4650767517
 30
0.0
  0
VERTEX
  5
273
  8
0
  6
CONTINUOUS
 62
     7
 10
61.58112429
 20
261.0857647133
 30
0.0
  0
VERTEX
  5
274
  8
0
  6
CONTINUOUS
 62
     7
 10
62.6242472968
 20
260.9658044052
 30
0.0
  0
SEQEND
  5
52D
  8
0
  6
CONTINUOUS
 62
     7
  0
POLYLINE
  5
4F
  8
0
  6
CONTINUOUS
 62
     7
 66
     1
 10
0.0
 20
0.0
 30
0.0
  0
VERTEX
  5
275
  8
0
  6
CONTINUOUS
 62
     7
 10
53.1588330111
 20
284.0434592438
 30
0.0
  0
VERTEX
  5
276
  8
0
  6
CONTINUOUS
 62
     7
 10
53.4938289962
 20
280.4154556465
 30
0.0
  0
VERTEX
  5
277
  8
0
  6
CONTINUOUS
 62
     7
 10
53.8305654368
 20
276.7630618286
 30
0.0
  0
VERTEX
  5
278
  8
0
  6
CONTINUOUS
 62
     7
 10
54.1665359578
 20
273.1178444099
 30
0.0
  0
VERTEX
  5
279
  8
0
  6
CONTINUOUS
 62
     7
 10
54.5004322371
 20
269.4698374939
 30
0.0
  0
SEQEND
  5
52C
  8
0
  6
CONTINUOUS
 62
     7
  0
POLYLINE
  5
50
  8
0
  6
CONTINUOUS
 62
     7
 66
     1
 10
0.0
 20
0.0
 30
0.0
  0
VERTEX
  5
27A
  8
0
  6
CONTINUOUS
 62
     7
 10
59.9615468821
 20
291.8353479576
 30
0.0
  0
VERTEX
  5
27B
  8
0
  6
CONTINUOUS
 62
     7
 10
58.7341739974
 20
291.7946379852
 30
0.0
  0
VERTEX
  5
27C
  8
0
  6
CONTINUOUS
 62
     7
 10
57.5607105336
 20
291.5436905098
 30
0.0
  0
VERTEX
  5
27D
  8
0
  6
CONTINUOUS
 62
     7
 10
56.4749582848
 20
291.0850089264
 30
0.0
  0
VERTEX
  5
27E
  8
0
  6
CONTINUOUS
 62
     7
 10
55.5056317887
 20
290.4329817962
 30
0.0
  0
VERTEX
  5
27F
  8
0
  6
CONTINUOUS
 62
     7
 10
54.6839549384
 20
289.6066110802
 30
0.0
  0
VERTEX
  5
280
  8
0
  6
CONTINUOUS
 62
     7
 10
54.0221526465
 20
288.626889534
 30
0.0
  0
VERTEX
  5
281
  8
0
  6
CONTINUOUS
 62
     7
 10
53.5358681521
 20
287.5146072578
 30
0.0
  0
VERTEX
  5
282
  8
0
  6
CONTINUOUS
 62
     7
 10
53.2331272206
 20
286.3026898575
 30
0.0
  0
VERTEX
  5
283
  8
0
  6
CONTINUOUS
 62
     7
 10
53.1240984044
 20
285.1873439026
 30
0.0
  0
VERTEX
  5
284
  8
0
  6
CONTINUOUS
 62
     7
 10
53.1588330111
 20
284.0434592438
 30
0.0
  0
SEQEND
  5
52B
  8
0
  6
CONTINUOUS
 62
     7
  0
POLYLINE
  5
51
  8
0
  6
CONTINUOUS
 62
     7
 66
     1
 10
0.0
 20
0.0
 30
0.0
  0
VERTEX
  5
285
  8
0
  6
CONTINUOUS
 62
     7
 10
116.4068295798
 20
291.8353479576
 30
0.0
  0
VERTEX
  5
286
  8
0
  6
CONTINUOUS
 62
     7
 10
113.2233246407
 20
291.6766088676
 30
0.0
  0
VERTEX
  5
287
  8
0
  6
CONTINUOUS
 62
     7
 10
109.9847256384
 20
291.5369909477
 30
0.0
  0
VERTEX
  5
288
  8
0
  6
CONTINUOUS
 62
     7
 10
106.6982804975
 20
291.416804142
 30
0.0
  0
VERTEX
  5
289
  8
0
  6
CONTINUOUS
 62
     7
 10
103.0543103061
 20
291.3078587723
 30
0.0
  0
VERTEX
  5
28A
  8
0
  6
CONTINUOUS
 62
     7
 10
99.3711582563
 20
291.2228148651
 30
0.0
  0
VERTEX
  5
28B
  8
0
  6
CONTINUOUS
 62
     7
 10
95.6586159012
 20
291.1619108391
 30
0.0
  0
VERTEX
  5
28C
  8
0
  6
CONTINUOUS
 62
     7
 10
91.9262989602
 20
291.1253016662
 30
0.0
  0
VERTEX
  5
28D
  8
0
  6
CONTINUOUS
 62
     7
 10
88.1841643891
 20
291.113094635
 30
0.0
  0
VERTEX
  5
28E
  8
0
  6
CONTINUOUS
 62
     7
 10
84.442029818
 20
291.1253016662
 30
0.0
  0
VERTEX
  5
28F
  8
0
  6
CONTINUOUS
 62
     7
 10
80.709712877
 20
291.1619108391
 30
0.0
  0
VERTEX
  5
290
  8
0
  6
CONTINUOUS
 62
     7
 10
76.997170522
 20
291.2228148651
 30
0.0
  0
VERTEX
  5
291
  8
0
  6
CONTINUOUS
 62
     7
 10
73.3140184722
 20
291.3078587723
 30
0.0
  0
VERTEX
  5
292
  8
0
  6
CONTINUOUS
 62
     7
 10
69.6700482807
 20
291.416804142
 30
0.0
  0
VERTEX
  5
293
  8
0
  6
CONTINUOUS
 62
     7
 10
66.3836195311
 20
291.5369909477
 30
0.0
  0
VERTEX
  5
294
  8
0
  6
CONTINUOUS
 62
     7
 10
63.1450399003
 20
291.6766088676
 30
0.0
  0
VERTEX
  5
295
  8
0
  6
CONTINUOUS
 62
     7
 10
59.9615468821
 20
291.8353479576
 30
0.0
  0
SEQEND
  5
52A
  8
0
  6
CONTINUOUS
 62
     7
  0
POLYLINE
  5
52
  8
0
  6
CONTINUOUS
 62
     7
 66
     1
 10
0.0
 20
0.0
 30
0.0
  0
VERTEX
  5
296
  8
0
  6
CONTINUOUS
 62
     7
 10
122.4394544206
 20
269.3388503265
 30
0.0
  0
VERTEX
  5
297
  8
0
  6
CONTINUOUS
 62
     7
 10
122.1879883847
 20
267.8439419937
 30
0.0
  0
VERTEX
  5
298
  8
0
  6
CONTINUOUS
 62
     7
 10
121.7231228194
 20
266.4023798179
 30
0.0
  0
VERTEX
  5
299
  8
0
  6
CONTINUOUS
 62
     7
 10
121.0518731913
 20
265.0568526459
 30
0.0
  0
VERTEX
  5
29A
  8
0
  6
CONTINUOUS
 62
     7
 10
120.1919331393
 20
263.8449114036
 30
0.0
  0
VERTEX
  5
29B
  8
0
  6
CONTINUOUS
 62
     7
 10
119.1616847358
 20
262.8046553802
 30
0.0
  0
VERTEX
  5
29C
  8
0
  6
CONTINUOUS
 62
     7
 10
117.9884865126
 20
261.9630616379
 30
0.0
  0
VERTEX
  5
29D
  8
0
  6
CONTINUOUS
 62
     7
 10
116.704471334
 20
261.3488596153
 30
0.0
  0
VERTEX
  5
29E
  8
0
  6
CONTINUOUS
 62
     7
 10
115.342391952
 20
260.9730880928
 30
0.0
  0
VERTEX
  5
29F
  8
0
  6
CONTINUOUS
 62
     7
 10
114.3183930955
 20
260.8567398262
 30
0.0
  0
SEQEND
  5
529
  8
0
  6
CONTINUOUS
 62
     7
  0
POLYLINE
  5
53
  8
0
  6
CONTINUOUS
 62
     7
 66
     1
 10
0.0
 20
0.0
 30
0.0
  0
VERTEX
  5
2A0
  8
0
  6
CONTINUOUS
 62
     7
 10
62.0499356828
 20
260.8567398262
 30
0.0
  0
VERTEX
  5
2A1
  8
0
  6
CONTINUOUS
 62
     7
 10
60.6496258817
 20
261.0515635681
 30
0.0
  0
VERTEX
  5
2A2
  8
0
  6
CONTINUOUS
 62
     7
 10
59.3009962878
 20
261.4938300323
 30
0.0
  0
VERTEX
  5
2A3
  8
0
  6
CONTINUOUS
 62
     7
 10
58.0417378983
 20
262.1756833267
 30
0.0
  0
VERTEX
  5
2A4
  8
0
  6
CONTINUOUS
 62
     7
 10
56.9041653714
 20
263.0744617653
 30
0.0
  0
VERTEX
  5
2A5
  8
0
  6
CONTINUOUS
 62
     7
 10
55.9227570138
 20
264.1627472114
 30
0.0
  0
VERTEX
  5
2A6
  8
0
  6
CONTINUOUS
 62
     7
 10
55.1146223388
 20
265.4093306732
 30
0.0
  0
VERTEX
  5
2A7
  8
0
  6
CONTINUOUS
 62
     7
 10
54.4998987756
 20
266.7830627632
 30
0.0
  0
VERTEX
  5
2A8
  8
0
  6
CONTINUOUS
 62
     7
 10
54.091210588
 20
268.2403128815
 30
0.0
  0
VERTEX
  5
2A9
  8
0
  6
CONTINUOUS
 62
     7
 10
53.9288743577
 20
269.3388503265
 30
0.0
  0
SEQEND
  5
528
  8
0
  6
CONTINUOUS
 62
     7
  0
POLYLINE
  5
54
  8
0
  6
CONTINUOUS
 62
     7
 66
     1
 10
0.0
 20
0.0
 30
0.0
  0
VERTEX
  5
2AA
  8
0
  6
CONTINUOUS
 62
     7
 10
122.4394544206
 20
269.3388503265
 30
0.0
  0
VERTEX
  5
2AB
  8
0
  6
CONTINUOUS
 62
     7
 10
122.7791710934
 20
272.9612034035
 30
0.0
  0
VERTEX
  5
2AC
  8
0
  6
CONTINUOUS
 62
     7
 10
123.1190308175
 20
276.579586811
 30
0.0
  0
VERTEX
  5
2AD
  8
0
  6
CONTINUOUS
 62
     7
 10
123.4584584079
 20
280.1830928993
 30
0.0
  0
VERTEX
  5
2AE
  8
0
  6
CONTINUOUS
 62
     7
 10
123.7967356286
 20
283.7559741211
 30
0.0
  0
SEQEND
  5
527
  8
0
  6
CONTINUOUS
 62
     7
  0
POLYLINE
  5
55
  8
0
  6
CONTINUOUS
 62
     7
 66
     1
 10
0.0
 20
0.0
 30
0.0
  0
VERTEX
  5
2AF
  8
0
  6
CONTINUOUS
 62
     7
 10
52.5715871892
 20
283.7560098839
 30
0.0
  0
VERTEX
  5
2B0
  8
0
  6
CONTINUOUS
 62
     7
 10
52.9098673901
 20
280.1831286621
 30
0.0
  0
VERTEX
  5
2B1
  8
0
  6
CONTINUOUS
 62
     7
 10
53.2492949805
 20
276.5796106529
 30
0.0
  0
VERTEX
  5
2B2
  8
0
  6
CONTINUOUS
 62
     7
 10
53.5891547046
 20
272.9612153244
 30
0.0
  0
VERTEX
  5
2B3
  8
0
  6
CONTINUOUS
 62
     7
 10
53.9288743577
 20
269.3388503265
 30
0.0
  0
SEQEND
  5
526
  8
0
  6
CONTINUOUS
 62
     7
  0
POLYLINE
  5
56
  8
0
  6
CONTINUOUS
 62
     7
 66
     1
 10
0.0
 20
0.0
 30
0.0
  0
VERTEX
  5
2B4
  8
0
  6
CONTINUOUS
 62
     7
 10
120.1040311894
 20
290.9760873985
 30
0.0
  0
VERTEX
  5
2B5
  8
0
  6
CONTINUOUS
 62
     7
 10
120.4977973542
 20
290.8084910583
 30
0.0
  0
VERTEX
  5
2B6
  8
0
  6
CONTINUOUS
 62
     7
 10
121.4647635064
 20
290.1540797424
 30
0.0
  0
VERTEX
  5
2B7
  8
0
  6
CONTINUOUS
 62
     7
 10
122.2841127953
 20
289.3253606033
 30
0.0
  0
VERTEX
  5
2B8
  8
0
  6
CONTINUOUS
 62
     7
 10
122.9434265933
 20
288.3435052109
 30
0.0
  0
VERTEX
  5
2B9
  8
0
  6
CONTINUOUS
 62
     7
 10
123.4270795426
 20
287.2294109535
 30
0.0
  0
VERTEX
  5
2BA
  8
0
  6
CONTINUOUS
 62
     7
 10
123.7271174035
 20
286.0160511207
 30
0.0
  0
VERTEX
  5
2BB
  8
0
  6
CONTINUOUS
 62
     7
 10
123.8337590537
 20
284.9000971985
 30
0.0
  0
VERTEX
  5
2BC
  8
0
  6
CONTINUOUS
 62
     7
 10
123.7967356286
 20
283.7559741211
 30
0.0
  0
SEQEND
  5
525
  8
0
  6
CONTINUOUS
 62
     7
  0
POLYLINE
  5
57
  8
0
  6
CONTINUOUS
 62
     7
 66
     1
 10
0.0
 20
0.0
 30
0.0
  0
VERTEX
  5
2BD
  8
0
  6
CONTINUOUS
 62
     7
 10
52.5715871892
 20
283.7560098839
 30
0.0
  0
VERTEX
  5
2BE
  8
0
  6
CONTINUOUS
 62
     7
 10
52.5415524087
 20
285.0678246689
 30
0.0
  0
VERTEX
  5
2BF
  8
0
  6
CONTINUOUS
 62
     7
 10
52.7006699881
 20
286.337999649
 30
0.0
  0
VERTEX
  5
2C0
  8
0
  6
CONTINUOUS
 62
     7
 10
53.0500545344
 20
287.5308197212
 30
0.0
  0
VERTEX
  5
2C1
  8
0
  6
CONTINUOUS
 62
     7
 10
53.5820230088
 20
288.6160534096
 30
0.0
  0
VERTEX
  5
2C2
  8
0
  6
CONTINUOUS
 62
     7
 10
54.2897119365
 20
289.5642679405
 30
0.0
  0
VERTEX
  5
2C3
  8
0
  6
CONTINUOUS
 62
     7
 10
55.1543845973
 20
290.3514545631
 30
0.0
  0
VERTEX
  5
2C4
  8
0
  6
CONTINUOUS
 62
     7
 10
56.1531498275
 20
290.9527342987
 30
0.0
  0
VERTEX
  5
2C5
  8
0
  6
CONTINUOUS
 62
     7
 10
56.2563791118
 20
290.9905474853
 30
0.0
  0
SEQEND
  5
524
  8
0
  6
CONTINUOUS
 62
     7
  0
POLYLINE
  5
58
  8
0
  6
CONTINUOUS
 62
     7
 66
     1
 10
0.0
 20
0.0
 30
0.0
  0
VERTEX
  5
2C6
  8
0
  6
CONTINUOUS
 62
     7
 10
62.0499356828
 20
260.8567398262
 30
0.0
  0
VERTEX
  5
2C7
  8
0
  6
CONTINUOUS
 62
     7
 10
64.9675159893
 20
260.7264917564
 30
0.0
  0
VERTEX
  5
2C8
  8
0
  6
CONTINUOUS
 62
     7
 10
67.9286300382
 20
260.6117647362
 30
0.0
  0
VERTEX
  5
2C9
  8
0
  6
CONTINUOUS
 62
     7
 10
70.9277122459
 20
260.5127614212
 30
0.0
  0
VERTEX
  5
2CA
  8
0
  6
CONTINUOUS
 62
     7
 10
75.1858755193
 20
260.4007881355
 30
0.0
  0
VERTEX
  5
2CB
  8
0
  6
CONTINUOUS
 62
     7
 10
79.4919259093
 20
260.3205125999
 30
0.0
  0
VERTEX
  5
2CC
  8
0
  6
CONTINUOUS
 62
     7
 10
83.8300227365
 20
260.2722328377
 30
0.0
  0
VERTEX
  5
2CD
  8
0
  6
CONTINUOUS
 62
     7
 10
88.1841643891
 20
260.2561157417
 30
0.0
  0
VERTEX
  5
2CE
  8
0
  6
CONTINUOUS
 62
     7
 10
92.5383060417
 20
260.2722328377
 30
0.0
  0
VERTEX
  5
2CF
  8
0
  6
CONTINUOUS
 62
     7
 10
96.876402869
 20
260.3205125999
 30
0.0
  0
VERTEX
  5
2D0
  8
0
  6
CONTINUOUS
 62
     7
 10
101.182453259
 20
260.4007881355
 30
0.0
  0
VERTEX
  5
2D1
  8
0
  6
CONTINUOUS
 62
     7
 10
105.4406165323
 20
260.5127614212
 30
0.0
  0
VERTEX
  5
2D2
  8
0
  6
CONTINUOUS
 62
     7
 10
108.43969874
 20
260.6117647362
 30
0.0
  0
VERTEX
  5
2D3
  8
0
  6
CONTINUOUS
 62
     7
 10
111.4008127889
 20
260.7264917564
 30
0.0
  0
VERTEX
  5
2D4
  8
0
  6
CONTINUOUS
 62
     7
 10
114.3183930955
 20
260.8567398262
 30
0.0
  0
SEQEND
  5
523
  8
0
  6
CONTINUOUS
 62
     7
  0
LINE
  5
59
  8
0
  6
CONTINUOUS
 62
     7
 10
70.1841636739
 20
198.9153664779
 30
0.0
 11
70.1841636739
 21
199.9153655243
 31
0.0
  0
LINE
  5
5A
  8
0
  6
CONTINUOUS
 62
     7
 10
70.1841636739
 20
199.9153655243
 30
0.0
 11
106.1841651044
 21
199.9153655243
 31
0.0
  0
LINE
  5
5B
  8
0
  6
CONTINUOUS
 62
     7
 10
106.1841651044
 20
199.9153655243
 30
0.0
 11
106.1841651044
 21
198.9153664779
 31
0.0
  0
LINE
  5
5C
  8
0
  6
CONTINUOUS
 62
     7
 10
70.1841636739
 20
192.5153654289
 30
0.0
 11
70.1841636739
 21
198.9153664779
 31
0.0
  0
ARC
  5
5D
  8
0
  6
CONTINUOUS
 62
     7
 10
73.1841643891
 20
192.515363903
 30
0.0
 40
3.000000000000014
 50
180.0
 51
270.0
  0
LINE
  5
5E
  8
0
  6
CONTINUOUS
 62
     7
 10
103.1841649852
 20
189.5153623295
 30
0.0
 11
73.1841637931
 21
189.5153623295
 31
0.0
  0
ARC
  5
5F
  8
0
  6
CONTINUOUS
 62
     7
 10
103.1841643891
 20
192.515363903
 30
0.0
 40
3.0
 50
270.0
 51
0.0
  0
LINE
  5
60
  8
0
  6
CONTINUOUS
 62
     7
 10
106.1841651044
 20
192.5153654289
 30
0.0
 11
106.1841651044
 21
198.9153664779
 31
0.0
  0
LINE
  5
61
  8
0
  6
CONTINUOUS
 62
     7
 10
91.1841643221
 20
209.9375229549
 30
0.0
 11
91.1841643221
 21
209.636650629
 31
0.0
  0
LINE
  5
62
  8
0
  6
CONTINUOUS
 62
     7
 10
85.1841644562
 20
209.636650629
 30
0.0
 11
85.1841644562
 21
209.945068903
 31
0.0
  0
LINE
  5
63
  8
0
  6
CONTINUOUS
 62
     7
 10
85.1841644562
 20
199.9153655243
 30
0.0
 11
85.1841644562
 21
209.636650629
 31
0.0
  0
LINE
  5
64
  8
0
  6
CONTINUOUS
 62
     7
 10
91.1841643221
 20
209.636650629
 30
0.0
 11
91.1841643221
 21
199.9153655243
 31
0.0
  0
LINE
  5
65
  8
0
  6
CONTINUOUS
 62
     7
 10
85.1841644562
 20
215.1983898353
 30
0.0
 11
85.1841644562
 21
255.017034359
 31
0.0
  0
LINE
  5
66
  8
0
  6
CONTINUOUS
 62
     7
 10
91.1841643221
 20
255.017034359
 30
0.0
 11
91.1841643221
 21
215.2069848251
 31
0.0
  0
LINE
  5
67
  8
0
  6
CONTINUOUS
 62
     7
 10
85.1841644562
 20
255.017034359
 30
0.0
 11
85.1841644562
 21
256.5632622909
 31
0.0
  0
LINE
  5
68
  8
0
  6
CONTINUOUS
 62
     7
 10
91.1841643221
 20
256.5632622909
 30
0.0
 11
91.1841643221
 21
255.017034359
 31
0.0
  0
LINE
  5
69
  8
0
  6
CONTINUOUS
 62
     7
 10
85.1841644562
 20
256.5632622909
 30
0.0
 11
85.1841644562
 21
260.2672260475
 31
0.0
  0
LINE
  5
6A
  8
0
  6
CONTINUOUS
 62
     7
 10
91.1841643221
 20
260.2672260475
 30
0.0
 11
91.1841643221
 21
256.5632622909
 31
0.0
  0
LINE
  5
6B
  8
0
  6
CONTINUOUS
 62
     7
 10
81.0112334034
 20
125.3153639135
 30
0.0
 11
84.7698799512
 21
125.3153639135
 31
0.0
  0
LINE
  5
6C
  8
0
  6
CONTINUOUS
 62
     7
 10
84.7698799512
 20
124.115363903
 30
0.0
 11
81.0112334034
 21
124.115363903
 31
0.0
  0
LINE
  5
6D
  8
0
  6
CONTINUOUS
 62
     7
 10
91.598448827
 20
125.3153639135
 30
0.0
 11
95.3570953748
 21
125.3153639135
 31
0.0
  0
LINE
  5
6E
  8
0
  6
CONTINUOUS
 62
     7
 10
95.3570953748
 20
124.115363903
 30
0.0
 11
91.598448827
 21
124.115363903
 31
0.0
  0
LINE
  5
6F
  8
0
  6
CONTINUOUS
 62
     7
 10
84.7698799512
 20
125.3153639135
 30
0.0
 11
91.598448827
 21
125.3153639135
 31
0.0
  0
LINE
  5
70
  8
0
  6
CONTINUOUS
 62
     7
 10
84.7698799512
 20
124.115363903
 30
0.0
 11
91.598448827
 21
124.115363903
 31
0.0
  0
LINE
  5
71
  8
0
  6
CONTINUOUS
 62
     7
 10
100.1841641209
 20
124.115363903
 30
0.0
 11
100.1841641209
 21
125.3153639135
 31
0.0
  0
LINE
  5
72
  8
0
  6
CONTINUOUS
 62
     7
 10
100.1841641209
 20
125.3153639135
 30
0.0
 11
95.3570953748
 21
125.3153639135
 31
0.0
  0
LINE
  5
73
  8
0
  6
CONTINUOUS
 62
     7
 10
95.3570953748
 20
124.115363903
 30
0.0
 11
100.1841641209
 21
124.115363903
 31
0.0
  0
LINE
  5
74
  8
0
  6
CONTINUOUS
 62
     7
 10
76.1841646573
 20
124.115363903
 30
0.0
 11
76.1841646573
 21
125.3153639135
 31
0.0
  0
LINE
  5
75
  8
0
  6
CONTINUOUS
 62
     7
 10
81.0112334034
 20
125.3153639135
 30
0.0
 11
76.1841646573
 21
125.3153639135
 31
0.0
  0
LINE
  5
76
  8
0
  6
CONTINUOUS
 62
     7
 10
76.1841646573
 20
124.115363903
 30
0.0
 11
81.0112334034
 21
124.115363903
 31
0.0
  0
LINE
  5
77
  8
0
  6
CONTINUOUS
 62
     7
 10
131.7841633401
 20
190.3153639507
 30
0.0
 11
131.7841633401
 21
189.715365715
 31
0.0
  0
ARC
  5
78
  8
0
  6
CONTINUOUS
 62
     7
 10
131.3841643891
 20
189.715363903
 30
0.0
 40
0.4000000000000057
 50
270.0
 51
0.0
  0
POLYLINE
  5
79
  8
0
  6
CONTINUOUS
 62
     7
 66
     1
 10
0.0
 20
0.0
 30
0.0
  0
VERTEX
  5
2D5
  8
0
  6
CONTINUOUS
 62
     7
 10
92.9841644308
 20
189.5153623295
 30
0.0
  0
VERTEX
  5
2D6
  8
0
  6
CONTINUOUS
 62
     7
 10
93.0156338206
 20
189.4838970375
 30
0.0
  0
VERTEX
  5
2D7
  8
0
  6
CONTINUOUS
 62
     7
 10
93.1080437443
 20
189.3914859962
 30
0.0
  0
VERTEX
  5
2D8
  8
0
  6
CONTINUOUS
 62
     7
 10
93.1649497888
 20
189.3345814419
 30
0.0
  0
VERTEX
  5
2D9
  8
0
  6
CONTINUOUS
 62
     7
 10
93.1841644636
 20
189.3153649044
 30
0.0
  0
SEQEND
  5
522
  8
0
  6
CONTINUOUS
 62
     7
  0
LINE
  5
7A
  8
0
  6
CONTINUOUS
 62
     7
 10
93.1841644636
 20
189.3153649044
 30
0.0
 11
93.1841644636
 21
125.3153639135
 31
0.0
  0
LINE
  5
7B
  8
0
  6
CONTINUOUS
 62
     7
 10
44.5841654382
 20
198.3153622818
 30
0.0
 11
44.5841654382
 21
198.9153664779
 31
0.0
  0
ARC
  5
7C
  8
0
  6
CONTINUOUS
 62
     7
 10
44.9841643891
 20
198.915363903
 30
0.0
 40
0.3999999999999986
 50
90.0
 51
180.0
  0
LINE
  5
7D
  8
0
  6
CONTINUOUS
 62
     7
 10
44.5841654382
 20
189.715365715
 30
0.0
 11
44.5841654382
 21
190.3153639507
 31
0.0
  0
ARC
  5
7E
  8
0
  6
CONTINUOUS
 62
     7
 10
44.9841643891
 20
189.715363903
 30
0.0
 40
0.4000000000000341
 50
180.0
 51
270.0
  0
POLYLINE
  5
7F
  8
0
  6
CONTINUOUS
 62
     7
 66
     1
 10
0.0
 20
0.0
 30
0.0
  0
VERTEX
  5
2DA
  8
0
  6
CONTINUOUS
 62
     7
 10
83.1841643146
 20
189.3153649044
 30
0.0
  0
VERTEX
  5
2DB
  8
0
  6
CONTINUOUS
 62
     7
 10
83.2033789894
 20
189.3345814419
 30
0.0
  0
VERTEX
  5
2DC
  8
0
  6
CONTINUOUS
 62
     7
 10
83.2602850339
 20
189.3914859962
 30
0.0
  0
VERTEX
  5
2DD
  8
0
  6
CONTINUOUS
 62
     7
 10
83.3526949576
 20
189.4838970375
 30
0.0
  0
VERTEX
  5
2DE
  8
0
  6
CONTINUOUS
 62
     7
 10
83.3841643474
 20
189.5153623295
 30
0.0
  0
SEQEND
  5
521
  8
0
  6
CONTINUOUS
 62
     7
  0
LINE
  5
80
  8
0
  6
CONTINUOUS
 62
     7
 10
83.1841643146
 20
189.3153649044
 30
0.0
 11
44.9841632686
 21
189.3153649044
 31
0.0
  0
LINE
  5
81
  8
0
  6
CONTINUOUS
 62
     7
 10
44.9841632686
 20
199.3153613281
 30
0.0
 11
45.684163197
 21
199.3153613281
 31
0.0
  0
LINE
  5
82
  8
0
  6
CONTINUOUS
 62
     7
 10
55.6841655812
 20
199.3153613281
 30
0.0
 11
70.1841636739
 21
199.3153613281
 31
0.0
  0
LINE
  5
83
  8
0
  6
CONTINUOUS
 62
     7
 10
106.1841651044
 20
199.3153613281
 30
0.0
 11
120.684163197
 21
199.3153613281
 31
0.0
  0
LINE
  5
84
  8
0
  6
CONTINUOUS
 62
     7
 10
130.6841655812
 20
199.3153613281
 30
0.0
 11
131.3841655097
 21
199.3153613281
 31
0.0
  0
LINE
  5
85
  8
0
  6
CONTINUOUS
 62
     7
 10
131.3841655097
 20
189.3153649044
 30
0.0
 11
93.1841644636
 21
189.3153649044
 31
0.0
  0
LINE
  5
86
  8
0
  6
CONTINUOUS
 62
     7
 10
83.1841643146
 20
125.3153639135
 30
0.0
 11
83.1841643146
 21
189.3153649044
 31
0.0
  0
LINE
  5
87
  8
0
  6
CONTINUOUS
 62
     7
 10
131.7841633401
 20
198.3153622818
 30
0.0
 11
131.7841633401
 21
190.3153639507
 31
0.0
  0
LINE
  5
88
  8
0
  6
CONTINUOUS
 62
     7
 10
131.7841633401
 20
198.9153664779
 30
0.0
 11
131.7841633401
 21
198.3153622818
 31
0.0
  0
ARC
  5
89
  8
0
  6
CONTINUOUS
 62
     7
 10
131.3841643891
 20
198.915363903
 30
0.0
 40
0.3999999999999773
 50
0.0
 51
90.0
  0
LINE
  5
8A
  8
0
  6
CONTINUOUS
 62
     7
 10
44.5841654382
 20
190.3153639507
 30
0.0
 11
44.5841654382
 21
198.3153622818
 31
0.0
  0
POLYLINE
  5
8B
  8
0
  6
CONTINUOUS
 62
     7
 66
     1
 10
0.0
 20
0.0
 30
0.0
  0
VERTEX
  5
2DF
  8
0
  6
CONTINUOUS
 62
     7
 10
125.7842346272
 20
215.6460624409
 30
0.0
  0
VERTEX
  5
2E0
  8
0
  6
CONTINUOUS
 62
     7
 10
125.6963624797
 20
215.3919738006
 30
0.0
  0
VERTEX
  5
2E1
  8
0
  6
CONTINUOUS
 62
     7
 10
125.4310473046
 20
215.0369625759
 30
0.0
  0
VERTEX
  5
2E2
  8
0
  6
CONTINUOUS
 62
     7
 10
125.0220491729
 20
214.6052163315
 30
0.0
  0
VERTEX
  5
2E3
  8
0
  6
CONTINUOUS
 62
     7
 10
124.4636341176
 20
214.1032796573
 30
0.0
  0
VERTEX
  5
2E4
  8
0
  6
CONTINUOUS
 62
     7
 10
123.7276717267
 20
213.5478001308
 30
0.0
  0
VERTEX
  5
2E5
  8
0
  6
CONTINUOUS
 62
     7
 10
122.825594171
 20
212.9995983314
 30
0.0
  0
VERTEX
  5
2E6
  8
0
  6
CONTINUOUS
 62
     7
 10
121.9592138371
 20
212.591771431
 30
0.0
  0
VERTEX
  5
2E7
  8
0
  6
CONTINUOUS
 62
     7
 10
120.975540503
 20
212.2542899322
 30
0.0
  0
VERTEX
  5
2E8
  8
0
  6
CONTINUOUS
 62
     7
 10
120.3504725537
 20
212.1040206623
 30
0.0
  0
VERTEX
  5
2E9
  8
0
  6
CONTINUOUS
 62
     7
 10
119.6966662249
 20
211.9975667667
 30
0.0
  0
SEQEND
  5
520
  8
0
  6
CONTINUOUS
 62
     7
  0
POLYLINE
  5
8C
  8
0
  6
CONTINUOUS
 62
     7
 66
     1
 10
0.0
 20
0.0
 30
0.0
  0
VERTEX
  5
2EA
  8
0
  6
CONTINUOUS
 62
     7
 10
125.7842346272
 20
215.6460624409
 30
0.0
  0
VERTEX
  5
2EB
  8
0
  6
CONTINUOUS
 62
     7
 10
125.7842346272
 20
215.7008510303
 30
0.0
  0
VERTEX
  5
2EC
  8
0
  6
CONTINUOUS
 62
     7
 10
125.7840200505
 20
215.993545599
 30
0.0
  0
VERTEX
  5
2ED
  8
0
  6
CONTINUOUS
 62
     7
 10
125.7835432134
 20
216.1162536812
 30
0.0
  0
VERTEX
  5
2EE
  8
0
  6
CONTINUOUS
 62
     7
 10
125.7831915459
 20
216.1298852634
 30
0.0
  0
VERTEX
  5
2EF
  8
0
  6
CONTINUOUS
 62
     7
 10
125.7834389052
 20
216.1170285415
 30
0.0
  0
SEQEND
  5
51F
  8
0
  6
CONTINUOUS
 62
     7
  0
POLYLINE
  5
8D
  8
0
  6
CONTINUOUS
 62
     7
 66
     1
 10
0.0
 20
0.0
 30
0.0
  0
VERTEX
  5
2F0
  8
0
  6
CONTINUOUS
 62
     7
 10
125.7841631017
 20
216.4134603214
 30
0.0
  0
VERTEX
  5
2F1
  8
0
  6
CONTINUOUS
 62
     7
 10
125.7694556556
 20
216.3656991196
 30
0.0
  0
VERTEX
  5
2F2
  8
0
  6
CONTINUOUS
 62
     7
 10
125.7841690621
 20
216.2389021587
 30
0.0
  0
SEQEND
  5
51E
  8
0
  6
CONTINUOUS
 62
     7
  0
POLYLINE
  5
8E
  8
0
  6
CONTINUOUS
 62
     7
 66
     1
 10
0.0
 20
0.0
 30
0.0
  0
VERTEX
  5
2F3
  8
0
  6
CONTINUOUS
 62
     7
 10
50.5841597161
 20
216.2389021587
 30
0.0
  0
VERTEX
  5
2F4
  8
0
  6
CONTINUOUS
 62
     7
 10
50.5988731227
 20
216.3656991196
 30
0.0
  0
VERTEX
  5
2F5
  8
0
  6
CONTINUOUS
 62
     7
 10
50.5841656766
 20
216.4134603214
 30
0.0
  0
SEQEND
  5
51D
  8
0
  6
CONTINUOUS
 62
     7
  0
POLYLINE
  5
8F
  8
0
  6
CONTINUOUS
 62
     7
 66
     1
 10
0.0
 20
0.0
 30
0.0
  0
VERTEX
  5
2F6
  8
0
  6
CONTINUOUS
 62
     7
 10
50.584094151
 20
215.6462412548
 30
0.0
  0
VERTEX
  5
2F7
  8
0
  6
CONTINUOUS
 62
     7
 10
50.584094151
 20
215.6509381008
 30
0.0
  0
VERTEX
  5
2F8
  8
0
  6
CONTINUOUS
 62
     7
 10
50.5842640242
 20
215.9694355202
 30
0.0
  0
VERTEX
  5
2F9
  8
0
  6
CONTINUOUS
 62
     7
 10
50.5847289405
 20
216.1086779308
 30
0.0
  0
VERTEX
  5
2FA
  8
0
  6
CONTINUOUS
 62
     7
 10
50.5851133904
 20
216.1320429516
 30
0.0
  0
VERTEX
  5
2FB
  8
0
  6
CONTINUOUS
 62
     7
 10
50.5850627265
 20
216.1146324348
 30
0.0
  0
SEQEND
  5
51C
  8
0
  6
CONTINUOUS
 62
     7
  0
POLYLINE
  5
90
  8
0
  6
CONTINUOUS
 62
     7
 66
     1
 10
0.0
 20
0.0
 30
0.0
  0
VERTEX
  5
2FC
  8
0
  6
CONTINUOUS
 62
     7
 10
56.6716625533
 20
211.9975667667
 30
0.0
  0
VERTEX
  5
2FD
  8
0
  6
CONTINUOUS
 62
     7
 10
55.6576146922
 20
212.1847313118
 30
0.0
  0
VERTEX
  5
2FE
  8
0
  6
CONTINUOUS
 62
     7
 10
54.6723081908
 20
212.4889116955
 30
0.0
  0
VERTEX
  5
2FF
  8
0
  6
CONTINUOUS
 62
     7
 10
53.8034691653
 20
212.8653031063
 30
0.0
  0
VERTEX
  5
300
  8
0
  6
CONTINUOUS
 62
     7
 10
53.0101998887
 20
213.3068721962
 30
0.0
  0
VERTEX
  5
301
  8
0
  6
CONTINUOUS
 62
     7
 10
52.2527291617
 20
213.8272386265
 30
0.0
  0
VERTEX
  5
302
  8
0
  6
CONTINUOUS
 62
     7
 10
51.6114338479
 20
214.356796093
 30
0.0
  0
VERTEX
  5
303
  8
0
  6
CONTINUOUS
 62
     7
 10
51.0651990018
 20
214.8938041401
 30
0.0
  0
VERTEX
  5
304
  8
0
  6
CONTINUOUS
 62
     7
 10
50.857056602
 20
215.132425375
 30
0.0
  0
VERTEX
  5
305
  8
0
  6
CONTINUOUS
 62
     7
 10
50.7049425683
 20
215.3384547901
 30
0.0
  0
VERTEX
  5
306
  8
0
  6
CONTINUOUS
 62
     7
 10
50.584094151
 20
215.6462412548
 30
0.0
  0
SEQEND
  5
51B
  8
0
  6
CONTINUOUS
 62
     7
  0
POLYLINE
  5
91
  8
0
  6
CONTINUOUS
 62
     7
 66
     1
 10
0.0
 20
0.0
 30
0.0
  0
VERTEX
  5
307
  8
0
  6
CONTINUOUS
 62
     7
 10
119.6966662249
 20
211.9975667667
 30
0.0
  0
VERTEX
  5
308
  8
0
  6
CONTINUOUS
 62
     7
 10
112.607335969
 20
211.1966531944
 30
0.0
  0
VERTEX
  5
309
  8
0
  6
CONTINUOUS
 62
     7
 10
105.4902701816
 20
210.5692129803
 30
0.0
  0
VERTEX
  5
30A
  8
0
  6
CONTINUOUS
 62
     7
 10
98.3173622928
 20
210.1426463795
 30
0.0
  0
VERTEX
  5
30B
  8
0
  6
CONTINUOUS
 62
     7
 10
91.1304381854
 20
209.9354308319
 30
0.0
  0
VERTEX
  5
30C
  8
0
  6
CONTINUOUS
 62
     7
 10
86.0674015424
 20
209.9262338352
 30
0.0
  0
VERTEX
  5
30D
  8
0
  6
CONTINUOUS
 62
     7
 10
81.0058749459
 20
210.0299041939
 30
0.0
  0
VERTEX
  5
30E
  8
0
  6
CONTINUOUS
 62
     7
 10
75.9352094672
 20
210.245839901
 30
0.0
  0
VERTEX
  5
30F
  8
0
  6
CONTINUOUS
 62
     7
 10
70.8729325971
 20
210.56959445
 30
0.0
  0
VERTEX
  5
310
  8
0
  6
CONTINUOUS
 62
     7
 10
63.7620522818
 20
211.1961465549
 30
0.0
  0
VERTEX
  5
311
  8
0
  6
CONTINUOUS
 62
     7
 10
56.6716625533
 20
211.9975667667
 30
0.0
  0
SEQEND
  5
51A
  8
0
  6
CONTINUOUS
 62
     7
  0
POLYLINE
  5
92
  8
0
  6
CONTINUOUS
 62
     7
 66
     1
 10
0.0
 20
0.0
 30
0.0
  0
VERTEX
  5
312
  8
0
  6
CONTINUOUS
 62
     7
 10
56.8515642724
 20
217.3301380348
 30
0.0
  0
VERTEX
  5
313
  8
0
  6
CONTINUOUS
 62
     7
 10
55.8450891814
 20
217.5477843952
 30
0.0
  0
VERTEX
  5
314
  8
0
  6
CONTINUOUS
 62
     7
 10
54.9204959712
 20
217.7375953865
 30
0.0
  0
VERTEX
  5
315
  8
0
  6
CONTINUOUS
 62
     7
 10
54.1530057034
 20
217.8755682182
 30
0.0
  0
VERTEX
  5
316
  8
0
  6
CONTINUOUS
 62
     7
 10
53.5175218425
 20
217.9594915581
 30
0.0
  0
VERTEX
  5
317
  8
0
  6
CONTINUOUS
 62
     7
 10
53.2157941899
 20
217.9802458954
 30
0.0
  0
VERTEX
  5
318
  8
0
  6
CONTINUOUS
 62
     7
 10
52.977801784
 20
217.9788213444
 30
0.0
  0
SEQEND
  5
519
  8
0
  6
CONTINUOUS
 62
     7
  0
ARC
  5
93
  8
0
  6
CONTINUOUS
 62
     7
 10
88.0677842775
 20
356.5620952654
 30
0.0
 40
142.6884378835953
 50
257.3630892534
 51
260.3830757402
  0
ARC
  5
94
  8
0
  6
CONTINUOUS
 62
     7
 10
87.582615807
 20
360.1918067483
 30
0.0
 40
146.3873158464505
 50
279.6013439636
 51
282.6002988363
  0
POLYLINE
  5
95
  8
0
  6
CONTINUOUS
 62
     7
 66
     1
 10
0.0
 20
0.0
 30
0.0
  0
VERTEX
  5
319
  8
0
  6
CONTINUOUS
 62
     7
 10
123.3905269942
 20
217.9788213444
 30
0.0
  0
VERTEX
  5
31A
  8
0
  6
CONTINUOUS
 62
     7
 10
122.9714377961
 20
217.96991045
 30
0.0
  0
VERTEX
  5
31B
  8
0
  6
CONTINUOUS
 62
     7
 10
122.3618074498
 20
217.8981941414
 30
0.0
  0
VERTEX
  5
31C
  8
0
  6
CONTINUOUS
 62
     7
 10
121.610562428
 20
217.7689355087
 30
0.0
  0
VERTEX
  5
31D
  8
0
  6
CONTINUOUS
 62
     7
 10
120.6931873402
 20
217.5837438774
 30
0.0
  0
VERTEX
  5
31E
  8
0
  6
CONTINUOUS
 62
     7
 10
119.5167645058
 20
217.3301380348
 30
0.0
  0
SEQEND
  5
518
  8
0
  6
CONTINUOUS
 62
     7
  0
POLYLINE
  5
96
  8
0
  6
CONTINUOUS
 62
     7
 66
     1
 10
0.0
 20
0.0
 30
0.0
  0
VERTEX
  5
31F
  8
0
  6
CONTINUOUS
 62
     7
 10
123.3905091128
 20
217.9788988304
 30
0.0
  0
VERTEX
  5
320
  8
0
  6
CONTINUOUS
 62
     7
 10
124.3075742564
 20
217.9240863991
 30
0.0
  0
VERTEX
  5
321
  8
0
  6
CONTINUOUS
 62
     7
 10
124.9087496838
 20
217.8695481491
 30
0.0
  0
VERTEX
  5
322
  8
0
  6
CONTINUOUS
 62
     7
 10
125.2662702641
 20
217.8138178062
 30
0.0
  0
VERTEX
  5
323
  8
0
  6
CONTINUOUS
 62
     7
 10
125.4810287795
 20
217.7572053146
 30
0.0
  0
VERTEX
  5
324
  8
0
  6
CONTINUOUS
 62
     7
 10
125.5627765498
 20
217.6987748813
 30
0.0
  0
VERTEX
  5
325
  8
0
  6
CONTINUOUS
 62
     7
 10
125.5596115432
 20
217.6412206364
 30
0.0
  0
VERTEX
  5
326
  8
0
  6
CONTINUOUS
 62
     7
 10
125.5325093112
 20
217.5883691978
 30
0.0
  0
VERTEX
  5
327
  8
0
  6
CONTINUOUS
 62
     7
 10
125.530351623
 20
217.5415080261
 30
0.0
  0
VERTEX
  5
328
  8
0
  6
CONTINUOUS
 62
     7
 10
125.5772873006
 20
217.433212347
 30
0.0
  0
VERTEX
  5
329
  8
0
  6
CONTINUOUS
 62
     7
 10
125.5865230403
 20
217.3916559887
 30
0.0
  0
SEQEND
  5
517
  8
0
  6
CONTINUOUS
 62
     7
  0
ARC
  5
97
  8
0
  6
CONTINUOUS
 62
     7
 10
120.7391452742
 20
216.562684804
 30
0.0
 40
4.946513259058296
 50
3.5868728639
 51
8.4287436192
  0
POLYLINE
  5
98
  8
0
  6
CONTINUOUS
 62
     7
 66
     1
 10
0.0
 20
0.0
 30
0.0
  0
VERTEX
  5
32A
  8
0
  6
CONTINUOUS
 62
     7
 10
119.5873274646
 20
213.4943168831
 30
0.0
  0
VERTEX
  5
32B
  8
0
  6
CONTINUOUS
 62
     7
 10
120.6110223374
 20
213.6732440662
 30
0.0
  0
VERTEX
  5
32C
  8
0
  6
CONTINUOUS
 62
     7
 10
121.6070040307
 20
213.9640253258
 30
0.0
  0
VERTEX
  5
32D
  8
0
  6
CONTINUOUS
 62
     7
 10
122.4872543654
 20
214.3229704571
 30
0.0
  0
VERTEX
  5
32E
  8
0
  6
CONTINUOUS
 62
     7
 10
123.2918842873
 20
214.7417765331
 30
0.0
  0
VERTEX
  5
32F
  8
0
  6
CONTINUOUS
 62
     7
 10
124.0516050897
 20
215.2254801464
 30
0.0
  0
VERTEX
  5
330
  8
0
  6
CONTINUOUS
 62
     7
 10
124.6930076918
 20
215.7120567036
 30
0.0
  0
VERTEX
  5
331
  8
0
  6
CONTINUOUS
 62
     7
 10
125.2207263551
 20
216.1853533459
 30
0.0
  0
VERTEX
  5
332
  8
0
  6
CONTINUOUS
 62
     7
 10
125.563959702
 20
216.5784817409
 30
0.0
  0
VERTEX
  5
333
  8
0
  6
CONTINUOUS
 62
     7
 10
125.6520404658
 20
216.7391460609
 30
0.0
  0
VERTEX
  5
334
  8
0
  6
CONTINUOUS
 62
     7
 10
125.6759687505
 20
216.8721419048
 30
0.0
  0
SEQEND
  5
516
  8
0
  6
CONTINUOUS
 62
     7
  0
POLYLINE
  5
99
  8
0
  6
CONTINUOUS
 62
     7
 66
     1
 10
0.0
 20
0.0
 30
0.0
  0
VERTEX
  5
335
  8
0
  6
CONTINUOUS
 62
     7
 10
119.5873274646
 20
213.4943168831
 30
0.0
  0
VERTEX
  5
336
  8
0
  6
CONTINUOUS
 62
     7
 10
114.236502274
 20
212.907723732
 30
0.0
  0
VERTEX
  5
337
  8
0
  6
CONTINUOUS
 62
     7
 10
108.8703452787
 20
212.4097209644
 30
0.0
  0
VERTEX
  5
338
  8
0
  6
CONTINUOUS
 62
     7
 10
103.4780903897
 20
212.0125692558
 30
0.0
  0
VERTEX
  5
339
  8
0
  6
CONTINUOUS
 62
     7
 10
98.0749971411
 20
211.7275875282
 30
0.0
  0
VERTEX
  5
33A
  8
0
  6
CONTINUOUS
 62
     7
 10
92.1735073618
 20
211.5539234352
 30
0.0
  0
VERTEX
  5
33B
  8
0
  6
CONTINUOUS
 62
     7
 10
86.2683586023
 20
211.5275901031
 30
0.0
  0
VERTEX
  5
33C
  8
0
  6
CONTINUOUS
 62
     7
 10
80.3431957207
 20
211.6508644295
 30
0.0
  0
VERTEX
  5
33D
  8
0
  6
CONTINUOUS
 62
     7
 10
74.4251503787
 20
211.9196336937
 30
0.0
  0
VERTEX
  5
33E
  8
0
  6
CONTINUOUS
 62
     7
 10
70.0038640938
 20
212.2116487694
 30
0.0
  0
VERTEX
  5
33F
  8
0
  6
CONTINUOUS
 62
     7
 10
65.590920969
 20
212.5755470466
 30
0.0
  0
VERTEX
  5
340
  8
0
  6
CONTINUOUS
 62
     7
 10
61.1806794247
 20
213.0057674122
 30
0.0
  0
VERTEX
  5
341
  8
0
  6
CONTINUOUS
 62
     7
 10
56.7810013137
 20
213.4943168831
 30
0.0
  0
SEQEND
  5
515
  8
0
  6
CONTINUOUS
 62
     7
  0
POLYLINE
  5
9A
  8
0
  6
CONTINUOUS
 62
     7
 66
     1
 10
0.0
 20
0.0
 30
0.0
  0
VERTEX
  5
342
  8
0
  6
CONTINUOUS
 62
     7
 10
50.6923600278
 20
216.8721419048
 30
0.0
  0
VERTEX
  5
343
  8
0
  6
CONTINUOUS
 62
     7
 10
50.766701921
 20
216.6374843788
 30
0.0
  0
VERTEX
  5
344
  8
0
  6
CONTINUOUS
 62
     7
 10
51.0239466271
 20
216.3120787811
 30
0.0
  0
VERTEX
  5
345
  8
0
  6
CONTINUOUS
 62
     7
 10
51.4336987576
 20
215.918449707
 30
0.0
  0
VERTEX
  5
346
  8
0
  6
CONTINUOUS
 62
     7
 10
52.0014598212
 20
215.4546302032
 30
0.0
  0
VERTEX
  5
347
  8
0
  6
CONTINUOUS
 62
     7
 10
52.7341856799
 20
214.9483900738
 30
0.0
  0
VERTEX
  5
348
  8
0
  6
CONTINUOUS
 62
     7
 10
53.6303772769
 20
214.443789072
 30
0.0
  0
VERTEX
  5
349
  8
0
  6
CONTINUOUS
 62
     7
 10
54.5104905209
 20
214.0562456322
 30
0.0
  0
VERTEX
  5
34A
  8
0
  6
CONTINUOUS
 62
     7
 10
55.508227571
 20
213.7349229526
 30
0.0
  0
VERTEX
  5
34B
  8
0
  6
CONTINUOUS
 62
     7
 10
56.1310365043
 20
213.5941546631
 30
0.0
  0
VERTEX
  5
34C
  8
0
  6
CONTINUOUS
 62
     7
 10
56.7810013137
 20
213.4943168831
 30
0.0
  0
SEQEND
  5
514
  8
0
  6
CONTINUOUS
 62
     7
  0
POLYLINE
  5
9B
  8
0
  6
CONTINUOUS
 62
     7
 66
     1
 10
0.0
 20
0.0
 30
0.0
  0
VERTEX
  5
34D
  8
0
  6
CONTINUOUS
 62
     7
 10
50.6923600278
 20
216.8721478653
 30
0.0
  0
VERTEX
  5
34E
  8
0
  6
CONTINUOUS
 62
     7
 10
50.7206781945
 20
217.1684842777
 30
0.0
  0
VERTEX
  5
34F
  8
0
  6
CONTINUOUS
 62
     7
 10
50.7365062079
 20
217.2931593132
 30
0.0
  0
SEQEND
  5
513
  8
0
  6
CONTINUOUS
 62
     7
  0
POLYLINE
  5
9C
  8
0
  6
CONTINUOUS
 62
     7
 66
     1
 10
0.0
 20
0.0
 30
0.0
  0
VERTEX
  5
350
  8
0
  6
CONTINUOUS
 62
     7
 10
50.7818742833
 20
217.3911493492
 30
0.0
  0
VERTEX
  5
351
  8
0
  6
CONTINUOUS
 62
     7
 10
50.7919862113
 20
217.4357932281
 30
0.0
  0
VERTEX
  5
352
  8
0
  6
CONTINUOUS
 62
     7
 10
50.8379771552
 20
217.5415080261
 30
0.0
  0
VERTEX
  5
353
  8
0
  6
CONTINUOUS
 62
     7
 10
50.8358194671
 20
217.5883691978
 30
0.0
  0
VERTEX
  5
354
  8
0
  6
CONTINUOUS
 62
     7
 10
50.8087172351
 20
217.6412206364
 30
0.0
  0
VERTEX
  5
355
  8
0
  6
CONTINUOUS
 62
     7
 10
50.8055522284
 20
217.6987748813
 30
0.0
  0
VERTEX
  5
356
  8
0
  6
CONTINUOUS
 62
     7
 10
50.8872999987
 20
217.7572053146
 30
0.0
  0
VERTEX
  5
357
  8
0
  6
CONTINUOUS
 62
     7
 10
51.1020585141
 20
217.8138178062
 30
0.0
  0
VERTEX
  5
358
  8
0
  6
CONTINUOUS
 62
     7
 10
51.4595790944
 20
217.8695481491
 30
0.0
  0
VERTEX
  5
359
  8
0
  6
CONTINUOUS
 62
     7
 10
52.0607545218
 20
217.9240863991
 30
0.0
  0
VERTEX
  5
35A
  8
0
  6
CONTINUOUS
 62
     7
 10
52.9778196654
 20
217.9788988304
 30
0.0
  0
SEQEND
  5
512
  8
0
  6
CONTINUOUS
 62
     7
  0
LINE
  5
9D
  8
0
  6
CONTINUOUS
 62
     7
 10
125.7841631017
 20
216.4139490795
 30
0.0
 11
125.7841631017
 21
216.7196493816
 31
0.0
  0
LINE
  5
9E
  8
0
  6
CONTINUOUS
 62
     7
 10
50.5841656766
 20
216.2389021587
 30
0.0
 11
50.5841656766
 21
216.0644393635
 31
0.0
  0
LINE
  5
9F
  8
0
  6
CONTINUOUS
 62
     7
 10
50.5841656766
 20
216.7094569874
 30
0.0
 11
50.5841656766
 21
216.4139490795
 31
0.0
  0
LINE
  5
A0
  8
0
  6
CONTINUOUS
 62
     7
 10
50.4841639838
 20
211.4022892189
 30
0.0
 11
50.4841639838
 21
213.3669954014
 31
0.0
  0
LINE
  5
A1
  8
0
  6
CONTINUOUS
 62
     7
 10
51.2841656051
 20
213.3669954014
 30
0.0
 11
51.2841656051
 21
211.4022892189
 31
0.0
  0
LINE
  5
A2
  8
0
  6
CONTINUOUS
 62
     7
 10
50.4841639838
 20
214.6181505394
 30
0.0
 11
50.4841639838
 21
213.3669954014
 31
0.0
  0
ARC
  5
A3
  8
0
  6
CONTINUOUS
 62
     7
 10
51.4841643891
 20
214.6181498359
 30
0.0
 40
1.0
 50
138.1768700679
 51
180.0
  0
LINE
  5
A4
  8
0
  6
CONTINUOUS
 62
     7
 10
51.2841656051
 20
213.3669954014
 30
0.0
 11
51.2841656051
 21
214.678536005
 31
0.0
  0
LINE
  5
A5
  8
0
  6
CONTINUOUS
 62
     7
 10
50.4841639838
 20
205.5800359917
 30
0.0
 11
50.4841639838
 21
211.4022892189
 31
0.0
  0
LINE
  5
A6
  8
0
  6
CONTINUOUS
 62
     7
 10
51.2841656051
 20
211.4022892189
 30
0.0
 11
51.2841656051
 21
205.5800359917
 31
0.0
  0
LINE
  5
A7
  8
0
  6
CONTINUOUS
 62
     7
 10
50.4841639838
 20
205.5800359917
 30
0.0
 11
50.4841639838
 21
205.315445013
 31
0.0
  0
LINE
  5
A8
  8
0
  6
CONTINUOUS
 62
     7
 10
51.2841656051
 20
205.315445013
 30
0.0
 11
51.2841656051
 21
205.5800359917
 31
0.0
  0
LINE
  5
A9
  8
0
  6
CONTINUOUS
 62
     7
 10
50.4841639838
 20
203.4230750274
 30
0.0
 11
50.4841639838
 21
205.315445013
 31
0.0
  0
LINE
  5
AA
  8
0
  6
CONTINUOUS
 62
     7
 10
51.2841656051
 20
205.315445013
 30
0.0
 11
51.2841656051
 21
203.4230750274
 31
0.0
  0
LINE
  5
AB
  8
0
  6
CONTINUOUS
 62
     7
 10
50.4841639838
 20
200.0111025047
 30
0.0
 11
50.4841639838
 21
203.4230750274
 31
0.0
  0
LINE
  5
AC
  8
0
  6
CONTINUOUS
 62
     7
 10
51.2841656051
 20
203.4230750274
 30
0.0
 11
51.2841656051
 21
200.0111025047
 31
0.0
  0
LINE
  5
AD
  8
0
  6
CONTINUOUS
 62
     7
 10
50.4841639838
 20
198.1153648567
 30
0.0
 11
50.4841639838
 21
200.0111025047
 31
0.0
  0
LINE
  5
AE
  8
0
  6
CONTINUOUS
 62
     7
 10
51.2841656051
 20
200.0111025047
 30
0.0
 11
51.2841656051
 21
198.1153648567
 31
0.0
  0
LINE
  5
AF
  8
0
  6
CONTINUOUS
 62
     7
 10
51.2841656051
 20
196.1153667641
 30
0.0
 11
50.4841639838
 21
196.1153667641
 31
0.0
  0
LINE
  5
B0
  8
0
  6
CONTINUOUS
 62
     7
 10
50.4841639838
 20
196.1153667641
 30
0.0
 11
50.4841639838
 21
198.1153648567
 31
0.0
  0
LINE
  5
B1
  8
0
  6
CONTINUOUS
 62
     7
 10
51.2841656051
 20
198.1153648567
 30
0.0
 11
51.2841656051
 21
196.1153667641
 31
0.0
  0
LINE
  5
B2
  8
0
  6
CONTINUOUS
 62
     7
 10
45.684163197
 20
198.9153664779
 30
0.0
 11
45.684163197
 21
191.5153663826
 31
0.0
  0
LINE
  5
B3
  8
0
  6
CONTINUOUS
 62
     7
 10
55.6841655812
 20
198.9153664779
 30
0.0
 11
55.6841655812
 21
191.5153663826
 31
0.0
  0
ARC
  5
B4
  8
0
  6
CONTINUOUS
 62
     7
 10
53.6841643891
 20
191.515363903
 30
0.0
 40
2.0
 50
270.0
 51
0.0
  0
ARC
  5
B5
  8
0
  6
CONTINUOUS
 62
     7
 10
47.6841643891
 20
191.515363903
 30
0.0
 40
2.0
 50
180.0
 51
270.0
  0
LINE
  5
B6
  8
0
  6
CONTINUOUS
 62
     7
 10
53.6841645083
 20
189.5153623295
 30
0.0
 11
47.6841642699
 21
189.5153623295
 31
0.0
  0
LINE
  5
B7
  8
0
  6
CONTINUOUS
 62
     7
 10
55.6841655812
 20
199.9153655243
 30
0.0
 11
51.2841656051
 21
199.9153655243
 31
0.0
  0
LINE
  5
B8
  8
0
  6
CONTINUOUS
 62
     7
 10
55.6841655812
 20
199.9153655243
 30
0.0
 11
55.6841655812
 21
198.9153664779
 31
0.0
  0
LINE
  5
B9
  8
0
  6
CONTINUOUS
 62
     7
 10
50.4841639838
 20
199.9153655243
 30
0.0
 11
45.684163197
 21
199.9153655243
 31
0.0
  0
LINE
  5
BA
  8
0
  6
CONTINUOUS
 62
     7
 10
45.684163197
 20
199.9153655243
 30
0.0
 11
45.684163197
 21
198.9153664779
 31
0.0
  0
LINE
  5
BB
  8
0
  6
CONTINUOUS
 62
     7
 10
125.0841631732
 20
213.3669954014
 30
0.0
 11
125.0841631732
 21
211.4022892189
 31
0.0
  0
LINE
  5
BC
  8
0
  6
CONTINUOUS
 62
     7
 10
125.8841647944
 20
211.4022892189
 30
0.0
 11
125.8841647944
 21
213.3669954014
 31
0.0
  0
LINE
  5
BD
  8
0
  6
CONTINUOUS
 62
     7
 10
125.0841631732
 20
213.3669954014
 30
0.0
 11
125.0841631732
 21
214.6707874012
 31
0.0
  0
LINE
  5
BE
  8
0
  6
CONTINUOUS
 62
     7
 10
125.8841647944
 20
214.6181505394
 30
0.0
 11
125.8841647944
 21
213.3669954014
 31
0.0
  0
ARC
  5
BF
  8
0
  6
CONTINUOUS
 62
     7
 10
124.8841643891
 20
214.6181498359
 30
0.0
 40
1.000000000000009
 50
0.0
 51
42.1872028391
  0
LINE
  5
C0
  8
0
  6
CONTINUOUS
 62
     7
 10
125.0841631732
 20
211.4022892189
 30
0.0
 11
125.0841631732
 21
205.5800359917
 31
0.0
  0
LINE
  5
C1
  8
0
  6
CONTINUOUS
 62
     7
 10
125.8841647944
 20
205.5800359917
 30
0.0
 11
125.8841647944
 21
211.4022892189
 31
0.0
  0
LINE
  5
C2
  8
0
  6
CONTINUOUS
 62
     7
 10
125.0841631732
 20
205.315445013
 30
0.0
 11
125.0841631732
 21
205.5800359917
 31
0.0
  0
LINE
  5
C3
  8
0
  6
CONTINUOUS
 62
     7
 10
125.8841647944
 20
205.5800359917
 30
0.0
 11
125.8841647944
 21
205.315445013
 31
0.0
  0
LINE
  5
C4
  8
0
  6
CONTINUOUS
 62
     7
 10
125.0841631732
 20
205.315445013
 30
0.0
 11
125.0841631732
 21
203.4230750274
 31
0.0
  0
LINE
  5
C5
  8
0
  6
CONTINUOUS
 62
     7
 10
125.8841647944
 20
203.4230750274
 30
0.0
 11
125.8841647944
 21
205.315445013
 31
0.0
  0
LINE
  5
C6
  8
0
  6
CONTINUOUS
 62
     7
 10
125.0841631732
 20
203.4230750274
 30
0.0
 11
125.0841631732
 21
200.0111025047
 31
0.0
  0
LINE
  5
C7
  8
0
  6
CONTINUOUS
 62
     7
 10
125.8841647944
 20
200.0111025047
 30
0.0
 11
125.8841647944
 21
203.4230750274
 31
0.0
  0
LINE
  5
C8
  8
0
  6
CONTINUOUS
 62
     7
 10
125.0841631732
 20
200.0111025047
 30
0.0
 11
125.0841631732
 21
198.1153648567
 31
0.0
  0
LINE
  5
C9
  8
0
  6
CONTINUOUS
 62
     7
 10
125.8841647944
 20
198.1153648567
 30
0.0
 11
125.8841647944
 21
200.0111025047
 31
0.0
  0
LINE
  5
CA
  8
0
  6
CONTINUOUS
 62
     7
 10
125.0841631732
 20
196.1153667641
 30
0.0
 11
125.8841647944
 21
196.1153667641
 31
0.0
  0
LINE
  5
CB
  8
0
  6
CONTINUOUS
 62
     7
 10
125.0841631732
 20
198.1153648567
 30
0.0
 11
125.0841631732
 21
196.1153667641
 31
0.0
  0
LINE
  5
CC
  8
0
  6
CONTINUOUS
 62
     7
 10
125.8841647944
 20
196.1153667641
 30
0.0
 11
125.8841647944
 21
198.1153648567
 31
0.0
  0
LINE
  5
CD
  8
0
  6
CONTINUOUS
 62
     7
 10
120.684163197
 20
198.9153664779
 30
0.0
 11
120.684163197
 21
191.5153663826
 31
0.0
  0
LINE
  5
CE
  8
0
  6
CONTINUOUS
 62
     7
 10
130.6841655812
 20
198.9153664779
 30
0.0
 11
130.6841655812
 21
191.5153663826
 31
0.0
  0
ARC
  5
CF
  8
0
  6
CONTINUOUS
 62
     7
 10
122.6841643891
 20
191.515363903
 30
0.0
 40
2.0
 50
180.0
 51
270.0
  0
LINE
  5
D0
  8
0
  6
CONTINUOUS
 62
     7
 10
122.6841642699
 20
189.5153623295
 30
0.0
 11
128.6841645083
 21
189.5153623295
 31
0.0
  0
ARC
  5
D1
  8
0
  6
CONTINUOUS
 62
     7
 10
128.6841643891
 20
191.515363903
 30
0.0
 40
2.0
 50
270.0
 51
0.0
  0
LINE
  5
D2
  8
0
  6
CONTINUOUS
 62
     7
 10
120.684163197
 20
199.9153655243
 30
0.0
 11
125.0841631732
 21
199.9153655243
 31
0.0
  0
LINE
  5
D3
  8
0
  6
CONTINUOUS
 62
     7
 10
120.684163197
 20
199.9153655243
 30
0.0
 11
120.684163197
 21
198.9153664779
 31
0.0
  0
LINE
  5
D4
  8
0
  6
CONTINUOUS
 62
     7
 10
125.8841647944
 20
199.9153655243
 30
0.0
 11
130.6841655812
 21
199.9153655243
 31
0.0
  0
LINE
  5
D5
  8
0
  6
CONTINUOUS
 62
     7
 10
130.6841655812
 20
199.9153655243
 30
0.0
 11
130.6841655812
 21
198.9153664779
 31
0.0
  0
POLYLINE
  5
D6
  8
0
  6
CONTINUOUS
 62
     7
 66
     1
 10
0.0
 20
0.0
 30
0.0
  0
VERTEX
  5
35B
  8
0
  6
CONTINUOUS
 62
     7
 10
202.0521321118
 20
290.8544343185
 30
0.0
  0
VERTEX
  5
35C
  8
0
  6
CONTINUOUS
 62
     7
 10
202.6374094903
 20
288.2149379921
 30
0.0
  0
VERTEX
  5
35D
  8
0
  6
CONTINUOUS
 62
     7
 10
203.1967722594
 20
285.7531707954
 30
0.0
  0
VERTEX
  5
35E
  8
0
  6
CONTINUOUS
 62
     7
 10
203.7353419482
 20
283.4701340866
 30
0.0
  0
VERTEX
  5
35F
  8
0
  6
CONTINUOUS
 62
     7
 10
204.2272844135
 20
281.3608449173
 30
0.0
  0
VERTEX
  5
360
  8
0
  6
CONTINUOUS
 62
     7
 10
204.6374805987
 20
279.4387024116
 30
0.0
  0
VERTEX
  5
361
  8
0
  6
CONTINUOUS
 62
     7
 10
204.9497508227
 20
277.7381461334
 30
0.0
  0
VERTEX
  5
362
  8
0
  6
CONTINUOUS
 62
     7
 10
205.081481558
 20
276.9197505188
 30
0.0
  0
SEQEND
  5
511
  8
0
  6
CONTINUOUS
 62
     7
  0
ARC
  5
D7
  8
0
  6
CONTINUOUS
 62
     7
 10
-8.2493611593
 20
240.2460685967
 30
0.0
 40
216.3961531960846
 50
5.3056924443
 51
8.16556371
  0
LINE
  5
D8
  8
0
  6
CONTINUOUS
 62
     7
 10
203.2239236652
 20
291.113094635
 30
0.0
 11
202.0521321118
 21
290.8544343185
 31
0.0
  0
LINE
  5
D9
  8
0
  6
CONTINUOUS
 62
     7
 10
207.2196461975
 20
260.2561157417
 30
0.0
 11
208.4137291431
 21
260.3751462173
 31
0.0
  0
POLYLINE
  5
DA
  8
0
  6
CONTINUOUS
 62
     7
 66
     1
 10
0.0
 20
0.0
 30
0.0
  0
VERTEX
  5
363
  8
0
  6
CONTINUOUS
 62
     7
 10
287.2951023996
 20
213.743666954
 30
0.0
  0
VERTEX
  5
364
  8
0
  6
CONTINUOUS
 62
     7
 10
289.0791171014
 20
213.8398926925
 30
0.0
  0
VERTEX
  5
365
  8
0
  6
CONTINUOUS
 62
     7
 10
291.5002100885
 20
213.9842313003
 30
0.0
  0
VERTEX
  5
366
  8
0
  6
CONTINUOUS
 62
     7
 10
292.6918976724
 20
213.9741342735
 30
0.0
  0
VERTEX
  5
367
  8
0
  6
CONTINUOUS
 62
     7
 10
293.8417070329
 20
213.8245802593
 30
0.0
  0
VERTEX
  5
368
  8
0
  6
CONTINUOUS
 62
     7
 10
294.9326031625
 20
213.486937828
 30
0.0
  0
VERTEX
  5
369
  8
0
  6
CONTINUOUS
 62
     7
 10
295.9695690095
 20
212.9781585407
 30
0.0
  0
VERTEX
  5
36A
  8
0
  6
CONTINUOUS
 62
     7
 10
297.2869449079
 20
212.092737503
 30
0.0
  0
VERTEX
  5
36B
  8
0
  6
CONTINUOUS
 62
     7
 10
298.5531919419
 20
211.0450607014
 30
0.0
  0
VERTEX
  5
36C
  8
0
  6
CONTINUOUS
 62
     7
 10
299.7938745439
 20
209.9162500572
 30
0.0
  0
SEQEND
  5
510
  8
0
  6
CONTINUOUS
 62
     7
  0
LINE
  5
DB
  8
0
  6
CONTINUOUS
 62
     7
 10
299.7941129624
 20
209.9299174023
 30
0.0
 11
299.8221509874
 21
211.5359347534
 31
0.0
  0
LINE
  5
DC
  8
0
  6
CONTINUOUS
 62
     7
 10
287.2951023996
 20
215.6181495857
 30
0.0
 11
226.1605706781
 21
215.6181495857
 31
0.0
  0
POLYLINE
  5
DD
  8
0
  6
CONTINUOUS
 62
     7
 66
     1
 10
0.0
 20
0.0
 30
0.0
  0
VERTEX
  5
36D
  8
0
  6
CONTINUOUS
 62
     7
 10
212.1113479852
 20
260.8567398262
 30
0.0
  0
VERTEX
  5
36E
  8
0
  6
CONTINUOUS
 62
     7
 10
212.6589008391
 20
261.0515635681
 30
0.0
  0
VERTEX
  5
36F
  8
0
  6
CONTINUOUS
 62
     7
 10
213.191826713
 20
261.4938300323
 30
0.0
  0
VERTEX
  5
370
  8
0
  6
CONTINUOUS
 62
     7
 10
213.6908040166
 20
262.1756833267
 30
0.0
  0
VERTEX
  5
371
  8
0
  6
CONTINUOUS
 62
     7
 10
214.135498625
 20
263.0744617653
 30
0.0
  0
VERTEX
  5
372
  8
0
  6
CONTINUOUS
 62
     7
 10
214.5036131858
 20
264.1627472114
 30
0.0
  0
VERTEX
  5
373
  8
0
  6
CONTINUOUS
 62
     7
 10
214.7793554484
 20
265.4093306732
 30
0.0
  0
VERTEX
  5
374
  8
0
  6
CONTINUOUS
 62
     7
 10
214.9455540597
 20
266.7830627632
 30
0.0
  0
VERTEX
  5
375
  8
0
  6
CONTINUOUS
 62
     7
 10
214.9912108451
 20
268.2403128815
 30
0.0
  0
VERTEX
  5
376
  8
0
  6
CONTINUOUS
 62
     7
 10
214.942754504
 20
269.3388503265
 30
0.0
  0
SEQEND
  5
50F
  8
0
  6
CONTINUOUS
 62
     7
  0
POLYLINE
  5
DE
  8
0
  6
CONTINUOUS
 62
     7
 66
     1
 10
0.0
 20
0.0
 30
0.0
  0
VERTEX
  5
377
  8
0
  6
CONTINUOUS
 62
     7
 10
212.1113479852
 20
260.8567398262
 30
0.0
  0
VERTEX
  5
378
  8
0
  6
CONTINUOUS
 62
     7
 10
211.050587219
 20
260.7264917564
 30
0.0
  0
VERTEX
  5
379
  8
0
  6
CONTINUOUS
 62
     7
 10
210.1161748886
 20
260.6117647362
 30
0.0
  0
VERTEX
  5
37A
  8
0
  6
CONTINUOUS
 62
     7
 10
209.3098350584
 20
260.5127614212
 30
0.0
  0
VERTEX
  5
37B
  8
0
  6
CONTINUOUS
 62
     7
 10
208.3979368925
 20
260.4007881355
 30
0.0
  0
VERTEX
  5
37C
  8
0
  6
CONTINUOUS
 62
     7
 10
207.7441029966
 20
260.3205125999
 30
0.0
  0
VERTEX
  5
37D
  8
0
  6
CONTINUOUS
 62
     7
 10
207.3509179771
 20
260.2722328377
 30
0.0
  0
VERTEX
  5
37E
  8
0
  6
CONTINUOUS
 62
     7
 10
207.2196461975
 20
260.2561157417
 30
0.0
  0
SEQEND
  5
50E
  8
0
  6
CONTINUOUS
 62
     7
  0
POLYLINE
  5
DF
  8
0
  6
CONTINUOUS
 62
     7
 66
     1
 10
0.0
 20
0.0
 30
0.0
  0
VERTEX
  5
37F
  8
0
  6
CONTINUOUS
 62
     7
 10
202.0521321118
 20
290.8544343185
 30
0.0
  0
VERTEX
  5
380
  8
0
  6
CONTINUOUS
 62
     7
 10
202.1491491019
 20
290.8663433266
 30
0.0
  0
VERTEX
  5
381
  8
0
  6
CONTINUOUS
 62
     7
 10
202.4397888004
 20
290.9020226669
 30
0.0
  0
VERTEX
  5
382
  8
0
  6
CONTINUOUS
 62
     7
 10
202.9234044969
 20
290.961412735
 30
0.0
  0
VERTEX
  5
383
  8
0
  6
CONTINUOUS
 62
     7
 10
203.5987251222
 20
291.0443227959
 30
0.0
  0
VERTEX
  5
384
  8
0
  6
CONTINUOUS
 62
     7
 10
204.4638492882
 20
291.1505501938
 30
0.0
  0
VERTEX
  5
385
  8
0
  6
CONTINUOUS
 62
     7
 10
205.4342263162
 20
291.2696998787
 30
0.0
  0
VERTEX
  5
386
  8
0
  6
CONTINUOUS
 62
     7
 10
206.5637745678
 20
291.4083879661
 30
0.0
  0
VERTEX
  5
387
  8
0
  6
CONTINUOUS
 62
     7
 10
207.8499921381
 20
291.5663164329
 30
0.0
  0
SEQEND
  5
50D
  8
0
  6
CONTINUOUS
 62
     7
  0
POLYLINE
  5
E0
  8
0
  6
CONTINUOUS
 62
     7
 66
     1
 10
0.0
 20
0.0
 30
0.0
  0
VERTEX
  5
388
  8
0
  6
CONTINUOUS
 62
     7
 10
213.3081526279
 20
283.7560098839
 30
0.0
  0
VERTEX
  5
389
  8
0
  6
CONTINUOUS
 62
     7
 10
213.0055718839
 20
285.0678246689
 30
0.0
  0
VERTEX
  5
38A
  8
0
  6
CONTINUOUS
 62
     7
 10
212.5876166641
 20
286.337999649
 30
0.0
  0
VERTEX
  5
38B
  8
0
  6
CONTINUOUS
 62
     7
 10
212.0697469234
 20
287.5308197212
 30
0.0
  0
VERTEX
  5
38C
  8
0
  6
CONTINUOUS
 62
     7
 10
211.4761412859
 20
288.6160534096
 30
0.0
  0
VERTEX
  5
38D
  8
0
  6
CONTINUOUS
 62
     7
 10
210.8306922733
 20
289.5642679405
 30
0.0
  0
VERTEX
  5
38E
  8
0
  6
CONTINUOUS
 62
     7
 10
210.1604998827
 20
290.3514545631
 30
0.0
  0
VERTEX
  5
38F
  8
0
  6
CONTINUOUS
 62
     7
 10
209.4933920323
 20
290.9527342987
 30
0.0
  0
VERTEX
  5
390
  8
0
  6
CONTINUOUS
 62
     7
 10
208.8500589847
 20
291.358236618
 30
0.0
  0
VERTEX
  5
391
  8
0
  6
CONTINUOUS
 62
     7
 10
208.3274484396
 20
291.5414970589
 30
0.0
  0
VERTEX
  5
392
  8
0
  6
CONTINUOUS
 62
     7
 10
207.8499921381
 20
291.5663164329
 30
0.0
  0
SEQEND
  5
50C
  8
0
  6
CONTINUOUS
 62
     7
  0
POLYLINE
  5
E1
  8
0
  6
CONTINUOUS
 62
     7
 66
     1
 10
0.0
 20
0.0
 30
0.0
  0
VERTEX
  5
393
  8
0
  6
CONTINUOUS
 62
     7
 10
213.3081526279
 20
283.7560098839
 30
0.0
  0
VERTEX
  5
394
  8
0
  6
CONTINUOUS
 62
     7
 10
213.8812579929
 20
280.1831286621
 30
0.0
  0
VERTEX
  5
395
  8
0
  6
CONTINUOUS
 62
     7
 10
214.3055156588
 20
276.5796106529
 30
0.0
  0
VERTEX
  5
396
  8
0
  6
CONTINUOUS
 62
     7
 10
214.6457628131
 20
272.9612153244
 30
0.0
  0
VERTEX
  5
397
  8
0
  6
CONTINUOUS
 62
     7
 10
214.942754504
 20
269.3388503265
 30
0.0
  0
SEQEND
  5
50B
  8
0
  6
CONTINUOUS
 62
     7
  0
POLYLINE
  5
E2
  8
0
  6
CONTINUOUS
 62
     7
 66
     1
 10
0.0
 20
0.0
 30
0.0
  0
VERTEX
  5
398
  8
0
  6
CONTINUOUS
 62
     7
 10
208.8605799496
 20
291.8353479576
 30
0.0
  0
VERTEX
  5
399
  8
0
  6
CONTINUOUS
 62
     7
 10
209.4131477892
 20
291.7946379852
 30
0.0
  0
VERTEX
  5
39A
  8
0
  6
CONTINUOUS
 62
     7
 10
210.0240842223
 20
291.5436905098
 30
0.0
  0
VERTEX
  5
39B
  8
0
  6
CONTINUOUS
 62
     7
 10
210.6761918187
 20
291.0850089264
 30
0.0
  0
VERTEX
  5
39C
  8
0
  6
CONTINUOUS
 62
     7
 10
211.3468051672
 20
290.4329817962
 30
0.0
  0
VERTEX
  5
39D
  8
0
  6
CONTINUOUS
 62
     7
 10
212.0087758422
 20
289.6066110802
 30
0.0
  0
VERTEX
  5
39E
  8
0
  6
CONTINUOUS
 62
     7
 10
212.6400426745
 20
288.626889534
 30
0.0
  0
VERTEX
  5
39F
  8
0
  6
CONTINUOUS
 62
     7
 10
213.2156000256
 20
287.5146072578
 30
0.0
  0
VERTEX
  5
3A0
  8
0
  6
CONTINUOUS
 62
     7
 10
213.7100600421
 20
286.3026898575
 30
0.0
  0
VERTEX
  5
3A1
  8
0
  6
CONTINUOUS
 62
     7
 10
214.0572421968
 20
285.1873439026
 30
0.0
  0
VERTEX
  5
3A2
  8
0
  6
CONTINUOUS
 62
     7
 10
214.3155195534
 20
284.0434592438
 30
0.0
  0
SEQEND
  5
50A
  8
0
  6
CONTINUOUS
 62
     7
  0
POLYLINE
  5
E3
  8
0
  6
CONTINUOUS
 62
     7
 66
     1
 10
0.0
 20
0.0
 30
0.0
  0
VERTEX
  5
3A3
  8
0
  6
CONTINUOUS
 62
     7
 10
214.3155195534
 20
284.0434592438
 30
0.0
  0
VERTEX
  5
3A4
  8
0
  6
CONTINUOUS
 62
     7
 10
214.90414038
 20
280.4154556465
 30
0.0
  0
VERTEX
  5
3A5
  8
0
  6
CONTINUOUS
 62
     7
 10
215.3394412964
 20
276.7630618286
 30
0.0
  0
VERTEX
  5
3A6
  8
0
  6
CONTINUOUS
 62
     7
 10
215.686057207
 20
273.1178444099
 30
0.0
  0
VERTEX
  5
3A7
  8
0
  6
CONTINUOUS
 62
     7
 10
215.9897331863
 20
269.4698374939
 30
0.0
  0
SEQEND
  5
509
  8
0
  6
CONTINUOUS
 62
     7
  0
POLYLINE
  5
E4
  8
0
  6
CONTINUOUS
 62
     7
 66
     1
 10
0.0
 20
0.0
 30
0.0
  0
VERTEX
  5
3A8
  8
0
  6
CONTINUOUS
 62
     7
 10
213.1698199331
 20
260.9658044052
 30
0.0
  0
VERTEX
  5
3A9
  8
0
  6
CONTINUOUS
 62
     7
 10
212.1486053586
 20
260.838977642
 30
0.0
  0
VERTEX
  5
3AA
  8
0
  6
CONTINUOUS
 62
     7
 10
211.2476781726
 20
260.7270878029
 30
0.0
  0
VERTEX
  5
3AB
  8
0
  6
CONTINUOUS
 62
     7
 10
210.4686812281
 20
260.6303494644
 30
0.0
  0
VERTEX
  5
3AC
  8
0
  6
CONTINUOUS
 62
     7
 10
209.5721588254
 20
260.519007988
 30
0.0
  0
VERTEX
  5
3AD
  8
0
  6
CONTINUOUS
 62
     7
 10
208.9293450832
 20
260.4391735267
 30
0.0
  0
VERTEX
  5
3AE
  8
0
  6
CONTINUOUS
 62
     7
 10
208.5427895903
 20
260.3911679458
 30
0.0
  0
VERTEX
  5
3AF
  8
0
  6
CONTINUOUS
 62
     7
 10
208.4137291431
 20
260.3751462173
 30
0.0
  0
SEQEND
  5
508
  8
0
  6
CONTINUOUS
 62
     7
  0
POLYLINE
  5
E5
  8
0
  6
CONTINUOUS
 62
     7
 66
     1
 10
0.0
 20
0.0
 30
0.0
  0
VERTEX
  5
3B0
  8
0
  6
CONTINUOUS
 62
     7
 10
215.9897335589
 20
269.4698374939
 30
0.0
  0
VERTEX
  5
3B1
  8
0
  6
CONTINUOUS
 62
     7
 10
216.0398137539
 20
267.974428482
 30
0.0
  0
VERTEX
  5
3B2
  8
0
  6
CONTINUOUS
 62
     7
 10
215.9634084224
 20
266.531733818
 30
0.0
  0
VERTEX
  5
3B3
  8
0
  6
CONTINUOUS
 62
     7
 10
215.766903457
 20
265.1844661903
 30
0.0
  0
VERTEX
  5
3B4
  8
0
  6
CONTINUOUS
 62
     7
 10
215.4654544562
 20
263.9702480507
 30
0.0
  0
VERTEX
  5
3B5
  8
0
  6
CONTINUOUS
 62
     7
 10
215.074922961
 20
262.9272740555
 30
0.0
  0
VERTEX
  5
3B6
  8
0
  6
CONTINUOUS
 62
     7
 10
214.6156524092
 20
262.0825927925
 30
0.0
  0
VERTEX
  5
3B7
  8
0
  6
CONTINUOUS
 62
     7
 10
214.1090922773
 20
261.4650767517
 30
0.0
  0
VERTEX
  5
3B8
  8
0
  6
CONTINUOUS
 62
     7
 10
213.5745093941
 20
261.0857647133
 30
0.0
  0
VERTEX
  5
3B9
  8
0
  6
CONTINUOUS
 62
     7
 10
213.1698199331
 20
260.9658044052
 30
0.0
  0
SEQEND
  5
507
  8
0
  6
CONTINUOUS
 62
     7
  0
LINE
  5
E6
  8
0
  6
CONTINUOUS
 62
     7
 10
208.8606008112
 20
291.8353479576
 30
0.0
 11
208.0125816881
 21
291.7267006111
 31
0.0
  0
POLYLINE
  5
E7
  8
0
  6
CONTINUOUS
 62
     7
 66
     1
 10
0.0
 20
0.0
 30
0.0
  0
VERTEX
  5
3BA
  8
0
  6
CONTINUOUS
 62
     7
 10
203.2239236652
 20
291.113094635
 30
0.0
  0
VERTEX
  5
3BB
  8
0
  6
CONTINUOUS
 62
     7
 10
203.3192687451
 20
291.1253016662
 30
0.0
  0
VERTEX
  5
3BC
  8
0
  6
CONTINUOUS
 62
     7
 10
203.6048927128
 20
291.1619108391
 30
0.0
  0
VERTEX
  5
3BD
  8
0
  6
CONTINUOUS
 62
     7
 10
204.080151838
 20
291.2228148651
 30
0.0
  0
VERTEX
  5
3BE
  8
0
  6
CONTINUOUS
 62
     7
 10
204.7438152849
 20
291.3078587723
 30
0.0
  0
VERTEX
  5
3BF
  8
0
  6
CONTINUOUS
 62
     7
 10
205.5939920961
 20
291.416804142
 30
0.0
  0
VERTEX
  5
3C0
  8
0
  6
CONTINUOUS
 62
     7
 10
206.5319114148
 20
291.5369909477
 30
0.0
  0
VERTEX
  5
3C1
  8
0
  6
CONTINUOUS
 62
     7
 10
207.6215692579
 20
291.6766088676
 30
0.0
  0
VERTEX
  5
3C2
  8
0
  6
CONTINUOUS
 62
     7
 10
208.8605799496
 20
291.8353479576
 30
0.0
  0
SEQEND
  5
506
  8
0
  6
CONTINUOUS
 62
     7
  0
LINE
  5
E8
  8
0
  6
CONTINUOUS
 62
     7
 10
209.8272898018
 20
271.4574020576
 30
0.0
 11
209.0960741758
 21
277.4126809311
 31
0.0
  0
LINE
  5
E9
  8
0
  6
CONTINUOUS
 62
     7
 10
209.8272898018
 20
271.4574020576
 30
0.0
 11
208.10474388
 21
271.2459009361
 31
0.0
  0
LINE
  5
EA
  8
0
  6
CONTINUOUS
 62
     7
 10
209.0960741758
 20
277.4126809311
 30
0.0
 11
207.3735289991
 21
277.2011798096
 31
0.0
  0
LINE
  5
EB
  8
0
  6
CONTINUOUS
 62
     7
 10
210.3936702728
 20
271.5269368362
 30
0.0
 11
210.2370948314
 21
272.8021424484
 31
0.0
  0
LINE
  5
EC
  8
0
  6
CONTINUOUS
 62
     7
 10
210.3936702728
 20
271.5269368362
 30
0.0
 11
209.8272898018
 21
271.4574020576
 31
0.0
  0
LINE
  5
ED
  8
0
  6
CONTINUOUS
 62
     7
 10
209.5552594185
 20
277.4690550041
 30
0.0
 11
209.0960741758
 21
277.4126809311
 31
0.0
  0
POLYLINE
  5
EE
  8
0
  6
CONTINUOUS
 62
     7
 66
     1
 10
0.0
 20
0.0
 30
0.0
  0
VERTEX
  5
3C3
  8
0
  6
CONTINUOUS
 62
     7
 10
208.10474388
 20
271.2459009361
 30
0.0
  0
VERTEX
  5
3C4
  8
0
  6
CONTINUOUS
 62
     7
 10
208.0727197945
 20
271.2419670296
 30
0.0
  0
VERTEX
  5
3C5
  8
0
  6
CONTINUOUS
 62
     7
 10
208.0330439627
 20
271.2370913696
 30
0.0
  0
VERTEX
  5
3C6
  8
0
  6
CONTINUOUS
 62
     7
 10
207.9860486805
 20
271.23132164
 30
0.0
  0
VERTEX
  5
3C7
  8
0
  6
CONTINUOUS
 62
     7
 10
207.9321303188
 20
271.2247055244
 30
0.0
  0
VERTEX
  5
3C8
  8
0
  6
CONTINUOUS
 62
     7
 10
207.8717403829
 20
271.2172907066
 30
0.0
  0
VERTEX
  5
3C9
  8
0
  6
CONTINUOUS
 62
     7
 10
207.805384022
 20
271.2091367912
 30
0.0
  0
VERTEX
  5
3CA
  8
0
  6
CONTINUOUS
 62
     7
 10
207.7336200297
 20
271.2003272247
 30
0.0
  0
VERTEX
  5
3CB
  8
0
  6
CONTINUOUS
 62
     7
 10
207.6570504129
 20
271.1909216118
 30
0.0
  0
SEQEND
  5
505
  8
0
  6
CONTINUOUS
 62
     7
  0
POLYLINE
  5
EF
  8
0
  6
CONTINUOUS
 62
     7
 66
     1
 10
0.0
 20
0.0
 30
0.0
  0
VERTEX
  5
3CC
  8
0
  6
CONTINUOUS
 62
     7
 10
206.9258340418
 20
277.1462004852
 30
0.0
  0
VERTEX
  5
3CD
  8
0
  6
CONTINUOUS
 62
     7
 10
207.0024036586
 20
277.1556060982
 30
0.0
  0
VERTEX
  5
3CE
  8
0
  6
CONTINUOUS
 62
     7
 10
207.0741676509
 20
277.1644156647
 30
0.0
  0
VERTEX
  5
3CF
  8
0
  6
CONTINUOUS
 62
     7
 10
207.1405240118
 20
277.1725695801
 30
0.0
  0
VERTEX
  5
3D0
  8
0
  6
CONTINUOUS
 62
     7
 10
207.2009139478
 20
277.1799843979
 30
0.0
  0
VERTEX
  5
3D1
  8
0
  6
CONTINUOUS
 62
     7
 10
207.2548323094
 20
277.1866005134
 30
0.0
  0
VERTEX
  5
3D2
  8
0
  6
CONTINUOUS
 62
     7
 10
207.3018275916
 20
277.1923702431
 30
0.0
  0
VERTEX
  5
3D3
  8
0
  6
CONTINUOUS
 62
     7
 10
207.3415034234
 20
277.197245903
 30
0.0
  0
VERTEX
  5
3D4
  8
0
  6
CONTINUOUS
 62
     7
 10
207.3735289991
 20
277.2011798096
 30
0.0
  0
SEQEND
  5
504
  8
0
  6
CONTINUOUS
 62
     7
  0
LINE
  5
F0
  8
0
  6
CONTINUOUS
 62
     7
 10
207.6570504129
 20
271.1909216118
 30
0.0
 11
203.3258595287
 21
270.6591289711
 31
0.0
  0
LINE
  5
F1
  8
0
  6
CONTINUOUS
 62
     7
 10
206.9258340418
 20
277.1462004852
 30
0.0
 11
202.5946446478
 21
276.6143959236
 31
0.0
  0
LINE
  5
F2
  8
0
  6
CONTINUOUS
 62
     7
 10
202.829586786
 20
270.5981891823
 30
0.0
 11
202.0983704149
 21
276.5534680557
 31
0.0
  0
POLYLINE
  5
F3
  8
0
  6
CONTINUOUS
 62
     7
 66
     1
 10
0.0
 20
0.0
 30
0.0
  0
VERTEX
  5
3D5
  8
0
  6
CONTINUOUS
 62
     7
 10
203.3258595287
 20
270.6591289711
 30
0.0
  0
VERTEX
  5
3D6
  8
0
  6
CONTINUOUS
 62
     7
 10
203.2179095566
 20
270.6458728981
 30
0.0
  0
VERTEX
  5
3D7
  8
0
  6
CONTINUOUS
 62
     7
 10
203.12029652
 20
270.6338804436
 30
0.0
  0
VERTEX
  5
3D8
  8
0
  6
CONTINUOUS
 62
     7
 10
203.0346938192
 20
270.6233781051
 30
0.0
  0
VERTEX
  5
3D9
  8
0
  6
CONTINUOUS
 62
     7
 10
202.9625632584
 20
270.6145208549
 30
0.0
  0
VERTEX
  5
3DA
  8
0
  6
CONTINUOUS
 62
     7
 10
202.9051401436
 20
270.607463665
 30
0.0
  0
VERTEX
  5
3DB
  8
0
  6
CONTINUOUS
 62
     7
 10
202.8634079516
 20
270.6023376655
 30
0.0
  0
VERTEX
  5
3DC
  8
0
  6
CONTINUOUS
 62
     7
 10
202.8380789578
 20
270.5992263031
 30
0.0
  0
VERTEX
  5
3DD
  8
0
  6
CONTINUOUS
 62
     7
 10
202.829586786
 20
270.5981891823
 30
0.0
  0
SEQEND
  5
503
  8
0
  6
CONTINUOUS
 62
     7
  0
POLYLINE
  5
F4
  8
0
  6
CONTINUOUS
 62
     7
 66
     1
 10
0.0
 20
0.0
 30
0.0
  0
VERTEX
  5
3DE
  8
0
  6
CONTINUOUS
 62
     7
 10
202.0983704149
 20
276.5534680557
 30
0.0
  0
VERTEX
  5
3DF
  8
0
  6
CONTINUOUS
 62
     7
 10
202.1068625867
 20
276.5545051765
 30
0.0
  0
VERTEX
  5
3E0
  8
0
  6
CONTINUOUS
 62
     7
 10
202.1321915805
 20
276.557616539
 30
0.0
  0
VERTEX
  5
3E1
  8
0
  6
CONTINUOUS
 62
     7
 10
202.1739237725
 20
276.5627425384
 30
0.0
  0
VERTEX
  5
3E2
  8
0
  6
CONTINUOUS
 62
     7
 10
202.2313468873
 20
276.5697997284
 30
0.0
  0
VERTEX
  5
3E3
  8
0
  6
CONTINUOUS
 62
     7
 10
202.3034774482
 20
276.5786450577
 30
0.0
  0
VERTEX
  5
3E4
  8
0
  6
CONTINUOUS
 62
     7
 10
202.389081639
 20
276.589159317
 30
0.0
  0
VERTEX
  5
3E5
  8
0
  6
CONTINUOUS
 62
     7
 10
202.4866931855
 20
276.6011517715
 30
0.0
  0
VERTEX
  5
3E6
  8
0
  6
CONTINUOUS
 62
     7
 10
202.5946446478
 20
276.6143959236
 30
0.0
  0
SEQEND
  5
502
  8
0
  6
CONTINUOUS
 62
     7
  0
LINE
  5
F5
  8
0
  6
CONTINUOUS
 62
     7
 10
210.195100379
 20
189.5153623295
 30
0.0
 11
215.1951000809
 21
189.5153623295
 31
0.0
  0
LINE
  5
F6
  8
0
  6
CONTINUOUS
 62
     7
 10
201.4998846471
 20
276.4799755287
 30
0.0
 11
197.5296997249
 21
275.9925049019
 31
0.0
  0
LINE
  5
F7
  8
0
  6
CONTINUOUS
 62
     7
 10
198.9826195657
 20
255.9539120865
 30
0.0
 11
196.5371527493
 21
275.8706372452
 31
0.0
  0
POLYLINE
  5
F8
  8
0
  6
CONTINUOUS
 62
     7
 66
     1
 10
0.0
 20
0.0
 30
0.0
  0
VERTEX
  5
3E7
  8
0
  6
CONTINUOUS
 62
     7
 10
196.5371527493
 20
275.8706372452
 30
0.0
  0
VERTEX
  5
3E8
  8
0
  6
CONTINUOUS
 62
     7
 10
196.5562247455
 20
275.8729737472
 30
0.0
  0
VERTEX
  5
3E9
  8
0
  6
CONTINUOUS
 62
     7
 10
196.6127061069
 20
275.8799117279
 30
0.0
  0
VERTEX
  5
3EA
  8
0
  6
CONTINUOUS
 62
     7
 10
196.7044272244
 20
275.8911770058
 30
0.0
  0
VERTEX
  5
3EB
  8
0
  6
CONTINUOUS
 62
     7
 10
196.8278639733
 20
275.9063285065
 30
0.0
  0
VERTEX
  5
3EC
  8
0
  6
CONTINUOUS
 62
     7
 10
196.978270334
 20
275.9247940254
 30
0.0
  0
VERTEX
  5
3ED
  8
0
  6
CONTINUOUS
 62
     7
 10
197.149869126
 20
275.9458702278
 30
0.0
  0
VERTEX
  5
3EE
  8
0
  6
CONTINUOUS
 62
     7
 10
197.3360636055
 20
275.9687226486
 30
0.0
  0
VERTEX
  5
3EF
  8
0
  6
CONTINUOUS
 62
     7
 10
197.5296997249
 20
275.9925049019
 30
0.0
  0
SEQEND
  5
501
  8
0
  6
CONTINUOUS
 62
     7
  0
ARC
  5
F9
  8
0
  6
CONTINUOUS
 62
     7
 10
218.8335420973
 20
258.391301594
 30
0.0
 40
20.00000000000003
 50
187.0
 51
193.0
  0
LINE
  5
FA
  8
0
  6
CONTINUOUS
 62
     7
 10
208.8362813711
 20
212.7859693241
 30
0.0
 11
199.3461408436
 21
253.8922827911
 31
0.0
  0
LINE
  5
FB
  8
0
  6
CONTINUOUS
 62
     7
 10
203.2236465037
 20
270.6465762329
 30
0.0
 11
204.9378954589
 21
256.6851299476
 31
0.0
  0
POLYLINE
  5
FC
  8
0
  6
CONTINUOUS
 62
     7
 66
     1
 10
0.0
 20
0.0
 30
0.0
  0
VERTEX
  5
3F0
  8
0
  6
CONTINUOUS
 62
     7
 10
201.4998846471
 20
276.4799755287
 30
0.0
  0
VERTEX
  5
3F1
  8
0
  6
CONTINUOUS
 62
     7
 10
201.5800975978
 20
276.4898341369
 30
0.0
  0
VERTEX
  5
3F2
  8
0
  6
CONTINUOUS
 62
     7
 10
201.6597860276
 20
276.4996092987
 30
0.0
  0
VERTEX
  5
3F3
  8
0
  6
CONTINUOUS
 62
     7
 10
201.7384298861
 20
276.5092652511
 30
0.0
  0
VERTEX
  5
3F4
  8
0
  6
CONTINUOUS
 62
     7
 10
201.8155106127
 20
276.5187304687
 30
0.0
  0
VERTEX
  5
3F5
  8
0
  6
CONTINUOUS
 62
     7
 10
201.8905290186
 20
276.5279453468
 30
0.0
  0
VERTEX
  5
3F6
  8
0
  6
CONTINUOUS
 62
     7
 10
201.9629903853
 20
276.5368383598
 30
0.0
  0
VERTEX
  5
3F7
  8
0
  6
CONTINUOUS
 62
     7
 10
202.0324223458
 20
276.5453737449
 30
0.0
  0
VERTEX
  5
3F8
  8
0
  6
CONTINUOUS
 62
     7
 10
202.0983704149
 20
276.5534680557
 30
0.0
  0
SEQEND
  5
500
  8
0
  6
CONTINUOUS
 62
     7
  0
ARC
  5
FD
  8
0
  6
CONTINUOUS
 62
     7
 10
218.8335420973
 20
258.391301594
 30
0.0
 40
14.0
 50
187.0
 51
193.0
  0
LINE
  5
FE
  8
0
  6
CONTINUOUS
 62
     7
 10
205.1923610985
 20
255.2419822883
 30
0.0
 11
214.682501626
 21
214.1356747818
 31
0.0
  0
ARC
  5
FF
  8
0
  6
CONTINUOUS
 62
     7
 10
195.1951002538
 20
209.636651737
 30
0.0
 40
13.99999999999998
 50
0.0
 51
13.0
  0
LINE
  5
100
  8
0
  6
CONTINUOUS
 62
     7
 10
209.1951005876
 20
189.5153623295
 30
0.0
 11
209.1951005876
 21
209.636650629
 31
0.0
  0
LINE
  5
101
  8
0
  6
CONTINUOUS
 62
     7
 10
210.195100379
 20
189.5153623295
 30
0.0
 11
209.1951005876
 21
189.5153623295
 31
0.0
  0
ARC
  5
102
  8
0
  6
CONTINUOUS
 62
     7
 10
195.1951002538
 20
209.636651737
 30
0.0
 40
20.0
 50
0.0
 51
13.0
  0
LINE
  5
103
  8
0
  6
CONTINUOUS
 62
     7
 10
215.1951000809
 20
209.636650629
 30
0.0
 11
215.1951000809
 21
207.8528445434
 31
0.0
  0
LINE
  5
104
  8
0
  6
CONTINUOUS
 62
     7
 10
215.7951001793
 20
190.3153639507
 30
0.0
 11
215.7951001793
 21
198.3153622818
 31
0.0
  0
ARC
  5
105
  8
0
  6
CONTINUOUS
 62
     7
 10
216.7951002538
 20
198.315363903
 30
0.0
 40
1.0
 50
90.0
 51
180.0
  0
LINE
  5
106
  8
0
  6
CONTINUOUS
 62
     7
 10
216.7951003432
 20
199.3153613281
 30
0.0
 11
224.7951001644
 21
199.3153613281
 31
0.0
  0
ARC
  5
107
  8
0
  6
CONTINUOUS
 62
     7
 10
216.7951002538
 20
190.315363903
 30
0.0
 40
1.0
 50
180.0
 51
270.0
  0
LINE
  5
108
  8
0
  6
CONTINUOUS
 62
     7
 10
224.7951001644
 20
189.3153649044
 30
0.0
 11
216.7951003432
 21
189.3153649044
 31
0.0
  0
ARC
  5
109
  8
0
  6
CONTINUOUS
 62
     7
 10
224.7951002538
 20
198.315363903
 30
0.0
 40
1.0
 50
0.0
 51
90.0
  0
LINE
  5
10A
  8
0
  6
CONTINUOUS
 62
     7
 10
225.7951003283
 20
198.3153622818
 30
0.0
 11
225.7951003283
 21
190.3153639507
 31
0.0
  0
ARC
  5
10B
  8
0
  6
CONTINUOUS
 62
     7
 10
224.7951002538
 20
190.315363903
 30
0.0
 40
1.0
 50
270.0
 51
0.0
  0
LINE
  5
10C
  8
0
  6
CONTINUOUS
 62
     7
 10
208.795100522
 20
124.115363903
 30
0.0
 11
208.795100522
 21
125.3153639135
 31
0.0
  0
LINE
  5
10D
  8
0
  6
CONTINUOUS
 62
     7
 10
212.7951004326
 20
124.115363903
 30
0.0
 11
208.795100522
 21
124.115363903
 31
0.0
  0
LINE
  5
10E
  8
0
  6
CONTINUOUS
 62
     7
 10
208.795100522
 20
125.3153639135
 30
0.0
 11
212.7951004326
 21
125.3153639135
 31
0.0
  0
LINE
  5
10F
  8
0
  6
CONTINUOUS
 62
     7
 10
212.7951004326
 20
124.115363903
 30
0.0
 11
214.7951003879
 21
124.115363903
 31
0.0
  0
LINE
  5
110
  8
0
  6
CONTINUOUS
 62
     7
 10
212.7951004326
 20
125.3153639135
 30
0.0
 11
214.7951003879
 21
125.3153639135
 31
0.0
  0
LINE
  5
111
  8
0
  6
CONTINUOUS
 62
     7
 10
214.7951003879
 20
124.115363903
 30
0.0
 11
242.163521868
 21
124.115363903
 31
0.0
  0
LINE
  5
112
  8
0
  6
CONTINUOUS
 62
     7
 10
242.163521868
 20
125.3153639135
 30
0.0
 11
214.7951003879
 21
125.3153639135
 31
0.0
  0
LINE
  5
113
  8
0
  6
CONTINUOUS
 62
     7
 10
244.7950997173
 20
125.3153639135
 30
0.0
 11
244.7950997173
 21
124.115363903
 31
0.0
  0
LINE
  5
114
  8
0
  6
CONTINUOUS
 62
     7
 10
244.7950997173
 20
124.115363903
 30
0.0
 11
242.163521868
 21
124.115363903
 31
0.0
  0
LINE
  5
115
  8
0
  6
CONTINUOUS
 62
     7
 10
242.163521868
 20
125.3153639135
 30
0.0
 11
244.7950997173
 21
125.3153639135
 31
0.0
  0
LINE
  5
116
  8
0
  6
CONTINUOUS
 62
     7
 10
215.7951001793
 20
125.3153639135
 30
0.0
 11
215.7951001793
 21
189.5153623295
 31
0.0
  0
LINE
  5
117
  8
0
  6
CONTINUOUS
 62
     7
 10
225.7951003283
 20
189.5153623295
 30
0.0
 11
225.7951003283
 21
125.3153639135
 31
0.0
  0
LINE
  5
118
  8
0
  6
CONTINUOUS
 62
     7
 10
232.2508246421
 20
216.1839705181
 30
0.0
 11
231.0385570645
 21
215.6181495857
 31
0.0
  0
POLYLINE
  5
119
  8
0
  6
CONTINUOUS
 62
     7
 66
     1
 10
0.0
 20
0.0
 30
0.0
  0
VERTEX
  5
3F9
  8
0
  6
CONTINUOUS
 62
     7
 10
236.8835159361
 20
216.8152611923
 30
0.0
  0
VERTEX
  5
3FA
  8
0
  6
CONTINUOUS
 62
     7
 10
235.7510366261
 20
216.8072384071
 30
0.0
  0
VERTEX
  5
3FB
  8
0
  6
CONTINUOUS
 62
     7
 10
234.6723579585
 20
216.7369883728
 30
0.0
  0
VERTEX
  5
3FC
  8
0
  6
CONTINUOUS
 62
     7
 10
233.7385275185
 20
216.6091125679
 30
0.0
  0
VERTEX
  5
3FD
  8
0
  6
CONTINUOUS
 62
     7
 10
232.9247333824
 20
216.4243381691
 30
0.0
  0
VERTEX
  5
3FE
  8
0
  6
CONTINUOUS
 62
     7
 10
232.2508246421
 20
216.1839705181
 30
0.0
  0
SEQEND
  5
4FF
  8
0
  6
CONTINUOUS
 62
     7
  0
POLYLINE
  5
11A
  8
0
  6
CONTINUOUS
 62
     7
 66
     1
 10
0.0
 20
0.0
 30
0.0
  0
VERTEX
  5
3FF
  8
0
  6
CONTINUOUS
 62
     7
 10
239.9042391002
 20
216.7625110817
 30
0.0
  0
VERTEX
  5
400
  8
0
  6
CONTINUOUS
 62
     7
 10
238.393875283
 20
216.7888980579
 30
0.0
  0
VERTEX
  5
401
  8
0
  6
CONTINUOUS
 62
     7
 10
236.8835159361
 20
216.8152611923
 30
0.0
  0
SEQEND
  5
4FE
  8
0
  6
CONTINUOUS
 62
     7
  0
POLYLINE
  5
11B
  8
0
  6
CONTINUOUS
 62
     7
 66
     1
 10
0.0
 20
0.0
 30
0.0
  0
VERTEX
  5
402
  8
0
  6
CONTINUOUS
 62
     7
 10
244.9034773528
 20
216.6752439213
 30
0.0
  0
VERTEX
  5
403
  8
0
  6
CONTINUOUS
 62
     7
 10
242.400335592
 20
216.7119723034
 30
0.0
  0
VERTEX
  5
404
  8
0
  6
CONTINUOUS
 62
     7
 10
239.9098717391
 20
216.7623620701
 30
0.0
  0
SEQEND
  5
4FD
  8
0
  6
CONTINUOUS
 62
     7
  0
LINE
  5
11C
  8
0
  6
CONTINUOUS
 62
     7
 10
244.9295975983
 20
216.674790926
 30
0.0
 11
244.9034773528
 21
216.6752439213
 31
0.0
  0
POLYLINE
  5
11D
  8
0
  6
CONTINUOUS
 62
     7
 66
     1
 10
0.0
 20
0.0
 30
0.0
  0
VERTEX
  5
405
  8
0
  6
CONTINUOUS
 62
     7
 10
249.9367975413
 20
216.5873747539
 30
0.0
  0
VERTEX
  5
406
  8
0
  6
CONTINUOUS
 62
     7
 10
247.4330507934
 20
216.6313629818
 30
0.0
  0
VERTEX
  5
407
  8
0
  6
CONTINUOUS
 62
     7
 10
244.9296303808
 20
216.674790926
 30
0.0
  0
SEQEND
  5
4FC
  8
0
  6
CONTINUOUS
 62
     7
  0
LINE
  5
11E
  8
0
  6
CONTINUOUS
 62
     7
 10
251.7875038802
 20
216.5478389931
 30
0.0
 11
249.9368124425
 21
216.5872972679
 31
0.0
  0
LINE
  5
11F
  8
0
  6
CONTINUOUS
 62
     7
 10
259.901195091
 20
216.4134603214
 30
0.0
 11
251.7875038802
 21
216.5478389931
 31
0.0
  0
POLYLINE
  5
120
  8
0
  6
CONTINUOUS
 62
     7
 66
     1
 10
0.0
 20
0.0
 30
0.0
  0
VERTEX
  5
408
  8
0
  6
CONTINUOUS
 62
     7
 10
269.9010961473
 20
216.2389021587
 30
0.0
  0
VERTEX
  5
409
  8
0
  6
CONTINUOUS
 62
     7
 10
263.0730711639
 20
216.3656991196
 30
0.0
  0
VERTEX
  5
40A
  8
0
  6
CONTINUOUS
 62
     7
 10
259.9012070119
 20
216.4134603214
 30
0.0
  0
SEQEND
  5
4FB
  8
0
  6
CONTINUOUS
 62
     7
  0
POLYLINE
  5
121
  8
0
  6
CONTINUOUS
 62
     7
 66
     1
 10
0.0
 20
0.0
 30
0.0
  0
VERTEX
  5
40B
  8
0
  6
CONTINUOUS
 62
     7
 10
279.8989408433
 20
216.0644214821
 30
0.0
  0
VERTEX
  5
40C
  8
0
  6
CONTINUOUS
 62
     7
 10
274.9004059255
 20
216.1092620563
 30
0.0
  0
VERTEX
  5
40D
  8
0
  6
CONTINUOUS
 62
     7
 10
269.9010961473
 20
216.2389021587
 30
0.0
  0
SEQEND
  5
4FA
  8
0
  6
CONTINUOUS
 62
     7
  0
POLYLINE
  5
122
  8
0
  6
CONTINUOUS
 62
     7
 66
     1
 10
0.0
 20
0.0
 30
0.0
  0
VERTEX
  5
40E
  8
0
  6
CONTINUOUS
 62
     7
 10
291.5546231687
 20
215.6462412548
 30
0.0
  0
VERTEX
  5
40F
  8
0
  6
CONTINUOUS
 62
     7
 10
291.5292971551
 20
215.6509381008
 30
0.0
  0
VERTEX
  5
410
  8
0
  6
CONTINUOUS
 62
     7
 10
289.1162865579
 20
215.9694355202
 30
0.0
  0
VERTEX
  5
411
  8
0
  6
CONTINUOUS
 62
     7
 10
286.7278211534
 20
216.1086779308
 30
0.0
  0
VERTEX
  5
412
  8
0
  6
CONTINUOUS
 62
     7
 10
284.361904186
 20
216.1320429516
 30
0.0
  0
VERTEX
  5
413
  8
0
  6
CONTINUOUS
 62
     7
 10
282.007079643
 20
216.0973649692
 30
0.0
  0
VERTEX
  5
414
  8
0
  6
CONTINUOUS
 62
     7
 10
279.8989408433
 20
216.0644393635
 30
0.0
  0
SEQEND
  5
4F9
  8
0
  6
CONTINUOUS
 62
     7
  0
ARC
  5
123
  8
0
  6
CONTINUOUS
 62
     7
 10
289.3189620965
 20
203.3588548112
 30
0.0
 40
12.4891171042568
 50
43.7647639822
 51
79.6879731616
  0
POLYLINE
  5
124
  8
0
  6
CONTINUOUS
 62
     7
 66
     1
 10
0.0
 20
0.0
 30
0.0
  0
VERTEX
  5
415
  8
0
  6
CONTINUOUS
 62
     7
 10
299.7847609937
 20
209.9300783348
 30
0.0
  0
VERTEX
  5
416
  8
0
  6
CONTINUOUS
 62
     7
 10
299.7873239934
 20
209.9262338352
 30
0.0
  0
VERTEX
  5
417
  8
0
  6
CONTINUOUS
 62
     7
 10
299.7186177194
 20
210.0299041939
 30
0.0
  0
VERTEX
  5
418
  8
0
  6
CONTINUOUS
 62
     7
 10
299.5746546208
 20
210.245839901
 30
0.0
  0
VERTEX
  5
419
  8
0
  6
CONTINUOUS
 62
     7
 10
299.3557982862
 20
210.56959445
 30
0.0
  0
VERTEX
  5
41A
  8
0
  6
CONTINUOUS
 62
     7
 10
298.9210241258
 20
211.1961465549
 30
0.0
  0
VERTEX
  5
41B
  8
0
  6
CONTINUOUS
 62
     7
 10
298.3384244859
 20
211.9975667667
 30
0.0
  0
SEQEND
  5
4F8
  8
0
  6
CONTINUOUS
 62
     7
  0
POLYLINE
  5
125
  8
0
  6
CONTINUOUS
 62
     7
 66
     1
 10
0.0
 20
0.0
 30
0.0
  0
VERTEX
  5
41C
  8
0
  6
CONTINUOUS
 62
     7
 10
291.4883547246
 20
216.8721419048
 30
0.0
  0
VERTEX
  5
41D
  8
0
  6
CONTINUOUS
 62
     7
 10
292.6364593923
 20
216.6329127025
 30
0.0
  0
VERTEX
  5
41E
  8
0
  6
CONTINUOUS
 62
     7
 10
293.7384360253
 20
216.3120787811
 30
0.0
  0
VERTEX
  5
41F
  8
0
  6
CONTINUOUS
 62
     7
 10
294.7589271485
 20
215.9121018123
 30
0.0
  0
VERTEX
  5
420
  8
0
  6
CONTINUOUS
 62
     7
 10
295.6817024171
 20
215.4546302032
 30
0.0
  0
VERTEX
  5
421
  8
0
  6
CONTINUOUS
 62
     7
 10
296.5393596112
 20
214.941809721
 30
0.0
  0
VERTEX
  5
422
  8
0
  6
CONTINUOUS
 62
     7
 10
297.2592227876
 20
214.443789072
 30
0.0
  0
VERTEX
  5
423
  8
0
  6
CONTINUOUS
 62
     7
 10
297.7656059682
 20
214.0516560745
 30
0.0
  0
VERTEX
  5
424
  8
0
  6
CONTINUOUS
 62
     7
 10
298.1355481565
 20
213.7349229526
 30
0.0
  0
VERTEX
  5
425
  8
0
  6
CONTINUOUS
 62
     7
 10
298.2843809545
 20
213.593487091
 30
0.0
  0
VERTEX
  5
426
  8
0
  6
CONTINUOUS
 62
     7
 10
298.374908489
 20
213.4943168831
 30
0.0
  0
SEQEND
  5
4F7
  8
0
  6
CONTINUOUS
 62
     7
  0
POLYLINE
  5
126
  8
0
  6
CONTINUOUS
 62
     7
 66
     1
 10
0.0
 20
0.0
 30
0.0
  0
VERTEX
  5
427
  8
0
  6
CONTINUOUS
 62
     7
 10
232.0836157322
 20
217.3301380348
 30
0.0
  0
VERTEX
  5
428
  8
0
  6
CONTINUOUS
 62
     7
 10
232.6670341909
 20
217.5477843952
 30
0.0
  0
VERTEX
  5
429
  8
0
  6
CONTINUOUS
 62
     7
 10
233.4368102967
 20
217.7375953865
 30
0.0
  0
VERTEX
  5
42A
  8
0
  6
CONTINUOUS
 62
     7
 10
234.327038449
 20
217.8755682182
 30
0.0
  0
VERTEX
  5
42B
  8
0
  6
CONTINUOUS
 62
     7
 10
235.3617616713
 20
217.9594915581
 30
0.0
  0
VERTEX
  5
42C
  8
0
  6
CONTINUOUS
 62
     7
 10
236.0333763778
 20
217.9802458954
 30
0.0
  0
VERTEX
  5
42D
  8
0
  6
CONTINUOUS
 62
     7
 10
236.7384888947
 20
217.9788213444
 30
0.0
  0
SEQEND
  5
4F6
  8
0
  6
CONTINUOUS
 62
     7
  0
ARC
  5
127
  8
0
  6
CONTINUOUS
 62
     7
 10
278.5730375668
 20
117.6895656261
 30
0.0
 40
109.952307899612
 50
115.0124018468
 51
117.0454636396
  0
POLYLINE
  5
128
  8
0
  6
CONTINUOUS
 62
     7
 66
     1
 10
0.0
 20
0.0
 30
0.0
  0
VERTEX
  5
42E
  8
0
  6
CONTINUOUS
 62
     7
 10
299.8106890142
 20
211.5361314487
 30
0.0
  0
VERTEX
  5
42F
  8
0
  6
CONTINUOUS
 62
     7
 10
299.816500467
 20
211.5275901031
 30
0.0
  0
VERTEX
  5
430
  8
0
  6
CONTINUOUS
 62
     7
 10
299.7319691598
 20
211.6508644295
 30
0.0
  0
VERTEX
  5
431
  8
0
  6
CONTINUOUS
 62
     7
 10
299.5449715078
 20
211.9196336937
 30
0.0
  0
VERTEX
  5
432
  8
0
  6
CONTINUOUS
 62
     7
 10
299.3381553113
 20
212.2116487694
 30
0.0
  0
VERTEX
  5
433
  8
0
  6
CONTINUOUS
 62
     7
 10
299.0743034303
 20
212.5755470466
 30
0.0
  0
VERTEX
  5
434
  8
0
  6
CONTINUOUS
 62
     7
 10
298.7530403554
 20
213.0057674122
 30
0.0
  0
VERTEX
  5
435
  8
0
  6
CONTINUOUS
 62
     7
 10
298.374908489
 20
213.4943168831
 30
0.0
  0
SEQEND
  5
4F5
  8
0
  6
CONTINUOUS
 62
     7
  0
POLYLINE
  5
129
  8
0
  6
CONTINUOUS
 62
     7
 66
     1
 10
0.0
 20
0.0
 30
0.0
  0
VERTEX
  5
436
  8
0
  6
CONTINUOUS
 62
     7
 10
291.4883547246
 20
216.8721478653
 30
0.0
  0
VERTEX
  5
437
  8
0
  6
CONTINUOUS
 62
     7
 10
289.0913300931
 20
217.1684842777
 30
0.0
  0
VERTEX
  5
438
  8
0
  6
CONTINUOUS
 62
     7
 10
286.7516391694
 20
217.2987681103
 30
0.0
  0
VERTEX
  5
439
  8
0
  6
CONTINUOUS
 62
     7
 10
284.4572358548
 20
217.3220139217
 30
0.0
  0
VERTEX
  5
43A
  8
0
  6
CONTINUOUS
 62
     7
 10
282.199364227
 20
217.2901135158
 30
0.0
  0
VERTEX
  5
43B
  8
0
  6
CONTINUOUS
 62
     7
 10
279.9688332498
 20
217.2537666035
 30
0.0
  0
VERTEX
  5
43C
  8
0
  6
CONTINUOUS
 62
     7
 10
277.7413957536
 20
217.2523658943
 30
0.0
  0
VERTEX
  5
43D
  8
0
  6
CONTINUOUS
 62
     7
 10
275.5004935681
 20
217.2842186165
 30
0.0
  0
VERTEX
  5
43E
  8
0
  6
CONTINUOUS
 62
     7
 10
269.2944341123
 20
217.4357932281
 30
0.0
  0
VERTEX
  5
43F
  8
0
  6
CONTINUOUS
 62
     7
 10
263.0904936015
 20
217.5415080261
 30
0.0
  0
VERTEX
  5
440
  8
0
  6
CONTINUOUS
 62
     7
 10
259.7929768979
 20
217.5883691978
 30
0.0
  0
VERTEX
  5
441
  8
0
  6
CONTINUOUS
 62
     7
 10
256.49270944
 20
217.6412206364
 30
0.0
  0
VERTEX
  5
442
  8
0
  6
CONTINUOUS
 62
     7
 10
253.1918876588
 20
217.6987748813
 30
0.0
  0
VERTEX
  5
443
  8
0
  6
CONTINUOUS
 62
     7
 10
249.8936974227
 20
217.7572053146
 30
0.0
  0
VERTEX
  5
444
  8
0
  6
CONTINUOUS
 62
     7
 10
246.5985142409
 20
217.8138178062
 30
0.0
  0
VERTEX
  5
445
  8
0
  6
CONTINUOUS
 62
     7
 10
243.3063738763
 20
217.8695481491
 30
0.0
  0
VERTEX
  5
446
  8
0
  6
CONTINUOUS
 62
     7
 10
240.030098778
 20
217.9240863991
 30
0.0
  0
VERTEX
  5
447
  8
0
  6
CONTINUOUS
 62
     7
 10
236.7384948551
 20
217.9788988304
 30
0.0
  0
SEQEND
  5
4F4
  8
0
  6
CONTINUOUS
 62
     7
  0
POLYLINE
  5
12A
  8
0
  6
CONTINUOUS
 62
     7
 66
     1
 10
0.0
 20
0.0
 30
0.0
  0
VERTEX
  5
448
  8
0
  6
CONTINUOUS
 62
     7
 10
269.9010961473
 20
216.2389021587
 30
0.0
  0
VERTEX
  5
449
  8
0
  6
CONTINUOUS
 62
     7
 10
272.3069005429
 20
216.1975663376
 30
0.0
  0
VERTEX
  5
44A
  8
0
  6
CONTINUOUS
 62
     7
 10
276.1023693502
 20
216.1062639427
 30
0.0
  0
VERTEX
  5
44B
  8
0
  6
CONTINUOUS
 62
     7
 10
279.8989408433
 20
216.0644393635
 30
0.0
  0
SEQEND
  5
4F3
  8
0
  6
CONTINUOUS
 62
     7
  0
POLYLINE
  5
12B
  8
0
  6
CONTINUOUS
 62
     7
 66
     1
 10
0.0
 20
0.0
 30
0.0
  0
VERTEX
  5
44C
  8
0
  6
CONTINUOUS
 62
     7
 10
251.7896675288
 20
216.6717034054
 30
0.0
  0
VERTEX
  5
44D
  8
0
  6
CONTINUOUS
 62
     7
 10
254.1980528056
 20
216.7294722271
 30
0.0
  0
VERTEX
  5
44E
  8
0
  6
CONTINUOUS
 62
     7
 10
257.0557587564
 20
216.600875206
 30
0.0
  0
VERTEX
  5
44F
  8
0
  6
CONTINUOUS
 62
     7
 10
259.9012248933
 20
216.4139490795
 30
0.0
  0
SEQEND
  5
4F2
  8
0
  6
CONTINUOUS
 62
     7
  0
LINE
  5
12C
  8
0
  6
CONTINUOUS
 62
     7
 10
249.9368124425
 20
216.5873509121
 30
0.0
 11
251.7896675288
 21
216.6717034054
 31
0.0
  0
POLYLINE
  5
12D
  8
0
  6
CONTINUOUS
 62
     7
 66
     1
 10
0.0
 20
0.0
 30
0.0
  0
VERTEX
  5
450
  8
0
  6
CONTINUOUS
 62
     7
 10
239.9098717391
 20
216.7624097538
 30
0.0
  0
VERTEX
  5
451
  8
0
  6
CONTINUOUS
 62
     7
 10
241.0896324336
 20
216.8455701542
 30
0.0
  0
VERTEX
  5
452
  8
0
  6
CONTINUOUS
 62
     7
 10
242.2841318667
 20
216.8390076828
 30
0.0
  0
VERTEX
  5
453
  8
0
  6
CONTINUOUS
 62
     7
 10
243.6047755897
 20
216.766057558
 30
0.0
  0
VERTEX
  5
454
  8
0
  6
CONTINUOUS
 62
     7
 10
244.9296005785
 20
216.6748624515
 30
0.0
  0
SEQEND
  5
4F1
  8
0
  6
CONTINUOUS
 62
     7
  0
LINE
  5
12E
  8
0
  6
CONTINUOUS
 62
     7
 10
216.1951002448
 20
199.9153655243
 30
0.0
 11
225.3951002627
 21
199.9153655243
 31
0.0
  0
ARC
  5
12F
  8
0
  6
CONTINUOUS
 62
     7
 10
225.3951002538
 20
198.915363903
 30
0.0
 40
1.0
 50
0.0
 51
90.0
  0
LINE
  5
130
  8
0
  6
CONTINUOUS
 62
     7
 10
226.3951004266
 20
198.9153664779
 30
0.0
 11
226.3951004266
 21
191.5153663826
 31
0.0
  0
LINE
  5
131
  8
0
  6
CONTINUOUS
 62
     7
 10
225.7951003283
 20
198.9153664779
 30
0.0
 11
225.7951003283
 21
198.3153622818
 31
0.0
  0
ARC
  5
132
  8
0
  6
CONTINUOUS
 62
     7
 10
225.3951002538
 20
198.915363903
 30
0.0
 40
0.4000000000000057
 50
0.0
 51
90.0
  0
LINE
  5
133
  8
0
  6
CONTINUOUS
 62
     7
 10
216.1951002448
 20
199.3153613281
 30
0.0
 11
216.7951003432
 21
199.3153613281
 31
0.0
  0
LINE
  5
134
  8
0
  6
CONTINUOUS
 62
     7
 10
224.7951001644
 20
199.3153613281
 30
0.0
 11
225.3951002627
 21
199.3153613281
 31
0.0
  0
ARC
  5
135
  8
0
  6
CONTINUOUS
 62
     7
 10
216.1951002538
 20
198.915363903
 30
0.0
 40
0.4000000000000057
 50
90.0
 51
180.0
  0
LINE
  5
136
  8
0
  6
CONTINUOUS
 62
     7
 10
215.7951001793
 20
198.3153622818
 30
0.0
 11
215.7951001793
 21
198.9153664779
 31
0.0
  0
LINE
  5
137
  8
0
  6
CONTINUOUS
 62
     7
 10
215.1951000809
 20
191.5153663826
 30
0.0
 11
215.1951000809
 21
198.9153664779
 31
0.0
  0
ARC
  5
138
  8
0
  6
CONTINUOUS
 62
     7
 10
216.1951002538
 20
198.915363903
 30
0.0
 40
1.0
 50
90.0
 51
180.0
  0
LINE
  5
139
  8
0
  6
CONTINUOUS
 62
     7
 10
215.7951001793
 20
189.5153623295
 30
0.0
 11
215.1951000809
 21
189.5153623295
 31
0.0
  0
LINE
  5
13A
  8
0
  6
CONTINUOUS
 62
     7
 10
215.7951001793
 20
190.3153639507
 30
0.0
 11
215.7951001793
 21
189.5153623295
 31
0.0
  0
LINE
  5
13B
  8
0
  6
CONTINUOUS
 62
     7
 10
215.1951000809
 20
189.5153623295
 30
0.0
 11
215.1951000809
 21
191.5153663826
 31
0.0
  0
LINE
  5
13C
  8
0
  6
CONTINUOUS
 62
     7
 10
226.3951004266
 20
189.5153623295
 30
0.0
 11
225.7951003283
 21
189.5153623295
 31
0.0
  0
LINE
  5
13D
  8
0
  6
CONTINUOUS
 62
     7
 10
225.7951003283
 20
189.5153623295
 30
0.0
 11
225.7951003283
 21
190.3153639507
 31
0.0
  0
LINE
  5
13E
  8
0
  6
CONTINUOUS
 62
     7
 10
226.3951004266
 20
191.5153663826
 30
0.0
 11
226.3951004266
 21
189.5153623295
 31
0.0
  0
ARC
  5
13F
  8
0
  6
CONTINUOUS
 62
     7
 10
285.2951002538
 20
213.3669940212
 30
0.0
 40
2.0
 50
280.7804509646
 51
0.0
  0
ARC
  5
140
  8
0
  6
CONTINUOUS
 62
     7
 10
210.8507316966
 20
604.3427426171
 30
0.0
 40
400.0000000000001
 50
274.5077079787
 51
280.7804509646
  0
ARC
  5
141
  8
0
  6
CONTINUOUS
 62
     7
 10
229.713102076
 20
365.0851179034
 30
0.0
 40
160.0000000000002
 50
273.0746772222
 51
274.5077079787
  0
ARC
  5
142
  8
0
  6
CONTINUOUS
 62
     7
 10
238.9923876057
 20
192.3341559377
 30
0.0
 40
12.99999999999998
 50
93.0746772222
 51
121.4611845106
  0
ARC
  5
143
  8
0
  6
CONTINUOUS
 62
     7
 10
234.2951002538
 20
200.0111013936
 30
0.0
 40
4.000000000000001
 50
121.4611845106
 51
180.0
  0
LINE
  5
144
  8
0
  6
CONTINUOUS
 62
     7
 10
230.2951001346
 20
198.1153648567
 30
0.0
 11
230.2951001346
 21
200.0111025047
 31
0.0
  0
ARC
  5
145
  8
0
  6
CONTINUOUS
 62
     7
 10
228.2951002538
 20
198.115363903
 30
0.0
 40
2.0
 50
270.0
 51
0.0
  0
LINE
  5
146
  8
0
  6
CONTINUOUS
 62
     7
 10
226.3951004266
 20
196.1153667641
 30
0.0
 11
228.2951005518
 21
196.1153667641
 31
0.0
  0
LINE
  5
147
  8
0
  6
CONTINUOUS
 62
     7
 10
214.1951002895
 20
196.1153667641
 30
0.0
 11
215.1951000809
 21
196.1153667641
 31
0.0
  0
ARC
  5
148
  8
0
  6
CONTINUOUS
 62
     7
 10
214.1951002538
 20
198.115363903
 30
0.0
 40
2.0
 50
180.0
 51
270.0
  0
ARC
  5
149
  8
0
  6
CONTINUOUS
 62
     7
 10
220.1951002538
 20
201.1621915707
 30
0.0
 40
8.000000000000018
 50
148.4862321611
 51
180.0
  0
LINE
  5
14A
  8
0
  6
CONTINUOUS
 62
     7
 10
226.0951001912
 20
214.4153636169
 30
0.0
 11
226.0951001912
 21
214.6181505394
 31
0.0
  0
LINE
  5
14B
  8
0
  6
CONTINUOUS
 62
     7
 10
287.2951023996
 20
214.6181505394
 30
0.0
 11
287.2951023996
 21
213.3669954014
 31
0.0
  0
LINE
  5
14C
  8
0
  6
CONTINUOUS
 62
     7
 10
212.1950999617
 20
201.1621933651
 30
0.0
 11
212.1950999617
 21
198.1153648567
 31
0.0
  0
ARC
  5
14D
  8
0
  6
CONTINUOUS
 62
     7
 10
230.4252752907
 20
194.8897503621
 30
0.0
 40
19.99999999999995
 50
102.5040575207
 51
148.4862321611
  0
LINE
  5
14E
  8
0
  6
CONTINUOUS
 62
     7
 10
226.0951001912
 20
215.610222168
 30
0.0
 11
226.1519194364
 21
215.610222168
 31
0.0
  0
LINE
  5
14F
  8
0
  6
CONTINUOUS
 62
     7
 10
226.1519194364
 20
215.610222168
 30
0.0
 11
226.1605706781
 21
215.6121116352
 31
0.0
  0
LINE
  5
150
  8
0
  6
CONTINUOUS
 62
     7
 10
287.2951023996
 20
215.6181495857
 30
0.0
 11
287.2951023996
 21
214.6181505394
 31
0.0
  0
LINE
  5
151
  8
0
  6
CONTINUOUS
 62
     7
 10
226.0951001912
 20
214.6181505394
 30
0.0
 11
226.0951001912
 21
215.610222168
 31
0.0
  0
LINE
  5
152
  8
0
  6
CONTINUOUS
 62
     7
 10
52.7926131329
 20
57.8925649886
 30
0.0
 11
53.3992692075
 21
56.8389832293
 31
0.0
  0
LINE
  5
153
  8
0
  6
CONTINUOUS
 62
     7
 10
122.9691191754
 20
56.8390305405
 30
0.0
 11
123.5757692895
 21
57.8926022415
 31
0.0
  0
ARC
  5
154
  8
0
  6
CONTINUOUS
 62
     7
 10
118.6108609426
 20
-18.7295115282
 30
0.0
 40
8.129960244994926
 50
287.2568980878
 51
289.6914725677
  0
ARC
  5
155
  8
0
  6
CONTINUOUS
 62
     7
 10
57.8667559008
 20
-18.3645855913
 30
0.0
 40
8.510739561478267
 50
250.4724682313
 51
252.7375622255
  0
POLYLINE
  5
156
  8
0
  6
CONTINUOUS
 62
     7
 66
     1
 10
0.0
 20
0.0
 30
0.0
  0
VERTEX
  5
455
  8
0
  6
CONTINUOUS
 62
     7
 10
123.2094898066
 20
57.2771582072
 30
0.0
  0
VERTEX
  5
456
  8
0
  6
CONTINUOUS
 62
     7
 10
123.2368990025
 20
57.5817185705
 30
0.0
  0
VERTEX
  5
457
  8
0
  6
CONTINUOUS
 62
     7
 10
123.075060471
 20
58.0013345246
 30
0.0
  0
VERTEX
  5
458
  8
0
  6
CONTINUOUS
 62
     7
 10
122.7229221902
 20
58.5204634135
 30
0.0
  0
VERTEX
  5
459
  8
0
  6
CONTINUOUS
 62
     7
 10
122.1882119021
 20
59.1148401861
 30
0.0
  0
VERTEX
  5
45A
  8
0
  6
CONTINUOUS
 62
     7
 10
121.477873548
 20
59.7604426806
 30
0.0
  0
VERTEX
  5
45B
  8
0
  6
CONTINUOUS
 62
     7
 10
120.6106736503
 20
60.4301276867
 30
0.0
  0
VERTEX
  5
45C
  8
0
  6
CONTINUOUS
 62
     7
 10
119.6097656331
 20
61.0958847468
 30
0.0
  0
VERTEX
  5
45D
  8
0
  6
CONTINUOUS
 62
     7
 10
118.5007258496
 20
61.7371606891
 30
0.0
  0
VERTEX
  5
45E
  8
0
  6
CONTINUOUS
 62
     7
 10
117.472337111
 20
62.25747124
 30
0.0
  0
VERTEX
  5
45F
  8
0
  6
CONTINUOUS
 62
     7
 10
116.4068295798
 20
62.7321887081
 30
0.0
  0
SEQEND
  5
4F0
  8
0
  6
CONTINUOUS
 62
     7
  0
ARC
  5
157
  8
0
  6
CONTINUOUS
 62
     7
 10
118.7124972643
 20
59.5063475891
 30
0.0
 40
5.019185912710757
 50
308.9518845672
 51
333.6320764555
  0
POLYLINE
  5
158
  8
0
  6
CONTINUOUS
 62
     7
 66
     1
 10
0.0
 20
0.0
 30
0.0
  0
VERTEX
  5
460
  8
0
  6
CONTINUOUS
 62
     7
 10
113.7440814814
 20
58.4229695861
 30
0.0
  0
VERTEX
  5
461
  8
0
  6
CONTINUOUS
 62
     7
 10
115.1453896603
 20
57.8781682317
 30
0.0
  0
VERTEX
  5
462
  8
0
  6
CONTINUOUS
 62
     7
 10
116.4947583518
 20
57.3474484746
 30
0.0
  0
VERTEX
  5
463
  8
0
  6
CONTINUOUS
 62
     7
 10
117.754487618
 20
56.8501367484
 30
0.0
  0
VERTEX
  5
464
  8
0
  6
CONTINUOUS
 62
     7
 10
118.8922687611
 20
56.406648389
 30
0.0
  0
VERTEX
  5
465
  8
0
  6
CONTINUOUS
 62
     7
 10
119.8735370478
 20
56.0394003307
 30
0.0
  0
VERTEX
  5
466
  8
0
  6
CONTINUOUS
 62
     7
 10
120.6813826403
 20
55.7642317628
 30
0.0
  0
VERTEX
  5
467
  8
0
  6
CONTINUOUS
 62
     7
 10
121.2957575164
 20
55.5983904068
 30
0.0
  0
VERTEX
  5
468
  8
0
  6
CONTINUOUS
 62
     7
 10
121.7040195308
 20
55.5529541587
 30
0.0
  0
VERTEX
  5
469
  8
0
  6
CONTINUOUS
 62
     7
 10
121.8678965411
 20
55.6030559604
 30
0.0
  0
SEQEND
  5
4EF
  8
0
  6
CONTINUOUS
 62
     7
  0
ARC
  5
159
  8
0
  6
CONTINUOUS
 62
     7
 10
88.1841643891
 20
-7.8697027132
 30
0.0
 40
71.04947404698505
 50
68.915269925
 51
111.084730075
  0
POLYLINE
  5
15A
  8
0
  6
CONTINUOUS
 62
     7
 66
     1
 10
0.0
 20
0.0
 30
0.0
  0
VERTEX
  5
46A
  8
0
  6
CONTINUOUS
 62
     7
 10
54.5004322371
 20
55.6030559604
 30
0.0
  0
VERTEX
  5
46B
  8
0
  6
CONTINUOUS
 62
     7
 10
54.7485425315
 20
55.5529757653
 30
0.0
  0
VERTEX
  5
46C
  8
0
  6
CONTINUOUS
 62
     7
 10
55.2102192483
 20
55.6293810968
 30
0.0
  0
VERTEX
  5
46D
  8
0
  6
CONTINUOUS
 62
     7
 10
55.878551229
 20
55.8258860623
 30
0.0
  0
VERTEX
  5
46E
  8
0
  6
CONTINUOUS
 62
     7
 10
56.7359640441
 20
56.1273350631
 30
0.0
  0
VERTEX
  5
46F
  8
0
  6
CONTINUOUS
 62
     7
 10
57.7641799292
 20
56.5178665583
 30
0.0
  0
VERTEX
  5
470
  8
0
  6
CONTINUOUS
 62
     7
 10
58.9359595618
 20
56.9771371101
 30
0.0
  0
VERTEX
  5
471
  8
0
  6
CONTINUOUS
 62
     7
 10
60.2191462359
 20
57.483697242
 30
0.0
  0
VERTEX
  5
472
  8
0
  6
CONTINUOUS
 62
     7
 10
61.58112429
 20
58.0182801251
 30
0.0
  0
VERTEX
  5
473
  8
0
  6
CONTINUOUS
 62
     7
 10
62.6242472968
 20
58.4229695861
 30
0.0
  0
SEQEND
  5
4EE
  8
0
  6
CONTINUOUS
 62
     7
  0
ARC
  5
15B
  8
0
  6
CONTINUOUS
 62
     7
 10
57.655392434
 20
59.5058629495
 30
0.0
 40
5.018532985870283
 50
206.364019141
 51
231.0485353891
  0
POLYLINE
  5
15C
  8
0
  6
CONTINUOUS
 62
     7
 66
     1
 10
0.0
 20
0.0
 30
0.0
  0
VERTEX
  5
474
  8
0
  6
CONTINUOUS
 62
     7
 10
59.9615468821
 20
62.7322095697
 30
0.0
  0
VERTEX
  5
475
  8
0
  6
CONTINUOUS
 62
     7
 10
58.7341739974
 20
62.1796417301
 30
0.0
  0
VERTEX
  5
476
  8
0
  6
CONTINUOUS
 62
     7
 10
57.5607105336
 20
61.568705297
 30
0.0
  0
VERTEX
  5
477
  8
0
  6
CONTINUOUS
 62
     7
 10
56.4749582848
 20
60.9165977006
 30
0.0
  0
VERTEX
  5
478
  8
0
  6
CONTINUOUS
 62
     7
 10
55.5056317887
 20
60.2459843521
 30
0.0
  0
VERTEX
  5
479
  8
0
  6
CONTINUOUS
 62
     7
 10
54.6839549384
 20
59.5840136771
 30
0.0
  0
VERTEX
  5
47A
  8
0
  6
CONTINUOUS
 62
     7
 10
54.0221526465
 20
58.9527468448
 30
0.0
  0
VERTEX
  5
47B
  8
0
  6
CONTINUOUS
 62
     7
 10
53.5358681521
 20
58.3771894937
 30
0.0
  0
VERTEX
  5
47C
  8
0
  6
CONTINUOUS
 62
     7
 10
53.2331272206
 20
57.8827294772
 30
0.0
  0
VERTEX
  5
47D
  8
0
  6
CONTINUOUS
 62
     7
 10
53.1240984044
 20
57.5355473225
 30
0.0
  0
VERTEX
  5
47E
  8
0
  6
CONTINUOUS
 62
     7
 10
53.1588330111
 20
57.2772699659
 30
0.0
  0
SEQEND
  5
4ED
  8
0
  6
CONTINUOUS
 62
     7
  0
ARC
  5
15D
  8
0
  6
CONTINUOUS
 62
     7
 10
88.1841631618
 20
-5.0973299544
 30
0.0
 40
73.46674418894821
 50
67.4086667073
 51
112.5912909408
  0
POLYLINE
  5
15E
  8
0
  6
CONTINUOUS
 62
     7
 66
     1
 10
0.0
 20
0.0
 30
0.0
  0
VERTEX
  5
47F
  8
0
  6
CONTINUOUS
 62
     7
 10
52.5715871892
 20
58.2846368914
 30
0.0
  0
VERTEX
  5
480
  8
0
  6
CONTINUOUS
 62
     7
 10
52.5415524087
 20
58.5872176354
 30
0.0
  0
VERTEX
  5
481
  8
0
  6
CONTINUOUS
 62
     7
 10
52.7006699881
 20
59.0051728551
 30
0.0
  0
VERTEX
  5
482
  8
0
  6
CONTINUOUS
 62
     7
 10
53.0500545344
 20
59.5230425959
 30
0.0
  0
VERTEX
  5
483
  8
0
  6
CONTINUOUS
 62
     7
 10
53.5820230088
 20
60.1166482334
 30
0.0
  0
VERTEX
  5
484
  8
0
  6
CONTINUOUS
 62
     7
 10
54.2897119365
 20
60.7620972459
 30
0.0
  0
VERTEX
  5
485
  8
0
  6
CONTINUOUS
 62
     7
 10
55.1543845973
 20
61.4322896366
 30
0.0
  0
VERTEX
  5
486
  8
0
  6
CONTINUOUS
 62
     7
 10
56.1531498275
 20
62.0993974869
 30
0.0
  0
VERTEX
  5
487
  8
0
  6
CONTINUOUS
 62
     7
 10
57.2603359065
 20
62.7427305346
 30
0.0
  0
VERTEX
  5
488
  8
0
  6
CONTINUOUS
 62
     7
 10
58.2873298964
 20
63.2653410797
 30
0.0
  0
VERTEX
  5
489
  8
0
  6
CONTINUOUS
 62
     7
 10
59.351725801
 20
63.7427973812
 30
0.0
  0
SEQEND
  5
4EC
  8
0
  6
CONTINUOUS
 62
     7
  0
POLYLINE
  5
15F
  8
0
  6
CONTINUOUS
 62
     7
 66
     1
 10
0.0
 20
0.0
 30
0.0
  0
VERTEX
  5
48A
  8
0
  6
CONTINUOUS
 62
     7
 10
117.016650661
 20
63.7427780097
 30
0.0
  0
VERTEX
  5
48B
  8
0
  6
CONTINUOUS
 62
     7
 10
118.2425542912
 20
63.1871643727
 30
0.0
  0
VERTEX
  5
48C
  8
0
  6
CONTINUOUS
 62
     7
 10
119.4141878924
 20
62.5737915998
 30
0.0
  0
VERTEX
  5
48D
  8
0
  6
CONTINUOUS
 62
     7
 10
120.4977973542
 20
61.9199532335
 30
0.0
  0
VERTEX
  5
48E
  8
0
  6
CONTINUOUS
 62
     7
 10
121.4647635064
 20
61.2483109598
 30
0.0
  0
VERTEX
  5
48F
  8
0
  6
CONTINUOUS
 62
     7
 10
122.2841127953
 20
60.5858515267
 30
0.0
  0
VERTEX
  5
490
  8
0
  6
CONTINUOUS
 62
     7
 10
122.9434265933
 20
59.9547225301
 30
0.0
  0
VERTEX
  5
491
  8
0
  6
CONTINUOUS
 62
     7
 10
123.4270795426
 20
59.3798916106
 30
0.0
  0
VERTEX
  5
492
  8
0
  6
CONTINUOUS
 62
     7
 10
123.7271174035
 20
58.8866706257
 30
0.0
  0
VERTEX
  5
493
  8
0
  6
CONTINUOUS
 62
     7
 10
123.8337590537
 20
58.5410225456
 30
0.0
  0
VERTEX
  5
494
  8
0
  6
CONTINUOUS
 62
     7
 10
123.7967356286
 20
58.2845251327
 30
0.0
  0
SEQEND
  5
4EB
  8
0
  6
CONTINUOUS
 62
     7
  0
ARC
  5
160
  8
0
  6
CONTINUOUS
 62
     7
 10
88.184165124
 20
-5.041875531
 30
0.0
 40
74.58311326932274
 50
67.2580150351
 51
112.7419464699
  0
ARC
  5
161
  8
0
  6
CONTINUOUS
 62
     7
 10
103.7554646756
 20
67.8975666182
 30
0.0
 40
1.001325577889722
 50
30.2903213797
 51
90.0801256805
  0
LINE
  5
162
  8
0
  6
CONTINUOUS
 62
     7
 10
72.6142644129
 20
68.898891217
 30
0.0
 11
78.6045714459
 21
68.898891217
 31
0.0
  0
LINE
  5
163
  8
0
  6
CONTINUOUS
 62
     7
 10
97.7637573323
 20
68.898891217
 30
0.0
 11
103.7540643654
 21
68.898891217
 31
0.0
  0
ARC
  5
164
  8
0
  6
CONTINUOUS
 62
     7
 10
72.6128641026
 20
67.8975666182
 30
0.0
 40
1.001325577889739
 50
89.9198743195
 51
149.7096786203
  0
LINE
  5
165
  8
0
  6
CONTINUOUS
 62
     7
 10
71.2653069935
 20
67.5723913376
 30
0.0
 11
71.7482387266
 21
68.4026169841
 31
0.0
  0
LINE
  5
166
  8
0
  6
CONTINUOUS
 62
     7
 10
70.4635455451
 20
67.3851046031
 30
0.0
 11
71.4018284521
 21
68.9981448715
 31
0.0
  0
ARC
  5
167
  8
0
  6
CONTINUOUS
 62
     7
 10
72.2664538281
 20
68.4930945056
 30
0.0
 40
1.001325577889739
 50
89.9198743195
 51
149.7096786203
  0
LINE
  5
168
  8
0
  6
CONTINUOUS
 62
     7
 10
72.2678541384
 20
69.4944191043
 30
0.0
 11
85.3864091626
 21
69.4944191043
 31
0.0
  0
ARC
  5
169
  8
0
  6
CONTINUOUS
 62
     7
 10
86.1719185822
 20
70.0932791091
 30
0.0
 40
0.9877541969108442
 50
180.0217080282
 51
217.3213262934
  0
LINE
  5
16A
  8
0
  6
CONTINUOUS
 62
     7
 10
85.1841644562
 20
70.0929048722
 30
0.0
 11
85.1841644562
 21
74.0630897944
 31
0.0
  0
ARC
  5
16B
  8
0
  6
CONTINUOUS
 62
     7
 10
86.1804526908
 20
74.0593484246
 30
0.0
 40
0.9962952596054938
 50
89.7865414901
 51
179.7848376744
  0
LINE
  5
16C
  8
0
  6
CONTINUOUS
 62
     7
 10
90.1841643444
 20
75.05563677
 30
0.0
 11
86.1841644338
 21
75.05563677
 31
0.0
  0
ARC
  5
16D
  8
0
  6
CONTINUOUS
 62
     7
 10
90.1878760874
 20
74.0593484246
 30
0.0
 40
0.996295259605501
 50
0.2151623256
 51
90.2134585099
  0
LINE
  5
16E
  8
0
  6
CONTINUOUS
 62
     7
 10
91.1841643221
 20
70.0929048722
 30
0.0
 11
91.1841643221
 21
74.0630897944
 31
0.0
  0
ARC
  5
16F
  8
0
  6
CONTINUOUS
 62
     7
 10
90.196410196
 20
70.0932791091
 30
0.0
 40
0.9877541969108558
 50
322.6786737066
 51
359.9782919718
  0
LINE
  5
170
  8
0
  6
CONTINUOUS
 62
     7
 10
90.9819196156
 20
69.4944191043
 30
0.0
 11
104.1004746399
 21
69.4944191043
 31
0.0
  0
ARC
  5
171
  8
0
  6
CONTINUOUS
 62
     7
 10
104.1018749501
 20
68.4930945056
 30
0.0
 40
1.001325577889794
 50
30.2903213797
 51
90.0801256805
  0
LINE
  5
172
  8
0
  6
CONTINUOUS
 62
     7
 10
104.9665003261
 20
68.9981448715
 30
0.0
 11
105.9047832332
 21
67.3851046031
 31
0.0
  0
LINE
  5
173
  8
0
  6
CONTINUOUS
 62
     7
 10
104.6200900516
 20
68.4026169841
 30
0.0
 11
105.1030217848
 21
67.5723913376
 31
0.0
  0
ARC
  5
174
  8
0
  6
CONTINUOUS
 62
     7
 10
103.7554677772
 20
67.1663541432
 30
0.0
 40
1.001321686253374
 50
30.2902920238
 51
90.0803034654
  0
ARC
  5
175
  8
0
  6
CONTINUOUS
 62
     7
 10
72.612861001
 20
67.1663541432
 30
0.0
 40
1.001321686253408
 50
89.9196965346
 51
149.7097079762
  0
LINE
  5
176
  8
0
  6
CONTINUOUS
 62
     7
 10
72.6142644129
 20
68.1676748459
 30
0.0
 11
74.0328057847
 21
68.1676748459
 31
0.0
  0
LINE
  5
177
  8
0
  6
CONTINUOUS
 62
     7
 10
102.3355229936
 20
68.1676748459
 30
0.0
 11
103.7540643654
 21
68.1676748459
 31
0.0
  0
LINE
  5
178
  8
0
  6
CONTINUOUS
 62
     7
 10
91.1841643221
 20
70.0929048722
 30
0.0
 11
91.1841643221
 21
69.4944191043
 31
0.0
  0
LINE
  5
179
  8
0
  6
CONTINUOUS
 62
     7
 10
85.1841644562
 20
69.4944191043
 30
0.0
 11
85.1841644562
 21
70.0929048722
 31
0.0
  0
LINE
  5
17A
  8
0
  6
CONTINUOUS
 62
     7
 10
85.1841644562
 20
57.8846576874
 30
0.0
 11
85.1841644562
 21
63.0886259739
 31
0.0
  0
LINE
  5
17B
  8
0
  6
CONTINUOUS
 62
     7
 10
91.1841643221
 20
63.0886259739
 30
0.0
 11
91.1841643221
 21
57.8846576874
 31
0.0
  0
ARC
  5
17C
  8
0
  6
CONTINUOUS
 62
     7
 10
90.1841643891
 20
57.3976892655
 30
0.0
 40
1.0
 50
270.0
 51
0.0
  0
LINE
  5
17D
  8
0
  6
CONTINUOUS
 62
     7
 10
91.1841643221
 20
57.8846576874
 30
0.0
 11
91.1841643221
 21
57.3976892297
 31
0.0
  0
LINE
  5
17E
  8
0
  6
CONTINUOUS
 62
     7
 10
90.1841643444
 20
56.3976894383
 30
0.0
 11
86.1841644338
 21
56.3976894383
 31
0.0
  0
ARC
  5
17F
  8
0
  6
CONTINUOUS
 62
     7
 10
86.1841643891
 20
57.3976892655
 30
0.0
 40
1.0
 50
180.0
 51
270.0
  0
LINE
  5
180
  8
0
  6
CONTINUOUS
 62
     7
 10
85.1841644562
 20
57.3976892297
 30
0.0
 11
85.1841644562
 21
57.8846576874
 31
0.0
  0
LINE
  5
181
  8
0
  6
CONTINUOUS
 62
     7
 10
91.1841643221
 20
56.3976894383
 30
0.0
 11
106.1841651044
 21
56.3976894383
 31
0.0
  0
LINE
  5
182
  8
0
  6
CONTINUOUS
 62
     7
 10
106.1841651044
 20
56.3976894383
 30
0.0
 11
106.1841651044
 21
55.3976892744
 31
0.0
  0
LINE
  5
183
  8
0
  6
CONTINUOUS
 62
     7
 10
106.1841651044
 20
46.1976892565
 30
0.0
 11
106.1841651044
 21
55.3976892744
 31
0.0
  0
LINE
  5
184
  8
0
  6
CONTINUOUS
 62
     7
 10
70.1841636739
 20
46.1976892565
 30
0.0
 11
70.1841636739
 21
55.3976892744
 31
0.0
  0
LINE
  5
185
  8
0
  6
CONTINUOUS
 62
     7
 10
85.1841644562
 20
55.3976892744
 30
0.0
 11
85.1841644562
 21
57.3976892297
 31
0.0
  0
LINE
  5
186
  8
0
  6
CONTINUOUS
 62
     7
 10
91.1841643221
 20
57.3976892297
 30
0.0
 11
91.1841643221
 21
55.3976892744
 31
0.0
  0
LINE
  5
187
  8
0
  6
CONTINUOUS
 62
     7
 10
70.1841636739
 20
56.3976894383
 30
0.0
 11
85.1841644562
 21
56.3976894383
 31
0.0
  0
LINE
  5
188
  8
0
  6
CONTINUOUS
 62
     7
 10
70.1841636739
 20
55.3976892744
 30
0.0
 11
70.1841636739
 21
56.3976894383
 31
0.0
  0
LINE
  5
189
  8
0
  6
CONTINUOUS
 62
     7
 10
106.1841651044
 20
45.1976890926
 30
0.0
 11
102.1579950294
 21
45.1976890926
 31
0.0
  0
LINE
  5
18A
  8
0
  6
CONTINUOUS
 62
     7
 10
74.2112397394
 20
45.1976890926
 30
0.0
 11
70.1841636739
 21
45.1976890926
 31
0.0
  0
LINE
  5
18B
  8
0
  6
CONTINUOUS
 62
     7
 10
106.1841651044
 20
46.1976892565
 30
0.0
 11
106.1841651044
 21
45.1976890926
 31
0.0
  0
LINE
  5
18C
  8
0
  6
CONTINUOUS
 62
     7
 10
70.1841636739
 20
45.1976890926
 30
0.0
 11
70.1841636739
 21
46.1976892565
 31
0.0
  0
LINE
  5
18D
  8
0
  6
CONTINUOUS
 62
     7
 10
44.9841632686
 20
55.79768934
 30
0.0
 11
45.684163197
 21
55.79768934
 31
0.0
  0
LINE
  5
18E
  8
0
  6
CONTINUOUS
 62
     7
 10
55.7826503358
 20
55.79768934
 30
0.0
 11
70.1841636739
 21
55.79768934
 31
0.0
  0
LINE
  5
18F
  8
0
  6
CONTINUOUS
 62
     7
 10
106.1841651044
 20
55.79768934
 30
0.0
 11
120.583157166
 21
55.79768934
 31
0.0
  0
LINE
  5
190
  8
0
  6
CONTINUOUS
 62
     7
 10
130.6841655812
 20
55.79768934
 30
0.0
 11
131.3841655097
 21
55.79768934
 31
0.0
  0
LINE
  5
191
  8
0
  6
CONTINUOUS
 62
     7
 10
131.7841633401
 20
55.3976892744
 30
0.0
 11
131.7841633401
 21
54.7976891761
 31
0.0
  0
ARC
  5
192
  8
0
  6
CONTINUOUS
 62
     7
 10
131.3841643891
 20
55.3976892655
 30
0.0
 40
0.3999999999999986
 50
0.0
 51
90.0
  0
LINE
  5
193
  8
0
  6
CONTINUOUS
 62
     7
 10
44.5841654382
 20
54.7976891761
 30
0.0
 11
44.5841654382
 21
55.3976892744
 31
0.0
  0
ARC
  5
194
  8
0
  6
CONTINUOUS
 62
     7
 10
44.9841643891
 20
55.3976892655
 30
0.0
 40
0.3999999999999986
 50
90.0
 51
180.0
  0
LINE
  5
195
  8
0
  6
CONTINUOUS
 62
     7
 10
131.7841633401
 20
54.7976891761
 30
0.0
 11
131.7841633401
 21
46.7976893549
 31
0.0
  0
LINE
  5
196
  8
0
  6
CONTINUOUS
 62
     7
 10
44.5841654382
 20
46.7976893549
 30
0.0
 11
44.5841654382
 21
54.7976891761
 31
0.0
  0
LINE
  5
197
  8
0
  6
CONTINUOUS
 62
     7
 10
131.7841633401
 20
46.7976893549
 30
0.0
 11
131.7841633401
 21
46.1976892565
 31
0.0
  0
ARC
  5
198
  8
0
  6
CONTINUOUS
 62
     7
 10
131.3841643891
 20
46.1976892655
 30
0.0
 40
0.3999999999999915
 50
270.0
 51
0.0
  0
LINE
  5
199
  8
0
  6
CONTINUOUS
 62
     7
 10
131.3841655097
 20
45.797689191
 30
0.0
 11
130.6841655812
 21
45.797689191
 31
0.0
  0
LINE
  5
19A
  8
0
  6
CONTINUOUS
 62
     7
 10
120.684163197
 20
45.797689191
 30
0.0
 11
106.1841651044
 21
45.797689191
 31
0.0
  0
LINE
  5
19B
  8
0
  6
CONTINUOUS
 62
     7
 10
70.1841636739
 20
45.797689191
 30
0.0
 11
55.6841655812
 21
45.797689191
 31
0.0
  0
LINE
  5
19C
  8
0
  6
CONTINUOUS
 62
     7
 10
45.684163197
 20
45.797689191
 30
0.0
 11
44.9841632686
 21
45.797689191
 31
0.0
  0
LINE
  5
19D
  8
0
  6
CONTINUOUS
 62
     7
 10
44.5841654382
 20
46.1976892565
 30
0.0
 11
44.5841654382
 21
46.7976893549
 31
0.0
  0
ARC
  5
19E
  8
0
  6
CONTINUOUS
 62
     7
 10
44.9841643891
 20
46.1976892655
 30
0.0
 40
0.3999999999999986
 50
180.0
 51
270.0
  0
CIRCLE
  5
19F
  8
0
  6
CONTINUOUS
 62
     7
 10
96.1841643891
 20
58.7976892655
 30
0.0
 40
1.5
  0
CIRCLE
  5
1A0
  8
0
  6
CONTINUOUS
 62
     7
 10
80.1841643891
 20
58.7976892655
 30
0.0
 40
1.5
  0
LINE
  5
1A1
  8
0
  6
CONTINUOUS
 62
     7
 10
76.1851645253
 20
56.3976894383
 30
0.0
 11
76.1841646573
 21
56.7976891314
 31
0.0
  0
LINE
  5
1A2
  8
0
  6
CONTINUOUS
 62
     7
 10
76.1841646573
 20
58.7976890867
 30
0.0
 11
76.1841646573
 21
56.7976891314
 31
0.0
  0
ARC
  5
1A3
  8
0
  6
CONTINUOUS
 62
     7
 10
80.1841643891
 20
58.7976892655
 30
0.0
 40
4.000000000000007
 50
109.2880580441
 51
180.0
  0
LINE
  5
1A4
  8
0
  6
CONTINUOUS
 62
     7
 10
95.2497079215
 20
62.7976889973
 30
0.0
 11
91.1841643221
 21
62.7976889973
 31
0.0
  0
LINE
  5
1A5
  8
0
  6
CONTINUOUS
 62
     7
 10
85.1841644562
 20
62.7976889973
 30
0.0
 11
81.1186208567
 21
62.7976889973
 31
0.0
  0
ARC
  5
1A6
  8
0
  6
CONTINUOUS
 62
     7
 10
96.1841643891
 20
58.7976892655
 30
0.0
 40
4.000000000000017
 50
0.0
 51
70.9439465439
  0
LINE
  5
1A7
  8
0
  6
CONTINUOUS
 62
     7
 10
100.1841641209
 20
56.7976891314
 30
0.0
 11
100.1841641209
 21
58.7976890867
 31
0.0
  0
LINE
  5
1A8
  8
0
  6
CONTINUOUS
 62
     7
 10
100.1841641209
 20
56.7976891314
 30
0.0
 11
100.183164253
 21
56.3976894383
 31
0.0
  0
ARC
  5
1A9
  8
0
  6
CONTINUOUS
 62
     7
 10
88.1841643891
 20
-26.7788011082
 30
0.0
 40
73.33969272412415
 50
64.365028314
 51
115.634971686
  0
ARC
  5
1AA
  8
0
  6
CONTINUOUS
 62
     7
 10
88.1841643891
 20
-26.7910788621
 30
0.0
 40
73.33113480251569
 50
64.7052171818
 51
115.2947828182
  0
ARC
  5
1AB
  8
0
  6
CONTINUOUS
 62
     7
 10
60.0619448132
 20
32.8982113343
 30
0.0
 40
7.349242666434459
 50
115.9018910856
 51
164.5639882162
  0
ARC
  5
1AC
  8
0
  6
CONTINUOUS
 62
     7
 10
116.3224297986
 20
32.9115645978
 30
0.0
 40
7.330226547466032
 50
15.3687847357
 51
64.1653359624
  0
POLYLINE
  5
1AD
  8
0
  6
CONTINUOUS
 62
     7
 66
     1
 10
0.0
 20
0.0
 30
0.0
  0
VERTEX
  5
495
  8
0
  6
CONTINUOUS
 62
     7
 10
123.3905091128
 20
34.8542946641
 30
0.0
  0
VERTEX
  5
496
  8
0
  6
CONTINUOUS
 62
     7
 10
124.3075742564
 20
31.5626907413
 30
0.0
  0
VERTEX
  5
497
  8
0
  6
CONTINUOUS
 62
     7
 10
124.9087496838
 20
28.286415643
 30
0.0
  0
VERTEX
  5
498
  8
0
  6
CONTINUOUS
 62
     7
 10
125.2662702641
 20
24.9942752783
 30
0.0
  0
VERTEX
  5
499
  8
0
  6
CONTINUOUS
 62
     7
 10
125.4810287795
 20
21.6990920966
 30
0.0
  0
VERTEX
  5
49A
  8
0
  6
CONTINUOUS
 62
     7
 10
125.5627765498
 20
18.4009018605
 30
0.0
  0
VERTEX
  5
49B
  8
0
  6
CONTINUOUS
 62
     7
 10
125.5596115432
 20
15.1000800793
 30
0.0
  0
VERTEX
  5
49C
  8
0
  6
CONTINUOUS
 62
     7
 10
125.5325093112
 20
11.7998126214
 30
0.0
  0
VERTEX
  5
49D
  8
0
  6
CONTINUOUS
 62
     7
 10
125.530351623
 20
8.5022959177
 30
0.0
  0
VERTEX
  5
49E
  8
0
  6
CONTINUOUS
 62
     7
 10
125.5772873006
 20
2.1821472113
 30
0.0
  0
VERTEX
  5
49F
  8
0
  6
CONTINUOUS
 62
     7
 10
125.6113781772
 20
-4.1385826404
 30
0.0
  0
VERTEX
  5
4A0
  8
0
  6
CONTINUOUS
 62
     7
 10
125.6203814587
 20
-10.3918132122
 30
0.0
  0
VERTEX
  5
4A1
  8
0
  6
CONTINUOUS
 62
     7
 10
125.6221994004
 20
-12.2365352447
 30
0.0
  0
VERTEX
  5
4A2
  8
0
  6
CONTINUOUS
 62
     7
 10
125.6266876302
 20
-14.1040620143
 30
0.0
  0
VERTEX
  5
4A3
  8
0
  6
CONTINUOUS
 62
     7
 10
125.6358846269
 20
-15.9994241531
 30
0.0
  0
VERTEX
  5
4A4
  8
0
  6
CONTINUOUS
 62
     7
 10
125.6518705926
 20
-17.9269906814
 30
0.0
  0
VERTEX
  5
4A5
  8
0
  6
CONTINUOUS
 62
     7
 10
125.6759687505
 20
-19.8955652053
 30
0.0
  0
SEQEND
  5
4EA
  8
0
  6
CONTINUOUS
 62
     7
  0
ARC
  5
1AE
  8
0
  6
CONTINUOUS
 62
     7
 10
118.9558213182
 20
-20.0889159975
 30
0.0
 40
6.722928382776488
 50
275.3899218463
 51
1.6480485111
  0
ARC
  5
1AF
  8
0
  6
CONTINUOUS
 62
     7
 10
88.1841643891
 20
313.1488241192
 30
0.0
 40
341.3783893576843
 50
264.7219388975
 51
275.2780611025
  0
ARC
  5
1B0
  8
0
  6
CONTINUOUS
 62
     7
 10
57.4025134171
 20
-20.0977520778
 30
0.0
 40
6.713198793403746
 50
178.2741153836
 51
264.6879142591
  0
POLYLINE
  5
1B1
  8
0
  6
CONTINUOUS
 62
     7
 66
     1
 10
0.0
 20
0.0
 30
0.0
  0
VERTEX
  5
4A6
  8
0
  6
CONTINUOUS
 62
     7
 10
50.6923600278
 20
-19.8955652053
 30
0.0
  0
VERTEX
  5
4A7
  8
0
  6
CONTINUOUS
 62
     7
 10
50.7206781945
 20
-17.4985405738
 30
0.0
  0
VERTEX
  5
4A8
  8
0
  6
CONTINUOUS
 62
     7
 10
50.7372184834
 20
-15.1588496501
 30
0.0
  0
VERTEX
  5
4A9
  8
0
  6
CONTINUOUS
 62
     7
 10
50.745014771
 20
-12.8644463356
 30
0.0
  0
VERTEX
  5
4AA
  8
0
  6
CONTINUOUS
 62
     7
 10
50.7478072486
 20
-10.6065747077
 30
0.0
  0
VERTEX
  5
4AB
  8
0
  6
CONTINUOUS
 62
     7
 10
50.7492079577
 20
-8.3760437305
 30
0.0
  0
VERTEX
  5
4AC
  8
0
  6
CONTINUOUS
 62
     7
 10
50.7521196446
 20
-6.1486062343
 30
0.0
  0
VERTEX
  5
4AD
  8
0
  6
CONTINUOUS
 62
     7
 10
50.7576598964
 20
-3.9077040489
 30
0.0
  0
VERTEX
  5
4AE
  8
0
  6
CONTINUOUS
 62
     7
 10
50.7919862113
 20
2.298355407
 30
0.0
  0
VERTEX
  5
4AF
  8
0
  6
CONTINUOUS
 62
     7
 10
50.8379771552
 20
8.5022959177
 30
0.0
  0
VERTEX
  5
4B0
  8
0
  6
CONTINUOUS
 62
     7
 10
50.8358194671
 20
11.7998126214
 30
0.0
  0
VERTEX
  5
4B1
  8
0
  6
CONTINUOUS
 62
     7
 10
50.8087172351
 20
15.1000800793
 30
0.0
  0
VERTEX
  5
4B2
  8
0
  6
CONTINUOUS
 62
     7
 10
50.8055522284
 20
18.4009018605
 30
0.0
  0
VERTEX
  5
4B3
  8
0
  6
CONTINUOUS
 62
     7
 10
50.8872999987
 20
21.6990920966
 30
0.0
  0
VERTEX
  5
4B4
  8
0
  6
CONTINUOUS
 62
     7
 10
51.1020585141
 20
24.9942752783
 30
0.0
  0
VERTEX
  5
4B5
  8
0
  6
CONTINUOUS
 62
     7
 10
51.4595790944
 20
28.286415643
 30
0.0
  0
VERTEX
  5
4B6
  8
0
  6
CONTINUOUS
 62
     7
 10
52.0607545218
 20
31.5626907413
 30
0.0
  0
VERTEX
  5
4B7
  8
0
  6
CONTINUOUS
 62
     7
 10
52.9778196654
 20
34.8542946641
 30
0.0
  0
SEQEND
  5
4E9
  8
0
  6
CONTINUOUS
 62
     7
  0
ARC
  5
1B2
  8
0
  6
CONTINUOUS
 62
     7
 10
116.6579516643
 20
32.7355283486
 30
0.0
 40
7.365053893039009
 50
15.544569452
 51
63.7661944591
  0
ARC
  5
1B3
  8
0
  6
CONTINUOUS
 62
     7
 10
59.6925287154
 20
32.7503229106
 30
0.0
 40
7.343899690940231
 50
116.159920293
 51
164.5293157959
  0
POLYLINE
  5
1B4
  8
0
  6
CONTINUOUS
 62
     7
 66
     1
 10
0.0
 20
0.0
 30
0.0
  0
VERTEX
  5
4B8
  8
0
  6
CONTINUOUS
 62
     7
 10
123.7536086879
 20
34.7092735832
 30
0.0
  0
VERTEX
  5
4B9
  8
0
  6
CONTINUOUS
 62
     7
 10
124.1875245414
 20
33.1961187785
 30
0.0
  0
VERTEX
  5
4BA
  8
0
  6
CONTINUOUS
 62
     7
 10
124.5854958138
 20
31.6829609935
 30
0.0
  0
SEQEND
  5
4E8
  8
0
  6
CONTINUOUS
 62
     7
  0
ARC
  5
1B5
  8
0
  6
CONTINUOUS
 62
     7
 10
65.9391865456
 20
19.7404080584
 30
0.0
 40
59.84974357642382
 50
6.6422335737
 51
11.5101505537
  0
POLYLINE
  5
1B6
  8
0
  6
CONTINUOUS
 62
     7
 66
     1
 10
0.0
 20
0.0
 30
0.0
  0
VERTEX
  5
4BB
  8
0
  6
CONTINUOUS
 62
     7
 10
125.3869190059
 20
26.6631591384
 30
0.0
  0
VERTEX
  5
4BC
  8
0
  6
CONTINUOUS
 62
     7
 10
125.6111814818
 20
24.1597387259
 30
0.0
  0
VERTEX
  5
4BD
  8
0
  6
CONTINUOUS
 62
     7
 10
125.7556899628
 20
21.6559919779
 30
0.0
  0
SEQEND
  5
4E7
  8
0
  6
CONTINUOUS
 62
     7
  0
LINE
  5
1B7
  8
0
  6
CONTINUOUS
 62
     7
 10
125.7841631017
 20
19.8031219904
 30
0.0
 11
125.7553412757
 21
21.6559770768
 31
0.0
  0
LINE
  5
1B8
  8
0
  6
CONTINUOUS
 62
     7
 10
125.7841631017
 20
11.691564626
 30
0.0
 11
125.7841631017
 21
19.8031219904
 31
0.0
  0
POLYLINE
  5
1B9
  8
0
  6
CONTINUOUS
 62
     7
 66
     1
 10
0.0
 20
0.0
 30
0.0
  0
VERTEX
  5
4BE
  8
0
  6
CONTINUOUS
 62
     7
 10
125.7841631017
 20
11.6915825074
 30
0.0
  0
VERTEX
  5
4BF
  8
0
  6
CONTINUOUS
 62
     7
 10
125.7694556556
 20
8.5197183554
 30
0.0
  0
VERTEX
  5
4C0
  8
0
  6
CONTINUOUS
 62
     7
 10
125.7841690621
 20
1.691693372
 30
0.0
  0
SEQEND
  5
4E6
  8
0
  6
CONTINUOUS
 62
     7
  0
POLYLINE
  5
1BA
  8
0
  6
CONTINUOUS
 62
     7
 66
     1
 10
0.0
 20
0.0
 30
0.0
  0
VERTEX
  5
4C1
  8
0
  6
CONTINUOUS
 62
     7
 10
125.7842346272
 20
-19.9627813632
 30
0.0
  0
VERTEX
  5
4C2
  8
0
  6
CONTINUOUS
 62
     7
 10
125.7842346272
 20
-19.6548399265
 30
0.0
  0
VERTEX
  5
4C3
  8
0
  6
CONTINUOUS
 62
     7
 10
125.7840200505
 20
-17.2429916198
 30
0.0
  0
VERTEX
  5
4C4
  8
0
  6
CONTINUOUS
 62
     7
 10
125.7835432134
 20
-14.85843628
 30
0.0
  0
VERTEX
  5
4C5
  8
0
  6
CONTINUOUS
 62
     7
 10
125.7831915459
 20
-12.4950882728
 30
0.0
  0
VERTEX
  5
4C6
  8
0
  6
CONTINUOUS
 62
     7
 10
125.7845117888
 20
-7.7862378891
 30
0.0
  0
VERTEX
  5
4C7
  8
0
  6
CONTINUOUS
 62
     7
 10
125.7879867396
 20
-3.0523356731
 30
0.0
  0
VERTEX
  5
4C8
  8
0
  6
CONTINUOUS
 62
     7
 10
125.7841631017
 20
1.691693372
 30
0.0
  0
SEQEND
  5
4E5
  8
0
  6
CONTINUOUS
 62
     7
  0
LINE
  5
1BB
  8
0
  6
CONTINUOUS
 62
     7
 10
50.5841656766
 20
1.691693372
 30
0.0
 11
50.5841656766
 21
-8.306151324
 31
0.0
  0
POLYLINE
  5
1BC
  8
0
  6
CONTINUOUS
 62
     7
 66
     1
 10
0.0
 20
0.0
 30
0.0
  0
VERTEX
  5
4C9
  8
0
  6
CONTINUOUS
 62
     7
 10
50.5841597161
 20
1.691693372
 30
0.0
  0
VERTEX
  5
4CA
  8
0
  6
CONTINUOUS
 62
     7
 10
50.5988731227
 20
8.5197183554
 30
0.0
  0
VERTEX
  5
4CB
  8
0
  6
CONTINUOUS
 62
     7
 10
50.5841656766
 20
11.6915825074
 30
0.0
  0
SEQEND
  5
4E4
  8
0
  6
CONTINUOUS
 62
     7
  0
LINE
  5
1BD
  8
0
  6
CONTINUOUS
 62
     7
 10
50.5841656766
 20
19.8031219904
 30
0.0
 11
50.5841656766
 21
11.691564626
 31
0.0
  0
LINE
  5
1BE
  8
0
  6
CONTINUOUS
 62
     7
 10
50.6129875026
 20
21.6559770768
 30
0.0
 11
50.5841656766
 21
19.8031219904
 31
0.0
  0
POLYLINE
  5
1BF
  8
0
  6
CONTINUOUS
 62
     7
 66
     1
 10
0.0
 20
0.0
 30
0.0
  0
VERTEX
  5
4CC
  8
0
  6
CONTINUOUS
 62
     7
 10
50.6126388154
 20
21.6559919779
 30
0.0
  0
VERTEX
  5
4CD
  8
0
  6
CONTINUOUS
 62
     7
 10
50.7571472964
 20
24.1597387259
 30
0.0
  0
VERTEX
  5
4CE
  8
0
  6
CONTINUOUS
 62
     7
 10
50.9814097724
 20
26.6631591384
 30
0.0
  0
SEQEND
  5
4E3
  8
0
  6
CONTINUOUS
 62
     7
  0
ARC
  5
1C0
  8
0
  6
CONTINUOUS
 62
     7
 10
110.3844853389
 20
19.7475419029
 30
0.0
 40
59.80456129352202
 50
168.488009485
 51
173.3596063875
  0
POLYLINE
  5
1C1
  8
0
  6
CONTINUOUS
 62
     7
 66
     1
 10
0.0
 20
0.0
 30
0.0
  0
VERTEX
  5
4CF
  8
0
  6
CONTINUOUS
 62
     7
 10
51.7841651282
 20
31.6885504191
 30
0.0
  0
VERTEX
  5
4D0
  8
0
  6
CONTINUOUS
 62
     7
 10
52.1815910182
 20
33.1989142363
 30
0.0
  0
VERTEX
  5
4D1
  8
0
  6
CONTINUOUS
 62
     7
 10
52.6147200904
 20
34.7092735832
 30
0.0
  0
SEQEND
  5
4E2
  8
0
  6
CONTINUOUS
 62
     7
  0
POLYLINE
  5
1C2
  8
0
  6
CONTINUOUS
 62
     7
 66
     1
 10
0.0
 20
0.0
 30
0.0
  0
VERTEX
  5
4D2
  8
0
  6
CONTINUOUS
 62
     7
 10
50.584094151
 20
-19.9618336494
 30
0.0
  0
VERTEX
  5
4D3
  8
0
  6
CONTINUOUS
 62
     7
 10
50.584094151
 20
-19.9365076358
 30
0.0
  0
VERTEX
  5
4D4
  8
0
  6
CONTINUOUS
 62
     7
 10
50.5842640242
 20
-17.5234970386
 30
0.0
  0
VERTEX
  5
4D5
  8
0
  6
CONTINUOUS
 62
     7
 10
50.5847289405
 20
-15.1350316341
 30
0.0
  0
VERTEX
  5
4D6
  8
0
  6
CONTINUOUS
 62
     7
 10
50.5851133904
 20
-12.7691146667
 30
0.0
  0
VERTEX
  5
4D7
  8
0
  6
CONTINUOUS
 62
     7
 10
50.5850120625
 20
-10.4142901237
 30
0.0
  0
VERTEX
  5
4D8
  8
0
  6
CONTINUOUS
 62
     7
 10
50.5841656766
 20
-8.306151324
 30
0.0
  0
SEQEND
  5
4E1
  8
0
  6
CONTINUOUS
 62
     7
  0
ARC
  5
1C3
  8
0
  6
CONTINUOUS
 62
     7
 10
119.1397530254
 20
-20.0994256023
 30
0.0
 40
6.645886502542977
 50
292.544393283
 51
1.1781257346
  0
ARC
  5
1C4
  8
0
  6
CONTINUOUS
 62
     7
 10
57.2316210122
 20
-20.0954412403
 30
0.0
 40
6.648869404511398
 50
178.8485762181
 51
250.641800128
  0
LINE
  5
1C5
  8
0
  6
CONTINUOUS
 62
     7
 10
125.3841652713
 20
26.6893121665
 30
0.0
 11
125.3872051082
 21
26.663191921
 31
0.0
  0
POLYLINE
  5
1C6
  8
0
  6
CONTINUOUS
 62
     7
 66
     1
 10
0.0
 20
0.0
 30
0.0
  0
VERTEX
  5
4D9
  8
0
  6
CONTINUOUS
 62
     7
 10
124.5853140197
 20
31.6829177802
 30
0.0
  0
VERTEX
  5
4DA
  8
0
  6
CONTINUOUS
 62
     7
 10
125.0374986968
 20
29.1970524256
 30
0.0
  0
VERTEX
  5
4DB
  8
0
  6
CONTINUOUS
 62
     7
 10
125.3841652713
 20
26.6893121665
 30
0.0
  0
SEQEND
  5
4E0
  8
0
  6
CONTINUOUS
 62
     7
  0
POLYLINE
  5
1C7
  8
0
  6
CONTINUOUS
 62
     7
 66
     1
 10
0.0
 20
0.0
 30
0.0
  0
VERTEX
  5
4DC
  8
0
  6
CONTINUOUS
 62
     7
 10
50.984163507
 20
26.6893121665
 30
0.0
  0
VERTEX
  5
4DD
  8
0
  6
CONTINUOUS
 62
     7
 10
51.3300939641
 20
29.1924539273
 30
0.0
  0
VERTEX
  5
4DE
  8
0
  6
CONTINUOUS
 62
     7
 10
51.7830147586
 20
31.6829177802
 30
0.0
  0
SEQEND
  5
4DF
  8
0
  6
CONTINUOUS
 62
     7
  0
LINE
  5
1C8
  8
0
  6
CONTINUOUS
 62
     7
 10
50.9811236701
 20
26.663191921
 30
0.0
 11
50.984163507
 21
26.6893121665
 31
0.0
  0
LINE
  5
1C9
  8
0
  6
CONTINUOUS
 62
     7
 10
125.7553412757
 20
21.6559770768
 30
0.0
 11
125.7841631017
 21
19.805285639
 31
0.0
  0
LINE
  5
1CA
  8
0
  6
CONTINUOUS
 62
     7
 10
50.5841656766
 20
19.805285639
 30
0.0
 11
50.6129875026
 21
21.6559770768
 31
0.0
  0
LINE
  5
1CB
  8
0
  6
CONTINUOUS
 62
     7
 10
51.3584896169
 20
45.4976893281
 30
0.0
 11
51.3584896169
 21
45.4408700829
 31
0.0
  0
LINE
  5
1CC
  8
0
  6
CONTINUOUS
 62
     7
 10
50.5807413897
 20
-15.7023128803
 30
0.0
 11
50.4841639838
 21
-15.7023128803
 31
0.0
  0
LINE
  5
1CD
  8
0
  6
CONTINUOUS
 62
     7
 10
50.4841639838
 20
-15.7023128803
 30
0.0
 11
50.4841639838
 21
45.4976893281
 31
0.0
  0
LINE
  5
1CE
  8
0
  6
CONTINUOUS
 62
     7
 10
50.4841639838
 20
45.4976893281
 30
0.0
 11
51.3584896169
 21
45.4976893281
 31
0.0
  0
LINE
  5
1CF
  8
0
  6
CONTINUOUS
 62
     7
 10
51.3584896169
 20
45.4408700829
 30
0.0
 11
51.5800102792
 21
45.4256321554
 31
0.0
  0
ARC
  5
1D0
  8
0
  6
CONTINUOUS
 62
     7
 10
52.1481254103
 20
43.3861044247
 30
0.0
 40
1.9961466379649
 50
359.8798940358
 51
86.0295312065
  0
LINE
  5
1D1
  8
0
  6
CONTINUOUS
 62
     7
 10
54.1442676625
 20
43.3819200163
 30
0.0
 11
54.1442676625
 21
38.9793987637
 31
0.0
  0
ARC
  5
1D2
  8
0
  6
CONTINUOUS
 62
     7
 10
55.3460602383
 20
38.9786154115
 30
0.0
 40
1.201792831047215
 50
179.9626534821
 51
232.2494355137
  0
LINE
  5
1D3
  8
0
  6
CONTINUOUS
 62
     7
 10
52.2863432011
 20
45.377460054
 30
0.0
 11
51.5800102792
 21
45.4256321554
 31
0.0
  0
LINE
  5
1D4
  8
0
  6
CONTINUOUS
 62
     7
 10
50.4841639838
 20
45.4976893281
 30
0.0
 11
50.4841639838
 21
58.2178059285
 31
0.0
  0
LINE
  5
1D5
  8
0
  6
CONTINUOUS
 62
     7
 10
51.2841656051
 20
58.2178059285
 30
0.0
 11
51.2841656051
 21
45.4976893281
 31
0.0
  0
LINE
  5
1D6
  8
0
  6
CONTINUOUS
 62
     7
 10
50.4841639838
 20
59.3976895576
 30
0.0
 11
51.2841656051
 21
59.3976895576
 31
0.0
  0
LINE
  5
1D7
  8
0
  6
CONTINUOUS
 62
     7
 10
50.4841639838
 20
58.2178059285
 30
0.0
 11
50.4841639838
 21
59.3976895576
 31
0.0
  0
LINE
  5
1D8
  8
0
  6
CONTINUOUS
 62
     7
 10
51.2841656051
 20
59.3976895576
 30
0.0
 11
51.2841656051
 21
58.2178059285
 31
0.0
  0
LINE
  5
1D9
  8
0
  6
CONTINUOUS
 62
     7
 10
55.6841655812
 20
55.7699143206
 30
0.0
 11
55.6841655812
 21
55.3976892744
 31
0.0
  0
LINE
  5
1DA
  8
0
  6
CONTINUOUS
 62
     7
 10
53.7189080558
 20
56.3976894383
 30
0.0
 11
51.2841656051
 21
56.3976894383
 31
0.0
  0
LINE
  5
1DB
  8
0
  6
CONTINUOUS
 62
     7
 10
45.684163197
 20
56.3976894383
 30
0.0
 11
45.684163197
 21
55.3976892744
 31
0.0
  0
LINE
  5
1DC
  8
0
  6
CONTINUOUS
 62
     7
 10
50.4841639838
 20
56.3976894383
 30
0.0
 11
45.684163197
 21
56.3976894383
 31
0.0
  0
LINE
  5
1DD
  8
0
  6
CONTINUOUS
 62
     7
 10
55.6841655812
 20
55.3976892744
 30
0.0
 11
55.6841655812
 21
46.1976892565
 31
0.0
  0
LINE
  5
1DE
  8
0
  6
CONTINUOUS
 62
     7
 10
45.684163197
 20
55.3976892744
 30
0.0
 11
45.684163197
 21
46.1976892565
 31
0.0
  0
LINE
  5
1DF
  8
0
  6
CONTINUOUS
 62
     7
 10
50.4841639838
 20
45.1976890926
 30
0.0
 11
45.684163197
 21
45.1976890926
 31
0.0
  0
LINE
  5
1E0
  8
0
  6
CONTINUOUS
 62
     7
 10
45.684163197
 20
46.1976892565
 30
0.0
 11
45.684163197
 21
45.1976890926
 31
0.0
  0
LINE
  5
1E1
  8
0
  6
CONTINUOUS
 62
     7
 10
55.6841655812
 20
45.1976890926
 30
0.0
 11
52.9880537829
 21
45.1976890926
 31
0.0
  0
LINE
  5
1E2
  8
0
  6
CONTINUOUS
 62
     7
 10
55.6841655812
 20
46.1976892565
 30
0.0
 11
55.6841655812
 21
45.1976890926
 31
0.0
  0
LINE
  5
1E3
  8
0
  6
CONTINUOUS
 62
     7
 10
125.8841647944
 20
-15.7023128803
 30
0.0
 11
125.8841647944
 21
45.4976893281
 31
0.0
  0
LINE
  5
1E4
  8
0
  6
CONTINUOUS
 62
     7
 10
125.7875873885
 20
-15.7023128803
 30
0.0
 11
125.8841647944
 21
-15.7023128803
 31
0.0
  0
LINE
  5
1E5
  8
0
  6
CONTINUOUS
 62
     7
 10
125.0098391614
 20
45.4408700829
 30
0.0
 11
124.7883184991
 21
45.4256321554
 31
0.0
  0
LINE
  5
1E6
  8
0
  6
CONTINUOUS
 62
     7
 10
125.0098391614
 20
45.4976893281
 30
0.0
 11
125.0098391614
 21
45.4408700829
 31
0.0
  0
LINE
  5
1E7
  8
0
  6
CONTINUOUS
 62
     7
 10
125.8841647944
 20
45.4976893281
 30
0.0
 11
125.0098391614
 21
45.4976893281
 31
0.0
  0
ARC
  5
1E8
  8
0
  6
CONTINUOUS
 62
     7
 10
121.0222265657
 20
38.9786260102
 30
0.0
 40
1.201834798489423
 50
308.2419419619
 51
0.0368399334
  0
LINE
  5
1E9
  8
0
  6
CONTINUOUS
 62
     7
 10
122.2240611157
 20
43.3819200163
 30
0.0
 11
122.2240611157
 21
38.9793987637
 31
0.0
  0
ARC
  5
1EA
  8
0
  6
CONTINUOUS
 62
     7
 10
124.2202033679
 20
43.3861044247
 30
0.0
 40
1.996146637964924
 50
93.9704687935
 51
180.1201059642
  0
LINE
  5
1EB
  8
0
  6
CONTINUOUS
 62
     7
 10
124.0819855771
 20
45.377460054
 30
0.0
 11
124.7883184991
 21
45.4256321554
 31
0.0
  0
LINE
  5
1EC
  8
0
  6
CONTINUOUS
 62
     7
 10
125.8841647944
 20
45.4976893281
 30
0.0
 11
125.8841647944
 21
58.2178059285
 31
0.0
  0
LINE
  5
1ED
  8
0
  6
CONTINUOUS
 62
     7
 10
125.0841631732
 20
58.2178059285
 30
0.0
 11
125.0841631732
 21
45.4976893281
 31
0.0
  0
LINE
  5
1EE
  8
0
  6
CONTINUOUS
 62
     7
 10
125.8841647944
 20
59.3976895576
 30
0.0
 11
125.0841631732
 21
59.3976895576
 31
0.0
  0
LINE
  5
1EF
  8
0
  6
CONTINUOUS
 62
     7
 10
125.8841647944
 20
58.2178059285
 30
0.0
 11
125.8841647944
 21
59.3976895576
 31
0.0
  0
LINE
  5
1F0
  8
0
  6
CONTINUOUS
 62
     7
 10
125.0841631732
 20
59.3976895576
 30
0.0
 11
125.0841631732
 21
58.2178059285
 31
0.0
  0
LINE
  5
1F1
  8
0
  6
CONTINUOUS
 62
     7
 10
122.6494296632
 20
56.3976894383
 30
0.0
 11
125.0841631732
 21
56.3976894383
 31
0.0
  0
LINE
  5
1F2
  8
0
  6
CONTINUOUS
 62
     7
 10
120.684163197
 20
55.7640827512
 30
0.0
 11
120.684163197
 21
55.3976892744
 31
0.0
  0
LINE
  5
1F3
  8
0
  6
CONTINUOUS
 62
     7
 10
125.8841647944
 20
56.3976894383
 30
0.0
 11
130.6841655812
 21
56.3976894383
 31
0.0
  0
LINE
  5
1F4
  8
0
  6
CONTINUOUS
 62
     7
 10
130.6841655812
 20
56.3976894383
 30
0.0
 11
130.6841655812
 21
55.3976892744
 31
0.0
  0
LINE
  5
1F5
  8
0
  6
CONTINUOUS
 62
     7
 10
130.6841655812
 20
55.3976892744
 30
0.0
 11
130.6841655812
 21
46.1976892565
 31
0.0
  0
LINE
  5
1F6
  8
0
  6
CONTINUOUS
 62
     7
 10
120.684163197
 20
55.3976892744
 30
0.0
 11
120.684163197
 21
46.1976892565
 31
0.0
  0
LINE
  5
1F7
  8
0
  6
CONTINUOUS
 62
     7
 10
125.8841647944
 20
45.1976890926
 30
0.0
 11
130.6841655812
 21
45.1976890926
 31
0.0
  0
LINE
  5
1F8
  8
0
  6
CONTINUOUS
 62
     7
 10
130.6841655812
 20
46.1976892565
 30
0.0
 11
130.6841655812
 21
45.1976890926
 31
0.0
  0
LINE
  5
1F9
  8
0
  6
CONTINUOUS
 62
     7
 10
120.684163197
 20
45.1976890926
 30
0.0
 11
123.3802749953
 21
45.1976890926
 31
0.0
  0
LINE
  5
1FA
  8
0
  6
CONTINUOUS
 62
     7
 10
120.684163197
 20
46.1976892565
 30
0.0
 11
120.684163197
 21
45.1976890926
 31
0.0
  0
ENDSEC
  0
EOF
