  0
SECTION
  2
HEADER
  9
$ACADVER
  1
AC1009
  9
$DWGCODEPAGE
  3
ansi_1252
  9
$INSBASE
 10
0.0
 20
0.0
 30
0.0
  9
$EXTMIN
 10
0.0
 20
0.0
 30
0.0
  9
$EXTMAX
 10
420.0
 20
297.0
 30
0.0
  9
$LIMMIN
 10
0.0
 20
0.0
  9
$LIMMAX
 10
420.0
 20
297.0
  9
$ORTHOMODE
 70
     0
  9
$REGENMODE
 70
     1
  9
$FILLMODE
 70
     1
  9
$QTEXTMODE
 70
     0
  9
$MIRRTEXT
 70
     1
  9
$DRAGMODE
 70
     2
  9
$LTSCALE
 40
1.0
  9
$OSMODE
 70
    37
  9
$ATTMODE
 70
     1
  9
$TEXTSIZE
 40
3.5
  9
$TRACEWID
 40
1.0
  9
$TEXTSTYLE
  7
STANDARD
  9
$CLAYER
  8
0
  9
$CELTYPE
  6
BYLAYER
  9
$CECOLOR
 62
   256
  9
$DIMSCALE
 40
1.0
  9
$DIMASZ
 40
4.0
  9
$DIMEXO
 40
0.0
  9
$DIMDLI
 40
3.75
  9
$DIMRND
 40
0.0
  9
$DIMDLE
 40
0.0
  9
$DIMEXE
 40
2.0
  9
$DIMTP
 40
0.0
  9
$DIMTM
 40
0.0
  9
$DIMTXT
 40
3.5
  9
$DIMCEN
 40
2.5
  9
$DIMTSZ
 40
0.0
  9
$DIMTOL
 70
     0
  9
$DIMLIM
 70
     0
  9
$DIMTIH
 70
     1
  9
$DIMTOH
 70
     1
  9
$DIMSE1
 70
     0
  9
$DIMSE2
 70
     0
  9
$DIMTAD
 70
     1
  9
$DIMZIN
 70
     0
  9
$DIMBLK
  1

  9
$DIMASO
 70
     1
  9
$DIMSHO
 70
     1
  9
$DIMPOST
  1

  9
$DIMAPOST
  1

  9
$DIMALT
 70
     0
  9
$DIMALTD
 70
     3
  9
$DIMALTF
 40
0.0393700787
  9
$DIMLFAC
 40
5.0
  9
$DIMTOFL
 70
     1
  9
$DIMTVP
 40
0.0
  9
$DIMTIX
 70
     0
  9
$DIMSOXD
 70
     0
  9
$DIMSAH
 70
     0
  9
$DIMBLK1
  1

  9
$DIMBLK2
  1

  9
$DIMSTYLE
  2
ISO-25
  9
$DIMCLRD
 70
     0
  9
$DIMCLRE
 70
     0
  9
$DIMCLRT
 70
     0
  9
$DIMTFAC
 40
1.0
  9
$DIMGAP
 40
1.524
  9
$LUNITS
 70
     2
  9
$LUPREC
 70
     2
  9
$SKETCHINC
 40
1.0
  9
$FILLETRAD
 40
10.0
  9
$AUNITS
 70
     0
  9
$AUPREC
 70
     2
  9
$MENU
  1
.
  9
$ELEVATION
 40
0.0
  9
$PELEVATION
 40
0.0
  9
$THICKNESS
 40
0.0
  9
$LIMCHECK
 70
     0
  9
$CHAMFERA
 40
10.0
  9
$CHAMFERB
 40
10.0
  9
$SKPOLY
 70
     0
  9
$TDCREATE
 40
2457802.434834803
  9
$TDUPDATE
 40
2457802.434835104
  9
$TDINDWG
 40
0.0000000116
  9
$TDUSRTIMER
 40
0.0000000116
  9
$USRTIMER
 70
     1
  9
$ANGBASE
 50
0.0
  9
$ANGDIR
 70
     0
  9
$PDMODE
 70
     0
  9
$PDSIZE
 40
-1.0
  9
$PLINEWID
 40
0.0
  9
$COORDS
 70
     1
  9
$SPLFRAME
 70
     0
  9
$SPLINETYPE
 70
     6
  9
$SPLINESEGS
 70
     8
  9
$ATTDIA
 70
     0
  9
$ATTREQ
 70
     1
  9
$HANDLING
 70
     1
  9
$HANDSEED
  5
AD5
  9
$SURFTAB1
 70
     6
  9
$SURFTAB2
 70
     6
  9
$SURFTYPE
 70
     6
  9
$SURFU
 70
     6
  9
$SURFV
 70
     6
  9
$UCSNAME
  2

  9
$UCSORG
 10
0.0
 20
0.0
 30
0.0
  9
$UCSXDIR
 10
1.0
 20
0.0
 30
0.0
  9
$UCSYDIR
 10
0.0
 20
1.0
 30
0.0
  9
$PUCSNAME
  2

  9
$PUCSORG
 10
0.0
 20
0.0
 30
0.0
  9
$PUCSXDIR
 10
1.0
 20
0.0
 30
0.0
  9
$PUCSYDIR
 10
0.0
 20
1.0
 30
0.0
  9
$USERI1
 70
     0
  9
$USERI2
 70
     0
  9
$USERI3
 70
     0
  9
$USERI4
 70
     0
  9
$USERI5
 70
     0
  9
$USERR1
 40
0.0
  9
$USERR2
 40
0.0
  9
$USERR3
 40
0.0
  9
$USERR4
 40
0.0
  9
$USERR5
 40
0.0
  9
$WORLDVIEW
 70
     1
  9
$SHADEDGE
 70
     3
  9
$SHADEDIF
 70
    70
  9
$TILEMODE
 70
     1
  9
$MAXACTVP
 70
    64
  9
$PLIMCHECK
 70
     0
  9
$PEXTMIN
 10
1.0000000000E+20
 20
1.0000000000E+20
 30
1.0000000000E+20
  9
$PEXTMAX
 10
-1.0000000000E+20
 20
-1.0000000000E+20
 30
-1.0000000000E+20
  9
$PLIMMIN
 10
0.0
 20
0.0
  9
$PLIMMAX
 10
420.0
 20
297.0
  9
$UNITMODE
 70
     0
  9
$VISRETAIN
 70
     1
  9
$PLINEGEN
 70
     0
  9
$PSLTSCALE
 70
     1
  0
ENDSEC
  0
SECTION
  2
TABLES
  0
TABLE
  2
VPORT
 70
     1
  0
VPORT
  2
*ACTIVE
 70
     0
 10
0.0
 20
0.0
 11
1.0
 21
1.0
 12
210.0
 22
148.5
 13
0.0
 23
0.0
 14
10.0
 24
10.0
 15
10.0
 25
10.0
 16
0.0
 26
0.0
 36
1.0
 17
0.0
 27
0.0
 37
0.0
 40
297.0
 41
1.4141414141
 42
50.0
 43
0.0
 44
0.0
 50
0.0
 51
0.0
 71
     0
 72
  2000
 73
     1
 74
     3
 75
     0
 76
     0
 77
     0
 78
     0
  0
ENDTAB
  0
TABLE
  2
LTYPE
 70
     6
  0
LTYPE
  2
CONTINUOUS
 70
     0
  3
Solid line
 72
    65
 73
     0
 40
0.0
  0
LTYPE
  2
HIDDEN
 70
     0
  3
Hidden __ __ __ __ __ __ __ __ __ __ __ __ __ __
 72
    65
 73
     2
 40
1.905
 49
1.27
 49
-0.635
  0
LTYPE
  2
PHANTOM
 70
     0
  3
Phantom ______  __  __  ______  __  __  ______
 72
    65
 73
     6
 40
12.7
 49
6.35
 49
-1.27
 49
1.27
 49
-1.27
 49
1.27
 49
-1.27
  0
LTYPE
  2
CENTER
 70
     0
  3
Center ____ _ ____ _ ____ _ ____ _ ____ _ ____
 72
    65
 73
     4
 40
10.16
 49
6.35
 49
-1.27
 49
1.27
 49
-1.27
  0
LTYPE
  2
CENTERX2
 70
     0
  3
Center (2x) ________  __  ________  __  _____
 72
    65
 73
     4
 40
20.32
 49
12.7
 49
-2.54
 49
2.54
 49
-2.54
  0
LTYPE
  2
DOT2
 70
     0
  3
Dot (.5x) ........................................
 72
    65
 73
     2
 40
0.635
 49
0.0
 49
-0.635
  0
ENDTAB
  0
TABLE
  2
LAYER
 70
     2
  0
LAYER
  2
0
 70
     0
 62
     7
  6
CONTINUOUS
  0
LAYER
  2
FORMAT
 70
     0
 62
     7
  6
CONTINUOUS
  0
ENDTAB
  0
TABLE
  2
STYLE
 70
     1
  0
STYLE
  2
STANDARD
 70
     0
 40
0.0
 41
1.0
 50
0.0
 71
     0
 42
3.5
  3
txt
  4

  0
ENDTAB
  0
TABLE
  2
VIEW
 70
     0
  0
ENDTAB
  0
TABLE
  2
UCS
 70
     0
  0
ENDTAB
  0
TABLE
  2
APPID
 70
     1
  0
APPID
  2
ACAD
 70
     0
  0
ENDTAB
  0
TABLE
  2
DIMSTYLE
 70
     1
  0
DIMSTYLE
  2
ISO-25
 70
     0
  3

  4

  5

  6

  7

 40
1.0
 41
2.5
 42
0.625
 43
3.75
 44
1.25
 45
0.0
 46
0.0
 47
0.0
 48
0.0
140
2.5
141
2.5
142
0.0
143
0.0393700787
144
1.0
145
0.0
146
1.0
147
0.625
 71
     0
 72
     0
 73
     0
 74
     0
 75
     0
 76
     0
 77
     1
 78
     8
170
     0
171
     3
172
     1
173
     0
174
     0
175
     0
176
     0
177
     0
178
     0
  0
ENDTAB
  0
ENDSEC
  0
SECTION
  2
BLOCKS
  0
BLOCK
  8
0
  2
$MODEL_SPACE
 70
     0
 10
0.0
 20
0.0
 30
0.0
  3
$MODEL_SPACE
  1

  0
ENDBLK
  5
21
  8
0
  0
BLOCK
 67
     1
  8
0
  2
$PAPER_SPACE
 70
     0
 10
0.0
 20
0.0
 30
0.0
  3
$PAPER_SPACE
  1

  0
ENDBLK
  5
1D
 67
     1
  8
0
  0
ENDSEC
  0
SECTION
  2
ENTITIES
  0
ARC
  5
45
  8
0
  6
CONTINUOUS
 62
     7
 10
55.5664135306
 20
190.4943004785
 30
0.0
 40
15.10053977999293
 50
271.1940959134
 51
0.2074317098
  0
ARC
  5
46
  8
0
  6
CONTINUOUS
 62
     7
 10
5.6627244416
 20
190.4905021603
 30
0.0
 40
15.09771091451407
 50
179.7789290376
 51
268.8137993839
  0
LINE
  5
47
  8
0
  6
CONTINUOUS
 62
     7
 10
-9.443171057
 20
230.2510634457
 30
0.0
 11
-9.443171057
 21
190.549220184
 31
0.0
  0
LINE
  5
48
  8
0
  6
CONTINUOUS
 62
     7
 10
70.6743406923
 20
190.549220184
 30
0.0
 11
70.6743406923
 21
230.2510634457
 31
0.0
  0
POLYLINE
  5
49
  8
0
  6
CONTINUOUS
 62
     7
 66
     1
 10
0.0
 20
0.0
 30
0.0
  0
VERTEX
  5
493
  8
0
  6
CONTINUOUS
 62
     7
 10
5.3500342042
 20
175.388516525
 30
0.0
  0
VERTEX
  5
494
  8
0
  6
CONTINUOUS
 62
     7
 10
7.1418451936
 20
175.3597036397
 30
0.0
  0
VERTEX
  5
495
  8
0
  6
CONTINUOUS
 62
     7
 10
10.5524229677
 20
175.31081591
 30
0.0
  0
VERTEX
  5
496
  8
0
  6
CONTINUOUS
 62
     7
 10
13.9697837503
 20
175.2695814168
 30
0.0
  0
VERTEX
  5
497
  8
0
  6
CONTINUOUS
 62
     7
 10
17.3927473695
 20
175.2360359227
 30
0.0
  0
VERTEX
  5
498
  8
0
  6
CONTINUOUS
 62
     7
 10
20.8201574952
 20
175.2101913487
 30
0.0
  0
VERTEX
  5
499
  8
0
  6
CONTINUOUS
 62
     7
 10
24.2508697183
 20
175.1920476949
 30
0.0
  0
VERTEX
  5
49A
  8
0
  6
CONTINUOUS
 62
     7
 10
27.6837157876
 20
175.1816049611
 30
0.0
  0
VERTEX
  5
49B
  8
0
  6
CONTINUOUS
 62
     7
 10
31.1175512941
 20
175.1788750684
 30
0.0
  0
VERTEX
  5
49C
  8
0
  6
CONTINUOUS
 62
     7
 10
34.5512199075
 20
175.1838580167
 30
0.0
  0
VERTEX
  5
49D
  8
0
  6
CONTINUOUS
 62
     7
 10
37.9835533769
 20
175.196553806
 30
0.0
  0
VERTEX
  5
49E
  8
0
  6
CONTINUOUS
 62
     7
 10
41.4133953721
 20
175.2169505154
 30
0.0
  0
VERTEX
  5
49F
  8
0
  6
CONTINUOUS
 62
     7
 10
44.839601484
 20
175.245048145
 30
0.0
  0
VERTEX
  5
4A0
  8
0
  6
CONTINUOUS
 62
     7
 10
48.2610153825
 20
175.2808466946
 30
0.0
  0
VERTEX
  5
4A1
  8
0
  6
CONTINUOUS
 62
     7
 10
51.6764807374
 20
175.3243104016
 30
0.0
  0
VERTEX
  5
4A2
  8
0
  6
CONTINUOUS
 62
     7
 10
54.9057054193
 20
175.372566322
 30
0.0
  0
VERTEX
  5
4A3
  8
0
  6
CONTINUOUS
 62
     7
 10
55.8811235101
 20
175.388516525
 30
0.0
  0
SEQEND
  5
AD4
  8
0
  6
CONTINUOUS
 62
     7
  0
ARC
  5
4A
  8
0
  6
CONTINUOUS
 62
     7
 10
5.075348561
 20
230.648696645
 30
0.0
 40
14.25390019709747
 50
88.5352591126
 51
113.3275727461
  0
ARC
  5
4B
  8
0
  6
CONTINUOUS
 62
     7
 10
56.1544385171
 20
230.6114993263
 30
0.0
 40
14.29227827634185
 50
66.7644532757
 51
91.4553581978
  0
POLYLINE
  5
4C
  8
0
  6
CONTINUOUS
 62
     7
 66
     1
 10
0.0
 20
0.0
 30
0.0
  0
VERTEX
  5
4A4
  8
0
  6
CONTINUOUS
 62
     7
 10
-3.2608342498
 20
242.25167189
 30
0.0
  0
VERTEX
  5
4A5
  8
0
  6
CONTINUOUS
 62
     7
 10
-3.3062291472
 20
242.2218457257
 30
0.0
  0
VERTEX
  5
4A6
  8
0
  6
CONTINUOUS
 62
     7
 10
-3.6380124419
 20
241.9709220921
 30
0.0
  0
SEQEND
  5
AD3
  8
0
  6
CONTINUOUS
 62
     7
  0
ARC
  5
4D
  8
0
  6
CONTINUOUS
 62
     7
 10
5.1220619638
 20
230.3482130089
 30
0.0
 40
14.55835764468792
 50
128.4665755606
 51
180.3827662919
  0
ARC
  5
4E
  8
0
  6
CONTINUOUS
 62
     7
 10
56.0865885432
 20
230.3434925903
 30
0.0
 40
14.57977291437416
 50
359.6362061477
 51
54.8680472801
  0
POLYLINE
  5
4F
  8
0
  6
CONTINUOUS
 62
     7
 66
     1
 10
0.0
 20
0.0
 30
0.0
  0
VERTEX
  5
4A7
  8
0
  6
CONTINUOUS
 62
     7
 10
55.7914065988
 20
244.9061051404
 30
0.0
  0
VERTEX
  5
4A8
  8
0
  6
CONTINUOUS
 62
     7
 10
54.0060567529
 20
244.8773995435
 30
0.0
  0
VERTEX
  5
4A9
  8
0
  6
CONTINUOUS
 62
     7
 10
50.6078529031
 20
244.8286787068
 30
0.0
  0
VERTEX
  5
4AA
  8
0
  6
CONTINUOUS
 62
     7
 10
47.2027587564
 20
244.7875991856
 30
0.0
  0
VERTEX
  5
4AB
  8
0
  6
CONTINUOUS
 62
     7
 10
43.7919783265
 20
244.7541729009
 30
0.0
  0
VERTEX
  5
4AC
  8
0
  6
CONTINUOUS
 62
     7
 10
40.3766798646
 20
244.7284117734
 30
0.0
  0
VERTEX
  5
4AD
  8
0
  6
CONTINUOUS
 62
     7
 10
36.9580316217
 20
244.7103277242
 30
0.0
  0
VERTEX
  5
4AE
  8
0
  6
CONTINUOUS
 62
     7
 10
33.5372018487
 20
244.6999207532
 30
0.0
  0
VERTEX
  5
4AF
  8
0
  6
CONTINUOUS
 62
     7
 10
30.1153707177
 20
244.6972027814
 30
0.0
  0
VERTEX
  5
4B0
  8
0
  6
CONTINUOUS
 62
     7
 10
26.6937064798
 20
244.7021738088
 30
0.0
  0
VERTEX
  5
4B1
  8
0
  6
CONTINUOUS
 62
     7
 10
23.2733773858
 20
244.7148219144
 30
0.0
  0
VERTEX
  5
4B2
  8
0
  6
CONTINUOUS
 62
     7
 10
19.8555636079
 20
244.7351470982
 30
0.0
  0
VERTEX
  5
4B3
  8
0
  6
CONTINUOUS
 62
     7
 10
16.441433397
 20
244.7631493604
 30
0.0
  0
VERTEX
  5
4B4
  8
0
  6
CONTINUOUS
 62
     7
 10
13.0321550042
 20
244.7988167798
 30
0.0
  0
VERTEX
  5
4B5
  8
0
  6
CONTINUOUS
 62
     7
 10
9.6289086015
 20
244.8421374356
 30
0.0
  0
VERTEX
  5
4B6
  8
0
  6
CONTINUOUS
 62
     7
 10
6.411378351
 20
244.8902145421
 30
0.0
  0
VERTEX
  5
4B7
  8
0
  6
CONTINUOUS
 62
     7
 10
5.4397511155
 20
244.9061051404
 30
0.0
  0
SEQEND
  5
AD2
  8
0
  6
CONTINUOUS
 62
     7
  0
ARC
  5
50
  8
0
  6
CONTINUOUS
 62
     7
 10
295.5664176449
 20
190.4942940132
 30
0.0
 40
15.10053330490862
 50
271.1940943835
 51
0.20745633
  0
ARC
  5
51
  8
0
  6
CONTINUOUS
 62
     7
 10
245.6627080689
 20
190.4904753949
 30
0.0
 40
15.09768361845963
 50
179.7788270622
 51
268.8138955865
  0
LINE
  5
52
  8
0
  6
CONTINUOUS
 62
     7
 10
230.5568235786
 20
230.2510634457
 30
0.0
 11
230.5568235786
 21
190.549220184
 31
0.0
  0
LINE
  5
53
  8
0
  6
CONTINUOUS
 62
     7
 10
310.6743383081
 20
190.549220184
 30
0.0
 11
310.6743383081
 21
230.2510634457
 31
0.0
  0
POLYLINE
  5
54
  8
0
  6
CONTINUOUS
 62
     7
 66
     1
 10
0.0
 20
0.0
 30
0.0
  0
VERTEX
  5
4B8
  8
0
  6
CONTINUOUS
 62
     7
 10
245.3500377805
 20
175.388516525
 30
0.0
  0
VERTEX
  5
4B9
  8
0
  6
CONTINUOUS
 62
     7
 10
247.1418457897
 20
175.3597036397
 30
0.0
  0
VERTEX
  5
4BA
  8
0
  6
CONTINUOUS
 62
     7
 10
250.5524176032
 20
175.31081591
 30
0.0
  0
VERTEX
  5
4BB
  8
0
  6
CONTINUOUS
 62
     7
 10
253.9697813661
 20
175.2695814168
 30
0.0
  0
VERTEX
  5
4BC
  8
0
  6
CONTINUOUS
 62
     7
 10
257.3927449853
 20
175.2360359227
 30
0.0
  0
VERTEX
  5
4BD
  8
0
  6
CONTINUOUS
 62
     7
 10
260.8201610715
 20
175.2101913487
 30
0.0
  0
VERTEX
  5
4BE
  8
0
  6
CONTINUOUS
 62
     7
 10
264.2508673341
 20
175.1920476949
 30
0.0
  0
VERTEX
  5
4BF
  8
0
  6
CONTINUOUS
 62
     7
 10
267.6837193639
 20
175.1816049611
 30
0.0
  0
VERTEX
  5
4C0
  8
0
  6
CONTINUOUS
 62
     7
 10
271.1175548704
 20
175.1788750684
 30
0.0
  0
VERTEX
  5
4C1
  8
0
  6
CONTINUOUS
 62
     7
 10
274.5512175233
 20
175.1838580167
 30
0.0
  0
VERTEX
  5
4C2
  8
0
  6
CONTINUOUS
 62
     7
 10
277.9835509927
 20
175.196553806
 30
0.0
  0
VERTEX
  5
4C3
  8
0
  6
CONTINUOUS
 62
     7
 10
281.413392988
 20
175.2169505154
 30
0.0
  0
VERTEX
  5
4C4
  8
0
  6
CONTINUOUS
 62
     7
 10
284.8395990999
 20
175.245048145
 30
0.0
  0
VERTEX
  5
4C5
  8
0
  6
CONTINUOUS
 62
     7
 10
288.2610129983
 20
175.2808466946
 30
0.0
  0
VERTEX
  5
4C6
  8
0
  6
CONTINUOUS
 62
     7
 10
291.6764783532
 20
175.3243104016
 30
0.0
  0
VERTEX
  5
4C7
  8
0
  6
CONTINUOUS
 62
     7
 10
294.9057030351
 20
175.372566322
 30
0.0
  0
VERTEX
  5
4C8
  8
0
  6
CONTINUOUS
 62
     7
 10
295.8811211259
 20
175.388516525
 30
0.0
  0
SEQEND
  5
AD1
  8
0
  6
CONTINUOUS
 62
     7
  0
ARC
  5
55
  8
0
  6
CONTINUOUS
 62
     7
 10
245.0753191879
 20
230.6488653731
 30
0.0
 40
14.25373221399465
 50
88.5351333239
 51
113.3277196996
  0
ARC
  5
56
  8
0
  6
CONTINUOUS
 62
     7
 10
296.1544343847
 20
230.611461132
 30
0.0
 40
14.29231641385395
 50
66.7644852849
 51
91.4553473028
  0
POLYLINE
  5
57
  8
0
  6
CONTINUOUS
 62
     7
 66
     1
 10
0.0
 20
0.0
 30
0.0
  0
VERTEX
  5
4C9
  8
0
  6
CONTINUOUS
 62
     7
 10
236.7391633661
 20
242.25167189
 30
0.0
  0
VERTEX
  5
4CA
  8
0
  6
CONTINUOUS
 62
     7
 10
236.6937744291
 20
242.2218457257
 30
0.0
  0
VERTEX
  5
4CB
  8
0
  6
CONTINUOUS
 62
     7
 10
236.3619911344
 20
241.9709220921
 30
0.0
  0
SEQEND
  5
AD0
  8
0
  6
CONTINUOUS
 62
     7
  0
ARC
  5
58
  8
0
  6
CONTINUOUS
 62
     7
 10
245.1220288214
 20
230.3482432863
 30
0.0
 40
14.55831665883439
 50
128.4665640879
 51
180.382886532
  0
ARC
  5
59
  8
0
  6
CONTINUOUS
 62
     7
 10
296.0865998645
 20
230.3434996498
 30
0.0
 40
14.57975925395768
 50
359.636178064
 51
54.8680753639
  0
POLYLINE
  5
5A
  8
0
  6
CONTINUOUS
 62
     7
 66
     1
 10
0.0
 20
0.0
 30
0.0
  0
VERTEX
  5
4CC
  8
0
  6
CONTINUOUS
 62
     7
 10
295.7914042146
 20
244.9061051404
 30
0.0
  0
VERTEX
  5
4CD
  8
0
  6
CONTINUOUS
 62
     7
 10
294.0060603292
 20
244.8773995435
 30
0.0
  0
VERTEX
  5
4CE
  8
0
  6
CONTINUOUS
 62
     7
 10
290.6078505189
 20
244.8286787068
 30
0.0
  0
VERTEX
  5
4CF
  8
0
  6
CONTINUOUS
 62
     7
 10
287.2027563722
 20
244.7875991856
 30
0.0
  0
VERTEX
  5
4D0
  8
0
  6
CONTINUOUS
 62
     7
 10
283.7919759424
 20
244.7541729009
 30
0.0
  0
VERTEX
  5
4D1
  8
0
  6
CONTINUOUS
 62
     7
 10
280.3766774804
 20
244.7284117734
 30
0.0
  0
VERTEX
  5
4D2
  8
0
  6
CONTINUOUS
 62
     7
 10
276.9580292375
 20
244.7103277242
 30
0.0
  0
VERTEX
  5
4D3
  8
0
  6
CONTINUOUS
 62
     7
 10
273.5371994645
 20
244.6999207532
 30
0.0
  0
VERTEX
  5
4D4
  8
0
  6
CONTINUOUS
 62
     7
 10
270.1153683336
 20
244.6972027814
 30
0.0
  0
VERTEX
  5
4D5
  8
0
  6
CONTINUOUS
 62
     7
 10
266.6937040956
 20
244.7021738088
 30
0.0
  0
VERTEX
  5
4D6
  8
0
  6
CONTINUOUS
 62
     7
 10
263.2733750017
 20
244.7148219144
 30
0.0
  0
VERTEX
  5
4D7
  8
0
  6
CONTINUOUS
 62
     7
 10
259.855564204
 20
244.7351470982
 30
0.0
  0
VERTEX
  5
4D8
  8
0
  6
CONTINUOUS
 62
     7
 10
256.4414310129
 20
244.7631493604
 30
0.0
  0
VERTEX
  5
4D9
  8
0
  6
CONTINUOUS
 62
     7
 10
253.0321556003
 20
244.7988167798
 30
0.0
  0
VERTEX
  5
4DA
  8
0
  6
CONTINUOUS
 62
     7
 10
249.6289002569
 20
244.8421374356
 30
0.0
  0
VERTEX
  5
4DB
  8
0
  6
CONTINUOUS
 62
     7
 10
246.411378947
 20
244.8902145421
 30
0.0
  0
VERTEX
  5
4DC
  8
0
  6
CONTINUOUS
 62
     7
 10
245.4397576721
 20
244.9061051404
 30
0.0
  0
SEQEND
  5
ACF
  8
0
  6
CONTINUOUS
 62
     7
  0
ARC
  5
5B
  8
0
  6
CONTINUOUS
 62
     7
 10
415.5664221938
 20
190.4942824708
 30
0.0
 40
15.10052164538551
 50
271.1940735181
 51
0.2075002857
  0
ARC
  5
5C
  8
0
  6
CONTINUOUS
 62
     7
 10
365.6626985787
 20
190.490462967
 30
0.0
 40
15.09767089807238
 50
179.7787797115
 51
268.81394871
  0
LINE
  5
5D
  8
0
  6
CONTINUOUS
 62
     7
 10
350.5568194063
 20
230.2510634457
 30
0.0
 11
350.5568194063
 21
190.549220184
 31
0.0
  0
LINE
  5
5E
  8
0
  6
CONTINUOUS
 62
     7
 10
430.6743311555
 20
190.549220184
 30
0.0
 11
430.6743311555
 21
230.2510634457
 31
0.0
  0
POLYLINE
  5
5F
  8
0
  6
CONTINUOUS
 62
     7
 66
     1
 10
0.0
 20
0.0
 30
0.0
  0
VERTEX
  5
4DD
  8
0
  6
CONTINUOUS
 62
     7
 10
365.3500365884
 20
175.388516525
 30
0.0
  0
VERTEX
  5
4DE
  8
0
  6
CONTINUOUS
 62
     7
 10
367.1418475778
 20
175.3597036397
 30
0.0
  0
VERTEX
  5
4DF
  8
0
  6
CONTINUOUS
 62
     7
 10
370.5524134309
 20
175.31081591
 30
0.0
  0
VERTEX
  5
4E0
  8
0
  6
CONTINUOUS
 62
     7
 10
373.9697861345
 20
175.2695814168
 30
0.0
  0
VERTEX
  5
4E1
  8
0
  6
CONTINUOUS
 62
     7
 10
377.3927497537
 20
175.2360359227
 30
0.0
  0
VERTEX
  5
4E2
  8
0
  6
CONTINUOUS
 62
     7
 10
380.8201598794
 20
175.2101913487
 30
0.0
  0
VERTEX
  5
4E3
  8
0
  6
CONTINUOUS
 62
     7
 10
384.2508721025
 20
175.1920476949
 30
0.0
  0
VERTEX
  5
4E4
  8
0
  6
CONTINUOUS
 62
     7
 10
387.6837181718
 20
175.1816049611
 30
0.0
  0
VERTEX
  5
4E5
  8
0
  6
CONTINUOUS
 62
     7
 10
391.1175536783
 20
175.1788750684
 30
0.0
  0
VERTEX
  5
4E6
  8
0
  6
CONTINUOUS
 62
     7
 10
394.5512103708
 20
175.1838580167
 30
0.0
  0
VERTEX
  5
4E7
  8
0
  6
CONTINUOUS
 62
     7
 10
397.9835438402
 20
175.196553806
 30
0.0
  0
VERTEX
  5
4E8
  8
0
  6
CONTINUOUS
 62
     7
 10
401.4133977563
 20
175.2169505154
 30
0.0
  0
VERTEX
  5
4E9
  8
0
  6
CONTINUOUS
 62
     7
 10
404.8396038682
 20
175.245048145
 30
0.0
  0
VERTEX
  5
4EA
  8
0
  6
CONTINUOUS
 62
     7
 10
408.2610177667
 20
175.2808466946
 30
0.0
  0
VERTEX
  5
4EB
  8
0
  6
CONTINUOUS
 62
     7
 10
411.6764712007
 20
175.3243104016
 30
0.0
  0
VERTEX
  5
4EC
  8
0
  6
CONTINUOUS
 62
     7
 10
414.9057078035
 20
175.372566322
 30
0.0
  0
VERTEX
  5
4ED
  8
0
  6
CONTINUOUS
 62
     7
 10
415.8811258943
 20
175.388516525
 30
0.0
  0
SEQEND
  5
ACE
  8
0
  6
CONTINUOUS
 62
     7
  0
ARC
  5
60
  8
0
  6
CONTINUOUS
 62
     7
 10
365.0753218559
 20
230.6488435156
 30
0.0
 40
14.2537538133154
 50
88.5351750327
 51
113.3276991557
  0
ARC
  5
61
  8
0
  6
CONTINUOUS
 62
     7
 10
416.1544351874
 20
230.6115315889
 30
0.0
 40
14.29224618175595
 50
66.7644251157
 51
91.4553863579
  0
POLYLINE
  5
62
  8
0
  6
CONTINUOUS
 62
     7
 66
     1
 10
0.0
 20
0.0
 30
0.0
  0
VERTEX
  5
4EE
  8
0
  6
CONTINUOUS
 62
     7
 10
356.7391562135
 20
242.25167189
 30
0.0
  0
VERTEX
  5
4EF
  8
0
  6
CONTINUOUS
 62
     7
 10
356.693773237
 20
242.2218457257
 30
0.0
  0
VERTEX
  5
4F0
  8
0
  6
CONTINUOUS
 62
     7
 10
356.3619899423
 20
241.9709220921
 30
0.0
  0
SEQEND
  5
ACD
  8
0
  6
CONTINUOUS
 62
     7
  0
ARC
  5
63
  8
0
  6
CONTINUOUS
 62
     7
 10
365.1220385531
 20
230.348234745
 30
0.0
 40
14.55833199556989
 50
128.466586022
 51
180.3828525126
  0
ARC
  5
64
  8
0
  6
CONTINUOUS
 62
     7
 10
416.0866059066
 20
230.3435147695
 30
0.0
 40
14.57974615560932
 50
359.636118318
 51
54.8680452647
  0
POLYLINE
  5
65
  8
0
  6
CONTINUOUS
 62
     7
 66
     1
 10
0.0
 20
0.0
 30
0.0
  0
VERTEX
  5
4F1
  8
0
  6
CONTINUOUS
 62
     7
 10
415.791408983
 20
244.9061051404
 30
0.0
  0
VERTEX
  5
4F2
  8
0
  6
CONTINUOUS
 62
     7
 10
414.0060591371
 20
244.8773995435
 30
0.0
  0
VERTEX
  5
4F3
  8
0
  6
CONTINUOUS
 62
     7
 10
410.6078433664
 20
244.8286787068
 30
0.0
  0
VERTEX
  5
4F4
  8
0
  6
CONTINUOUS
 62
     7
 10
407.2027611406
 20
244.7875991856
 30
0.0
  0
VERTEX
  5
4F5
  8
0
  6
CONTINUOUS
 62
     7
 10
403.7919807107
 20
244.7541729009
 30
0.0
  0
VERTEX
  5
4F6
  8
0
  6
CONTINUOUS
 62
     7
 10
400.3766703279
 20
244.7284117734
 30
0.0
  0
VERTEX
  5
4F7
  8
0
  6
CONTINUOUS
 62
     7
 10
396.9580220849
 20
244.7103277242
 30
0.0
  0
VERTEX
  5
4F8
  8
0
  6
CONTINUOUS
 62
     7
 10
393.5372042329
 20
244.6999207532
 30
0.0
  0
VERTEX
  5
4F9
  8
0
  6
CONTINUOUS
 62
     7
 10
390.1153731019
 20
244.6972027814
 30
0.0
  0
VERTEX
  5
4FA
  8
0
  6
CONTINUOUS
 62
     7
 10
386.693696943
 20
244.7021738088
 30
0.0
  0
VERTEX
  5
4FB
  8
0
  6
CONTINUOUS
 62
     7
 10
383.27337977
 20
244.7148219144
 30
0.0
  0
VERTEX
  5
4FC
  8
0
  6
CONTINUOUS
 62
     7
 10
379.8555659921
 20
244.7351470982
 30
0.0
  0
VERTEX
  5
4FD
  8
0
  6
CONTINUOUS
 62
     7
 10
376.4414357812
 20
244.7631493604
 30
0.0
  0
VERTEX
  5
4FE
  8
0
  6
CONTINUOUS
 62
     7
 10
373.0321573884
 20
244.7988167798
 30
0.0
  0
VERTEX
  5
4FF
  8
0
  6
CONTINUOUS
 62
     7
 10
369.6288990648
 20
244.8421374356
 30
0.0
  0
VERTEX
  5
500
  8
0
  6
CONTINUOUS
 62
     7
 10
366.4113807351
 20
244.8902145421
 30
0.0
  0
VERTEX
  5
501
  8
0
  6
CONTINUOUS
 62
     7
 10
365.4397534997
 20
244.9061051404
 30
0.0
  0
SEQEND
  5
ACC
  8
0
  6
CONTINUOUS
 62
     7
  0
ARC
  5
66
  8
0
  6
CONTINUOUS
 62
     7
 10
175.5664135845
 20
190.4943021089
 30
0.0
 40
15.1005415082981
 50
271.1941136686
 51
0.2074254998
  0
ARC
  5
67
  8
0
  6
CONTINUOUS
 62
     7
 10
125.6626986287
 20
190.4904605666
 30
0.0
 40
15.09766857322428
 50
179.7787705677
 51
268.8139347625
  0
LINE
  5
68
  8
0
  6
CONTINUOUS
 62
     7
 10
110.5568217904
 20
230.2510634457
 30
0.0
 11
110.5568217904
 21
190.549220184
 31
0.0
  0
LINE
  5
69
  8
0
  6
CONTINUOUS
 62
     7
 10
190.6743365199
 20
190.549220184
 30
0.0
 11
190.6743365199
 21
230.2510634457
 31
0.0
  0
POLYLINE
  5
6A
  8
0
  6
CONTINUOUS
 62
     7
 66
     1
 10
0.0
 20
0.0
 30
0.0
  0
VERTEX
  5
502
  8
0
  6
CONTINUOUS
 62
     7
 10
125.3500389726
 20
175.388516525
 30
0.0
  0
VERTEX
  5
503
  8
0
  6
CONTINUOUS
 62
     7
 10
127.1418440015
 20
175.3597036397
 30
0.0
  0
VERTEX
  5
504
  8
0
  6
CONTINUOUS
 62
     7
 10
130.5524158151
 20
175.31081591
 30
0.0
  0
VERTEX
  5
505
  8
0
  6
CONTINUOUS
 62
     7
 10
133.9697825582
 20
175.2695814168
 30
0.0
  0
VERTEX
  5
506
  8
0
  6
CONTINUOUS
 62
     7
 10
137.3927461774
 20
175.2360359227
 30
0.0
  0
VERTEX
  5
507
  8
0
  6
CONTINUOUS
 62
     7
 10
140.8201622636
 20
175.2101913487
 30
0.0
  0
VERTEX
  5
508
  8
0
  6
CONTINUOUS
 62
     7
 10
144.2508685262
 20
175.1920476949
 30
0.0
  0
VERTEX
  5
509
  8
0
  6
CONTINUOUS
 62
     7
 10
147.683720556
 20
175.1816049611
 30
0.0
  0
VERTEX
  5
50A
  8
0
  6
CONTINUOUS
 62
     7
 10
151.1175560624
 20
175.1788750684
 30
0.0
  0
VERTEX
  5
50B
  8
0
  6
CONTINUOUS
 62
     7
 10
154.5512187154
 20
175.1838580167
 30
0.0
  0
VERTEX
  5
50C
  8
0
  6
CONTINUOUS
 62
     7
 10
157.9835462243
 20
175.196553806
 30
0.0
  0
VERTEX
  5
50D
  8
0
  6
CONTINUOUS
 62
     7
 10
161.41339418
 20
175.2169505154
 30
0.0
  0
VERTEX
  5
50E
  8
0
  6
CONTINUOUS
 62
     7
 10
164.839600292
 20
175.245048145
 30
0.0
  0
VERTEX
  5
50F
  8
0
  6
CONTINUOUS
 62
     7
 10
168.2610141904
 20
175.2808466946
 30
0.0
  0
VERTEX
  5
510
  8
0
  6
CONTINUOUS
 62
     7
 10
171.6764765651
 20
175.3243104016
 30
0.0
  0
VERTEX
  5
511
  8
0
  6
CONTINUOUS
 62
     7
 10
174.905701247
 20
175.372566322
 30
0.0
  0
VERTEX
  5
512
  8
0
  6
CONTINUOUS
 62
     7
 10
175.881122318
 20
175.388516525
 30
0.0
  0
SEQEND
  5
ACB
  8
0
  6
CONTINUOUS
 62
     7
  0
ARC
  5
6B
  8
0
  6
CONTINUOUS
 62
     7
 10
125.0753271424
 20
230.64883036
 30
0.0
 40
14.25376704277386
 50
88.5351640956
 51
113.3276889279
  0
ARC
  5
6C
  8
0
  6
CONTINUOUS
 62
     7
 10
176.1544341483
 20
230.6114691977
 30
0.0
 40
14.29230839019049
 50
66.7644782449
 51
91.4553543428
  0
POLYLINE
  5
6D
  8
0
  6
CONTINUOUS
 62
     7
 66
     1
 10
0.0
 20
0.0
 30
0.0
  0
VERTEX
  5
513
  8
0
  6
CONTINUOUS
 62
     7
 10
116.7391645582
 20
242.25167189
 30
0.0
  0
VERTEX
  5
514
  8
0
  6
CONTINUOUS
 62
     7
 10
116.6937756212
 20
242.2218457257
 30
0.0
  0
VERTEX
  5
515
  8
0
  6
CONTINUOUS
 62
     7
 10
116.3619923265
 20
241.9709220921
 30
0.0
  0
SEQEND
  5
ACA
  8
0
  6
CONTINUOUS
 62
     7
  0
ARC
  5
6E
  8
0
  6
CONTINUOUS
 62
     7
 10
125.1220409373
 20
230.348234745
 30
0.0
 40
14.55833199556969
 50
128.466586022
 51
180.3828525126
  0
ARC
  5
6F
  8
0
  6
CONTINUOUS
 62
     7
 10
176.0865968483
 20
230.3435049869
 30
0.0
 40
14.57975902578271
 50
359.6361570838
 51
54.8680401908
  0
POLYLINE
  5
70
  8
0
  6
CONTINUOUS
 62
     7
 66
     1
 10
0.0
 20
0.0
 30
0.0
  0
VERTEX
  5
516
  8
0
  6
CONTINUOUS
 62
     7
 10
175.7914024265
 20
244.9061051404
 30
0.0
  0
VERTEX
  5
517
  8
0
  6
CONTINUOUS
 62
     7
 10
174.0060615213
 20
244.8773995435
 30
0.0
  0
VERTEX
  5
518
  8
0
  6
CONTINUOUS
 62
     7
 10
170.6078487308
 20
244.8286787068
 30
0.0
  0
VERTEX
  5
519
  8
0
  6
CONTINUOUS
 62
     7
 10
167.2027545841
 20
244.7875991856
 30
0.0
  0
VERTEX
  5
51A
  8
0
  6
CONTINUOUS
 62
     7
 10
163.7919741542
 20
244.7541729009
 30
0.0
  0
VERTEX
  5
51B
  8
0
  6
CONTINUOUS
 62
     7
 10
160.3766727121
 20
244.7284117734
 30
0.0
  0
VERTEX
  5
51C
  8
0
  6
CONTINUOUS
 62
     7
 10
156.9580244691
 20
244.7103277242
 30
0.0
  0
VERTEX
  5
51D
  8
0
  6
CONTINUOUS
 62
     7
 10
153.5372006566
 20
244.6999207532
 30
0.0
  0
VERTEX
  5
51E
  8
0
  6
CONTINUOUS
 62
     7
 10
150.1153695257
 20
244.6972027814
 30
0.0
  0
VERTEX
  5
51F
  8
0
  6
CONTINUOUS
 62
     7
 10
146.6936993272
 20
244.7021738088
 30
0.0
  0
VERTEX
  5
520
  8
0
  6
CONTINUOUS
 62
     7
 10
143.2733761937
 20
244.7148219144
 30
0.0
  0
VERTEX
  5
521
  8
0
  6
CONTINUOUS
 62
     7
 10
139.8555624158
 20
244.7351470982
 30
0.0
  0
VERTEX
  5
522
  8
0
  6
CONTINUOUS
 62
     7
 10
136.4414322049
 20
244.7631493604
 30
0.0
  0
VERTEX
  5
523
  8
0
  6
CONTINUOUS
 62
     7
 10
133.0321538122
 20
244.7988167798
 30
0.0
  0
VERTEX
  5
524
  8
0
  6
CONTINUOUS
 62
     7
 10
129.6289014489
 20
244.8421374356
 30
0.0
  0
VERTEX
  5
525
  8
0
  6
CONTINUOUS
 62
     7
 10
126.4113771589
 20
244.8902145421
 30
0.0
  0
VERTEX
  5
526
  8
0
  6
CONTINUOUS
 62
     7
 10
125.4397558839
 20
244.9061051404
 30
0.0
  0
SEQEND
  5
AC9
  8
0
  6
CONTINUOUS
 62
     7
  0
POLYLINE
  5
71
  8
0
  6
CONTINUOUS
 62
     7
 66
     1
 10
0.0
 20
0.0
 30
0.0
  0
VERTEX
  5
527
  8
0
  6
CONTINUOUS
 62
     7
 10
67.5154018075
 20
153.0890480077
 30
0.0
  0
VERTEX
  5
528
  8
0
  6
CONTINUOUS
 62
     7
 10
67.5098466546
 20
153.0880824124
 30
0.0
  0
VERTEX
  5
529
  8
0
  6
CONTINUOUS
 62
     7
 10
67.508785692
 20
153.0878916776
 30
0.0
  0
SEQEND
  5
AC8
  8
0
  6
CONTINUOUS
 62
     7
  0
POLYLINE
  5
72
  8
0
  6
CONTINUOUS
 62
     7
 66
     1
 10
0.0
 20
0.0
 30
0.0
  0
VERTEX
  5
52A
  8
0
  6
CONTINUOUS
 62
     7
 10
-6.2773061125
 20
153.0878022706
 30
0.0
  0
VERTEX
  5
52B
  8
0
  6
CONTINUOUS
 62
     7
 10
-6.2783074706
 20
153.087987045
 30
0.0
  0
VERTEX
  5
52C
  8
0
  6
CONTINUOUS
 62
     7
 10
-6.2892031996
 20
153.0898705518
 30
0.0
  0
SEQEND
  5
AC7
  8
0
  6
CONTINUOUS
 62
     7
  0
LINE
  5
73
  8
0
  6
CONTINUOUS
 62
     7
 10
-6.2775445311
 20
153.0878618752
 30
0.0
 11
-6.2849355071
 21
153.0891731774
 31
0.0
  0
LINE
  5
74
  8
0
  6
CONTINUOUS
 62
     7
 10
68.4331106813
 20
147.7866784131
 30
0.0
 11
68.4897470147
 21
147.7981046235
 31
0.0
  0
ARC
  5
75
  8
0
  6
CONTINUOUS
 62
     7
 10
-23.9199276188
 20
65.0069942359
 30
0.0
 40
84.45097243733781
 50
78.500925452
 51
78.6256566265
  0
LINE
  5
76
  8
0
  6
CONTINUOUS
 62
     7
 10
-7.2701049178
 20
147.8004053628
 30
0.0
 11
-7.2656464904
 21
147.7995172536
 31
0.0
  0
POLYLINE
  5
77
  8
0
  6
CONTINUOUS
 62
     7
 66
     1
 10
0.0
 20
0.0
 30
0.0
  0
VERTEX
  5
52D
  8
0
  6
CONTINUOUS
 62
     7
 10
427.5154041917
 20
153.0890480077
 30
0.0
  0
VERTEX
  5
52E
  8
0
  6
CONTINUOUS
 62
     7
 10
427.5098490388
 20
153.0880824124
 30
0.0
  0
VERTEX
  5
52F
  8
0
  6
CONTINUOUS
 62
     7
 10
427.5087999971
 20
153.0878916776
 30
0.0
  0
SEQEND
  5
AC6
  8
0
  6
CONTINUOUS
 62
     7
  0
POLYLINE
  5
78
  8
0
  6
CONTINUOUS
 62
     7
 66
     1
 10
0.0
 20
0.0
 30
0.0
  0
VERTEX
  5
530
  8
0
  6
CONTINUOUS
 62
     7
 10
353.7226962716
 20
153.0878022706
 30
0.0
  0
VERTEX
  5
531
  8
0
  6
CONTINUOUS
 62
     7
 10
353.7217068345
 20
153.087987045
 30
0.0
  0
VERTEX
  5
532
  8
0
  6
CONTINUOUS
 62
     7
 10
353.7107872636
 20
153.0898705518
 30
0.0
  0
SEQEND
  5
AC5
  8
0
  6
CONTINUOUS
 62
     7
  0
LINE
  5
79
  8
0
  6
CONTINUOUS
 62
     7
 10
353.7224459321
 20
153.0878618752
 30
0.0
 11
353.7150668771
 21
153.0891731774
 31
0.0
  0
ARC
  5
7A
  8
0
  6
CONTINUOUS
 62
     7
 10
336.6924977055
 20
68.0395672291
 30
0.0
 40
81.35717941726509
 50
78.4978212654
 51
78.6272874017
  0
LINE
  5
7B
  8
0
  6
CONTINUOUS
 62
     7
 10
352.7298855455
 20
147.8004053628
 30
0.0
 11
352.7343558938
 21
147.7995172536
 31
0.0
  0
LINE
  5
7C
  8
0
  6
CONTINUOUS
 62
     7
 10
428.4331011445
 20
147.7866784131
 30
0.0
 11
428.4897493989
 21
147.7981046235
 31
0.0
  0
POLYLINE
  5
7D
  8
0
  6
CONTINUOUS
 62
     7
 66
     1
 10
0.0
 20
0.0
 30
0.0
  0
VERTEX
  5
533
  8
0
  6
CONTINUOUS
 62
     7
 10
307.5154053838
 20
153.0890480077
 30
0.0
  0
VERTEX
  5
534
  8
0
  6
CONTINUOUS
 62
     7
 10
307.5098442705
 20
153.0880824124
 30
0.0
  0
VERTEX
  5
535
  8
0
  6
CONTINUOUS
 62
     7
 10
307.5087892682
 20
153.0878916776
 30
0.0
  0
SEQEND
  5
AC4
  8
0
  6
CONTINUOUS
 62
     7
  0
POLYLINE
  5
7E
  8
0
  6
CONTINUOUS
 62
     7
 66
     1
 10
0.0
 20
0.0
 30
0.0
  0
VERTEX
  5
536
  8
0
  6
CONTINUOUS
 62
     7
 10
233.7226959736
 20
153.0878022706
 30
0.0
  0
VERTEX
  5
537
  8
0
  6
CONTINUOUS
 62
     7
 10
233.7217035563
 20
153.087987045
 30
0.0
  0
VERTEX
  5
538
  8
0
  6
CONTINUOUS
 62
     7
 10
233.7107854755
 20
153.0898705518
 30
0.0
  0
SEQEND
  5
AC3
  8
0
  6
CONTINUOUS
 62
     7
  0
LINE
  5
7F
  8
0
  6
CONTINUOUS
 62
     7
 10
233.7224456341
 20
153.0878618752
 30
0.0
 11
233.7150665791
 21
153.0891731774
 31
0.0
  0
ARC
  5
80
  8
0
  6
CONTINUOUS
 62
     7
 10
216.6100462364
 20
67.633355457
 30
0.0
 40
81.77167418341388
 50
78.4979662251
 51
78.6267740599
  0
LINE
  5
81
  8
0
  6
CONTINUOUS
 62
     7
 10
232.7298912079
 20
147.8004053628
 30
0.0
 11
232.7343570859
 21
147.7995172536
 31
0.0
  0
LINE
  5
82
  8
0
  6
CONTINUOUS
 62
     7
 10
308.4331082971
 20
147.7866784131
 30
0.0
 11
308.489750591
 21
147.7981046235
 31
0.0
  0
POLYLINE
  5
83
  8
0
  6
CONTINUOUS
 62
     7
 66
     1
 10
0.0
 20
0.0
 30
0.0
  0
VERTEX
  5
539
  8
0
  6
CONTINUOUS
 62
     7
 10
187.5154035957
 20
153.0890480077
 30
0.0
  0
VERTEX
  5
53A
  8
0
  6
CONTINUOUS
 62
     7
 10
187.5098439724
 20
153.0880824124
 30
0.0
  0
VERTEX
  5
53B
  8
0
  6
CONTINUOUS
 62
     7
 10
187.5087889702
 20
153.0878916776
 30
0.0
  0
SEQEND
  5
AC2
  8
0
  6
CONTINUOUS
 62
     7
  0
POLYLINE
  5
84
  8
0
  6
CONTINUOUS
 62
     7
 66
     1
 10
0.0
 20
0.0
 30
0.0
  0
VERTEX
  5
53C
  8
0
  6
CONTINUOUS
 62
     7
 10
113.7226986558
 20
153.0878022706
 30
0.0
  0
VERTEX
  5
53D
  8
0
  6
CONTINUOUS
 62
     7
 10
113.7217032583
 20
153.087987045
 30
0.0
  0
VERTEX
  5
53E
  8
0
  6
CONTINUOUS
 62
     7
 10
113.7107836873
 20
153.0898705518
 30
0.0
  0
SEQEND
  5
AC1
  8
0
  6
CONTINUOUS
 62
     7
  0
LINE
  5
85
  8
0
  6
CONTINUOUS
 62
     7
 10
113.7224483163
 20
153.0878618752
 30
0.0
 11
113.7150692613
 21
153.0891731774
 31
0.0
  0
ARC
  5
86
  8
0
  6
CONTINUOUS
 62
     7
 10
96.6807923133
 20
67.9843528194
 30
0.0
 40
81.41361836698869
 50
78.4974998085
 51
78.6268720827
  0
LINE
  5
87
  8
0
  6
CONTINUOUS
 62
     7
 10
112.7298938901
 20
147.8004053628
 30
0.0
 11
112.734358278
 21
147.7995172536
 31
0.0
  0
LINE
  5
88
  8
0
  6
CONTINUOUS
 62
     7
 10
188.4331094892
 20
147.7866784131
 30
0.0
 11
188.4897517831
 21
147.7981046235
 31
0.0
  0
POLYLINE
  5
89
  8
0
  6
CONTINUOUS
 62
     7
 66
     1
 10
0.0
 20
0.0
 30
0.0
  0
VERTEX
  5
53F
  8
0
  6
CONTINUOUS
 62
     7
 10
55.6493568094
 20
180.5373564755
 30
0.0
  0
VERTEX
  5
540
  8
0
  6
CONTINUOUS
 62
     7
 10
56.4898776681
 20
180.5590287244
 30
0.0
  0
VERTEX
  5
541
  8
0
  6
CONTINUOUS
 62
     7
 10
57.3161291749
 20
180.5933967626
 30
0.0
  0
SEQEND
  5
AC0
  8
0
  6
CONTINUOUS
 62
     7
  0
ARC
  5
8A
  8
0
  6
CONTINUOUS
 62
     7
 10
55.2916545322
 20
190.6512793236
 30
0.0
 40
10.25960521612557
 50
281.3805645855
 51
0.210749801
  0
ARC
  5
8B
  8
0
  6
CONTINUOUS
 62
     7
 10
6.5744641116
 20
234.8770249962
 30
0.0
 40
54.34873462351602
 50
267.1952246412
 51
268.953451716
  0
ARC
  5
8C
  8
0
  6
CONTINUOUS
 62
     7
 10
5.9269342539
 20
190.6410243937
 30
0.0
 40
10.24707927102186
 50
179.7316523995
 51
258.6769519652
  0
POLYLINE
  5
8D
  8
0
  6
CONTINUOUS
 62
     7
 66
     1
 10
0.0
 20
0.0
 30
0.0
  0
VERTEX
  5
542
  8
0
  6
CONTINUOUS
 62
     7
 10
3.9150166185
 20
180.5933967626
 30
0.0
  0
VERTEX
  5
543
  8
0
  6
CONTINUOUS
 62
     7
 10
7.7079939515
 20
180.5306449925
 30
0.0
  0
VERTEX
  5
544
  8
0
  6
CONTINUOUS
 62
     7
 10
11.5108179719
 20
180.4775014912
 30
0.0
  0
VERTEX
  5
545
  8
0
  6
CONTINUOUS
 62
     7
 10
15.3218793542
 20
180.4339901006
 30
0.0
  0
VERTEX
  5
546
  8
0
  6
CONTINUOUS
 62
     7
 10
19.1395330102
 20
180.4001227414
 30
0.0
  0
VERTEX
  5
547
  8
0
  6
CONTINUOUS
 62
     7
 10
22.9621338518
 20
180.3759232556
 30
0.0
  0
VERTEX
  5
548
  8
0
  6
CONTINUOUS
 62
     7
 10
26.7880367906
 20
180.3614035642
 30
0.0
  0
VERTEX
  5
549
  8
0
  6
CONTINUOUS
 62
     7
 10
30.6155848176
 20
180.356563667
 30
0.0
  0
VERTEX
  5
54A
  8
0
  6
CONTINUOUS
 62
     7
 10
34.4431209237
 20
180.3614035642
 30
0.0
  0
VERTEX
  5
54B
  8
0
  6
CONTINUOUS
 62
     7
 10
38.2690238626
 20
180.3759232556
 30
0.0
  0
VERTEX
  5
54C
  8
0
  6
CONTINUOUS
 62
     7
 10
42.0916247041
 20
180.4001227414
 30
0.0
  0
VERTEX
  5
54D
  8
0
  6
CONTINUOUS
 62
     7
 10
45.9092783601
 20
180.4339901006
 30
0.0
  0
VERTEX
  5
54E
  8
0
  6
CONTINUOUS
 62
     7
 10
49.7203397424
 20
180.4775014912
 30
0.0
  0
VERTEX
  5
54F
  8
0
  6
CONTINUOUS
 62
     7
 10
53.5231756837
 20
180.5306449925
 30
0.0
  0
VERTEX
  5
550
  8
0
  6
CONTINUOUS
 62
     7
 10
57.3161291749
 20
180.5933967626
 30
0.0
  0
SEQEND
  5
ABF
  8
0
  6
CONTINUOUS
 62
     7
  0
LINE
  5
8E
  8
0
  6
CONTINUOUS
 62
     7
 10
-4.3200326293
 20
230.3908721005
 30
0.0
 11
-4.3200326293
 21
190.6890169179
 31
0.0
  0
ARC
  5
8F
  8
0
  6
CONTINUOUS
 62
     7
 10
5.4631301607
 20
230.4857978148
 30
0.0
 40
9.783623309724193
 50
99.104475451
 51
180.5559216624
  0
POLYLINE
  5
90
  8
0
  6
CONTINUOUS
 62
     7
 66
     1
 10
0.0
 20
0.0
 30
0.0
  0
VERTEX
  5
551
  8
0
  6
CONTINUOUS
 62
     7
 10
3.9150166185
 20
240.1461616551
 30
0.0
  0
VERTEX
  5
552
  8
0
  6
CONTINUOUS
 62
     7
 10
7.7079939515
 20
240.0834098851
 30
0.0
  0
VERTEX
  5
553
  8
0
  6
CONTINUOUS
 62
     7
 10
11.5108179719
 20
240.0302663838
 30
0.0
  0
VERTEX
  5
554
  8
0
  6
CONTINUOUS
 62
     7
 10
15.3218793542
 20
239.9867549931
 30
0.0
  0
VERTEX
  5
555
  8
0
  6
CONTINUOUS
 62
     7
 10
19.1395330102
 20
239.9528995549
 30
0.0
  0
VERTEX
  5
556
  8
0
  6
CONTINUOUS
 62
     7
 10
22.9621338518
 20
239.9287000691
 30
0.0
  0
VERTEX
  5
557
  8
0
  6
CONTINUOUS
 62
     7
 10
26.7880367906
 20
239.9141684567
 30
0.0
  0
VERTEX
  5
558
  8
0
  6
CONTINUOUS
 62
     7
 10
30.6155848176
 20
239.9093285596
 30
0.0
  0
VERTEX
  5
559
  8
0
  6
CONTINUOUS
 62
     7
 10
34.4431209237
 20
239.9141684567
 30
0.0
  0
VERTEX
  5
55A
  8
0
  6
CONTINUOUS
 62
     7
 10
38.2690238626
 20
239.9287000691
 30
0.0
  0
VERTEX
  5
55B
  8
0
  6
CONTINUOUS
 62
     7
 10
42.0916247041
 20
239.9528995549
 30
0.0
  0
VERTEX
  5
55C
  8
0
  6
CONTINUOUS
 62
     7
 10
45.9092783601
 20
239.9867549931
 30
0.0
  0
VERTEX
  5
55D
  8
0
  6
CONTINUOUS
 62
     7
 10
49.7203397424
 20
240.0302663838
 30
0.0
  0
VERTEX
  5
55E
  8
0
  6
CONTINUOUS
 62
     7
 10
53.5231756837
 20
240.0834098851
 30
0.0
  0
VERTEX
  5
55F
  8
0
  6
CONTINUOUS
 62
     7
 10
57.3161291749
 20
240.1461616551
 30
0.0
  0
SEQEND
  5
ABE
  8
0
  6
CONTINUOUS
 62
     7
  0
ARC
  5
91
  8
0
  6
CONTINUOUS
 62
     7
 10
55.779460053
 20
230.4954468238
 30
0.0
 40
9.772289841431908
 50
359.3868576609
 51
80.95282699
  0
LINE
  5
92
  8
0
  6
CONTINUOUS
 62
     7
 10
65.5511903436
 20
190.6890169179
 30
0.0
 11
65.5511903436
 21
230.3908721005
 31
0.0
  0
POLYLINE
  5
93
  8
0
  6
CONTINUOUS
 62
     7
 66
     1
 10
0.0
 20
0.0
 30
0.0
  0
VERTEX
  5
560
  8
0
  6
CONTINUOUS
 62
     7
 10
5.581800905
 20
180.5373564755
 30
0.0
  0
VERTEX
  5
561
  8
0
  6
CONTINUOUS
 62
     7
 10
9.4145702989
 20
180.4784074818
 30
0.0
  0
VERTEX
  5
562
  8
0
  6
CONTINUOUS
 62
     7
 10
13.2566260965
 20
180.4292336499
 30
0.0
  0
VERTEX
  5
563
  8
0
  6
CONTINUOUS
 62
     7
 10
17.1062874467
 20
180.3898707425
 30
0.0
  0
VERTEX
  5
564
  8
0
  6
CONTINUOUS
 62
     7
 10
20.9618615777
 20
180.3603426015
 30
0.0
  0
VERTEX
  5
565
  8
0
  6
CONTINUOUS
 62
     7
 10
24.8216557176
 20
180.3406373059
 30
0.0
  0
VERTEX
  5
566
  8
0
  6
CONTINUOUS
 62
     7
 10
28.6839890153
 20
180.3307906186
 30
0.0
  0
VERTEX
  5
567
  8
0
  6
CONTINUOUS
 62
     7
 10
32.547168699
 20
180.3307906186
 30
0.0
  0
VERTEX
  5
568
  8
0
  6
CONTINUOUS
 62
     7
 10
36.4095019967
 20
180.3406373059
 30
0.0
  0
VERTEX
  5
569
  8
0
  6
CONTINUOUS
 62
     7
 10
40.2693080575
 20
180.3603426015
 30
0.0
  0
VERTEX
  5
56A
  8
0
  6
CONTINUOUS
 62
     7
 10
44.1248702676
 20
180.3898707425
 30
0.0
  0
VERTEX
  5
56B
  8
0
  6
CONTINUOUS
 62
     7
 10
47.9745316179
 20
180.4292336499
 30
0.0
  0
VERTEX
  5
56C
  8
0
  6
CONTINUOUS
 62
     7
 10
51.8165874154
 20
180.4784074818
 30
0.0
  0
VERTEX
  5
56D
  8
0
  6
CONTINUOUS
 62
     7
 10
55.6493568094
 20
180.5373564755
 30
0.0
  0
SEQEND
  5
ABD
  8
0
  6
CONTINUOUS
 62
     7
  0
ARC
  5
94
  8
0
  6
CONTINUOUS
 62
     7
 10
3.6503845447
 20
233.0132543265
 30
0.0
 40
11.52884723804378
 50
111.5468802537
 51
126.7257122549
  0
ARC
  5
95
  8
0
  6
CONTINUOUS
 62
     7
 10
57.1949046525
 20
232.2421652774
 30
0.0
 40
12.38093886164521
 50
54.0748312159
 51
68.1456410017
  0
POLYLINE
  5
96
  8
0
  6
CONTINUOUS
 62
     7
 66
     1
 10
0.0
 20
0.0
 30
0.0
  0
VERTEX
  5
56E
  8
0
  6
CONTINUOUS
 62
     7
 10
295.6493544252
 20
180.5373564755
 30
0.0
  0
VERTEX
  5
56F
  8
0
  6
CONTINUOUS
 62
     7
 10
296.4898752839
 20
180.5590287244
 30
0.0
  0
VERTEX
  5
570
  8
0
  6
CONTINUOUS
 62
     7
 10
297.3161327512
 20
180.5933967626
 30
0.0
  0
SEQEND
  5
ABC
  8
0
  6
CONTINUOUS
 62
     7
  0
ARC
  5
97
  8
0
  6
CONTINUOUS
 62
     7
 10
295.2916548052
 20
190.6512759609
 30
0.0
 40
10.25960257132069
 50
281.3805863759
 51
0.210768635
  0
ARC
  5
98
  8
0
  6
CONTINUOUS
 62
     7
 10
246.5744310472
 20
234.8756523506
 30
0.0
 40
54.34736153763427
 50
267.1951986881
 51
268.953463907
  0
ARC
  5
99
  8
0
  6
CONTINUOUS
 62
     7
 10
245.9269327776
 20
190.6410214602
 30
0.0
 40
10.24707423228381
 50
179.7316358646
 51
258.6770091245
  0
POLYLINE
  5
9A
  8
0
  6
CONTINUOUS
 62
     7
 66
     1
 10
0.0
 20
0.0
 30
0.0
  0
VERTEX
  5
571
  8
0
  6
CONTINUOUS
 62
     7
 10
243.9150261552
 20
180.5933967626
 30
0.0
  0
VERTEX
  5
572
  8
0
  6
CONTINUOUS
 62
     7
 10
247.7079885871
 20
180.5306449925
 30
0.0
  0
VERTEX
  5
573
  8
0
  6
CONTINUOUS
 62
     7
 10
251.510818568
 20
180.4775014912
 30
0.0
  0
VERTEX
  5
574
  8
0
  6
CONTINUOUS
 62
     7
 10
255.3218829305
 20
180.4339901006
 30
0.0
  0
VERTEX
  5
575
  8
0
  6
CONTINUOUS
 62
     7
 10
259.1395365865
 20
180.4001227414
 30
0.0
  0
VERTEX
  5
576
  8
0
  6
CONTINUOUS
 62
     7
 10
262.962137428
 20
180.3759232556
 30
0.0
  0
VERTEX
  5
577
  8
0
  6
CONTINUOUS
 62
     7
 10
266.7880344064
 20
180.3614035642
 30
0.0
  0
VERTEX
  5
578
  8
0
  6
CONTINUOUS
 62
     7
 10
270.6155824334
 20
180.356563667
 30
0.0
  0
VERTEX
  5
579
  8
0
  6
CONTINUOUS
 62
     7
 10
274.4431245
 20
180.3614035642
 30
0.0
  0
VERTEX
  5
57A
  8
0
  6
CONTINUOUS
 62
     7
 10
278.2690214784
 20
180.3759232556
 30
0.0
  0
VERTEX
  5
57B
  8
0
  6
CONTINUOUS
 62
     7
 10
282.0916223199
 20
180.4001227414
 30
0.0
  0
VERTEX
  5
57C
  8
0
  6
CONTINUOUS
 62
     7
 10
285.9092759759
 20
180.4339901006
 30
0.0
  0
VERTEX
  5
57D
  8
0
  6
CONTINUOUS
 62
     7
 10
289.7203433187
 20
180.4775014912
 30
0.0
  0
VERTEX
  5
57E
  8
0
  6
CONTINUOUS
 62
     7
 10
293.5231732995
 20
180.5306449925
 30
0.0
  0
VERTEX
  5
57F
  8
0
  6
CONTINUOUS
 62
     7
 10
297.3161327512
 20
180.5933967626
 30
0.0
  0
SEQEND
  5
ABB
  8
0
  6
CONTINUOUS
 62
     7
  0
LINE
  5
9B
  8
0
  6
CONTINUOUS
 62
     7
 10
235.679970947
 20
230.3908721005
 30
0.0
 11
235.679970947
 21
190.6890169179
 31
0.0
  0
ARC
  5
9C
  8
0
  6
CONTINUOUS
 62
     7
 10
245.4631236783
 20
230.4858053601
 30
0.0
 40
9.783613324751851
 50
99.1043898121
 51
180.5559664191
  0
POLYLINE
  5
9D
  8
0
  6
CONTINUOUS
 62
     7
 66
     1
 10
0.0
 20
0.0
 30
0.0
  0
VERTEX
  5
580
  8
0
  6
CONTINUOUS
 62
     7
 10
243.9150261552
 20
240.1461616551
 30
0.0
  0
VERTEX
  5
581
  8
0
  6
CONTINUOUS
 62
     7
 10
247.7079885871
 20
240.0834098851
 30
0.0
  0
VERTEX
  5
582
  8
0
  6
CONTINUOUS
 62
     7
 10
251.510818568
 20
240.0302663838
 30
0.0
  0
VERTEX
  5
583
  8
0
  6
CONTINUOUS
 62
     7
 10
255.3218829305
 20
239.9867549931
 30
0.0
  0
VERTEX
  5
584
  8
0
  6
CONTINUOUS
 62
     7
 10
259.1395365865
 20
239.9528995549
 30
0.0
  0
VERTEX
  5
585
  8
0
  6
CONTINUOUS
 62
     7
 10
262.962137428
 20
239.9287000691
 30
0.0
  0
VERTEX
  5
586
  8
0
  6
CONTINUOUS
 62
     7
 10
266.7880344064
 20
239.9141684567
 30
0.0
  0
VERTEX
  5
587
  8
0
  6
CONTINUOUS
 62
     7
 10
270.6155824334
 20
239.9093285596
 30
0.0
  0
VERTEX
  5
588
  8
0
  6
CONTINUOUS
 62
     7
 10
274.4431245
 20
239.9141684567
 30
0.0
  0
VERTEX
  5
589
  8
0
  6
CONTINUOUS
 62
     7
 10
278.2690214784
 20
239.9287000691
 30
0.0
  0
VERTEX
  5
58A
  8
0
  6
CONTINUOUS
 62
     7
 10
282.0916223199
 20
239.9528995549
 30
0.0
  0
VERTEX
  5
58B
  8
0
  6
CONTINUOUS
 62
     7
 10
285.9092759759
 20
239.9867549931
 30
0.0
  0
VERTEX
  5
58C
  8
0
  6
CONTINUOUS
 62
     7
 10
289.7203433187
 20
240.0302663838
 30
0.0
  0
VERTEX
  5
58D
  8
0
  6
CONTINUOUS
 62
     7
 10
293.5231732995
 20
240.0834098851
 30
0.0
  0
VERTEX
  5
58E
  8
0
  6
CONTINUOUS
 62
     7
 10
297.3161327512
 20
240.1461616551
 30
0.0
  0
SEQEND
  5
ABA
  8
0
  6
CONTINUOUS
 62
     7
  0
ARC
  5
9E
  8
0
  6
CONTINUOUS
 62
     7
 10
295.7794675686
 20
230.4954561198
 30
0.0
 40
9.772280041685562
 50
359.3868025399
 51
80.9528412289
  0
LINE
  5
9F
  8
0
  6
CONTINUOUS
 62
     7
 10
305.5511879594
 20
190.6890169179
 30
0.0
 11
305.5511879594
 21
230.3908721005
 31
0.0
  0
POLYLINE
  5
A0
  8
0
  6
CONTINUOUS
 62
     7
 66
     1
 10
0.0
 20
0.0
 30
0.0
  0
VERTEX
  5
58F
  8
0
  6
CONTINUOUS
 62
     7
 10
245.5818044813
 20
180.5373564755
 30
0.0
  0
VERTEX
  5
590
  8
0
  6
CONTINUOUS
 62
     7
 10
249.4145768554
 20
180.4784074818
 30
0.0
  0
VERTEX
  5
591
  8
0
  6
CONTINUOUS
 62
     7
 10
253.2566296728
 20
180.4292336499
 30
0.0
  0
VERTEX
  5
592
  8
0
  6
CONTINUOUS
 62
     7
 10
257.1062880428
 20
180.3898707425
 30
0.0
  0
VERTEX
  5
593
  8
0
  6
CONTINUOUS
 62
     7
 10
260.9618591935
 20
180.3603426015
 30
0.0
  0
VERTEX
  5
594
  8
0
  6
CONTINUOUS
 62
     7
 10
264.8216533334
 20
180.3406373059
 30
0.0
  0
VERTEX
  5
595
  8
0
  6
CONTINUOUS
 62
     7
 10
268.6839925916
 20
180.3307906186
 30
0.0
  0
VERTEX
  5
596
  8
0
  6
CONTINUOUS
 62
     7
 10
272.5471722753
 20
180.3307906186
 30
0.0
  0
VERTEX
  5
597
  8
0
  6
CONTINUOUS
 62
     7
 10
276.409505573
 20
180.3406373059
 30
0.0
  0
VERTEX
  5
598
  8
0
  6
CONTINUOUS
 62
     7
 10
280.2692997129
 20
180.3603426015
 30
0.0
  0
VERTEX
  5
599
  8
0
  6
CONTINUOUS
 62
     7
 10
284.1248738439
 20
180.3898707425
 30
0.0
  0
VERTEX
  5
59A
  8
0
  6
CONTINUOUS
 62
     7
 10
287.9745292337
 20
180.4292336499
 30
0.0
  0
VERTEX
  5
59B
  8
0
  6
CONTINUOUS
 62
     7
 10
291.8165850313
 20
180.4784074818
 30
0.0
  0
VERTEX
  5
59C
  8
0
  6
CONTINUOUS
 62
     7
 10
295.6493544252
 20
180.5373564755
 30
0.0
  0
SEQEND
  5
AB9
  8
0
  6
CONTINUOUS
 62
     7
  0
ARC
  5
A1
  8
0
  6
CONTINUOUS
 62
     7
 10
243.6509953538
 20
233.0120871667
 30
0.0
 40
11.53015475365914
 50
111.5475430072
 51
126.7247218963
  0
ARC
  5
A2
  8
0
  6
CONTINUOUS
 62
     7
 10
297.1948071353
 20
232.2420116195
 30
0.0
 40
12.38111910854609
 50
54.0748919226
 51
68.1454714933
  0
POLYLINE
  5
A3
  8
0
  6
CONTINUOUS
 62
     7
 66
     1
 10
0.0
 20
0.0
 30
0.0
  0
VERTEX
  5
59D
  8
0
  6
CONTINUOUS
 62
     7
 10
415.6493591935
 20
180.5373564755
 30
0.0
  0
VERTEX
  5
59E
  8
0
  6
CONTINUOUS
 62
     7
 10
416.4898800523
 20
180.5590287244
 30
0.0
  0
VERTEX
  5
59F
  8
0
  6
CONTINUOUS
 62
     7
 10
417.31614348
 20
180.5933967626
 30
0.0
  0
SEQEND
  5
AB8
  8
0
  6
CONTINUOUS
 62
     7
  0
ARC
  5
A4
  8
0
  6
CONTINUOUS
 62
     7
 10
415.2916529079
 20
190.6512802028
 30
0.0
 40
10.25960922137346
 50
281.380650827
 51
0.2107448084
  0
ARC
  5
A5
  8
0
  6
CONTINUOUS
 62
     7
 10
366.5743236271
 20
234.8722100215
 30
0.0
 40
54.34391784259603
 50
267.195139234
 51
268.9535095989
  0
ARC
  5
A6
  8
0
  6
CONTINUOUS
 62
     7
 10
365.926939343
 20
190.6410289759
 30
0.0
 40
10.24708195450446
 50
179.7316780907
 51
258.6770075229
  0
POLYLINE
  5
A7
  8
0
  6
CONTINUOUS
 62
     7
 66
     1
 10
0.0
 20
0.0
 30
0.0
  0
VERTEX
  5
5A0
  8
0
  6
CONTINUOUS
 62
     7
 10
363.9150309236
 20
180.5933967626
 30
0.0
  0
VERTEX
  5
5A1
  8
0
  6
CONTINUOUS
 62
     7
 10
367.7079844148
 20
180.5306449925
 30
0.0
  0
VERTEX
  5
5A2
  8
0
  6
CONTINUOUS
 62
     7
 10
371.5108203561
 20
180.4775014912
 30
0.0
  0
VERTEX
  5
5A3
  8
0
  6
CONTINUOUS
 62
     7
 10
375.3218817384
 20
180.4339901006
 30
0.0
  0
VERTEX
  5
5A4
  8
0
  6
CONTINUOUS
 62
     7
 10
379.1395353944
 20
180.4001227414
 30
0.0
  0
VERTEX
  5
5A5
  8
0
  6
CONTINUOUS
 62
     7
 10
382.9621362359
 20
180.3759232556
 30
0.0
  0
VERTEX
  5
5A6
  8
0
  6
CONTINUOUS
 62
     7
 10
386.7880391748
 20
180.3614035642
 30
0.0
  0
VERTEX
  5
5A7
  8
0
  6
CONTINUOUS
 62
     7
 10
390.6155752809
 20
180.356563667
 30
0.0
  0
VERTEX
  5
5A8
  8
0
  6
CONTINUOUS
 62
     7
 10
394.4431233079
 20
180.3614035642
 30
0.0
  0
VERTEX
  5
5A9
  8
0
  6
CONTINUOUS
 62
     7
 10
398.2690262468
 20
180.3759232556
 30
0.0
  0
VERTEX
  5
5AA
  8
0
  6
CONTINUOUS
 62
     7
 10
402.0916270883
 20
180.4001227414
 30
0.0
  0
VERTEX
  5
5AB
  8
0
  6
CONTINUOUS
 62
     7
 10
405.9092807443
 20
180.4339901006
 30
0.0
  0
VERTEX
  5
5AC
  8
0
  6
CONTINUOUS
 62
     7
 10
409.7203421266
 20
180.4775014912
 30
0.0
  0
VERTEX
  5
5AD
  8
0
  6
CONTINUOUS
 62
     7
 10
413.523166147
 20
180.5306449925
 30
0.0
  0
VERTEX
  5
5AE
  8
0
  6
CONTINUOUS
 62
     7
 10
417.31614348
 20
180.5933967626
 30
0.0
  0
SEQEND
  5
AB7
  8
0
  6
CONTINUOUS
 62
     7
  0
LINE
  5
A8
  8
0
  6
CONTINUOUS
 62
     7
 10
355.6799697549
 20
230.3908721005
 30
0.0
 11
355.6799697549
 21
190.6890169179
 31
0.0
  0
ARC
  5
A9
  8
0
  6
CONTINUOUS
 62
     7
 10
365.463130134
 20
230.4857979582
 30
0.0
 40
9.783620900325573
 50
99.1043927098
 51
180.5559226392
  0
POLYLINE
  5
AA
  8
0
  6
CONTINUOUS
 62
     7
 66
     1
 10
0.0
 20
0.0
 30
0.0
  0
VERTEX
  5
5AF
  8
0
  6
CONTINUOUS
 62
     7
 10
363.9150309236
 20
240.1461616551
 30
0.0
  0
VERTEX
  5
5B0
  8
0
  6
CONTINUOUS
 62
     7
 10
367.7079844148
 20
240.0834098851
 30
0.0
  0
VERTEX
  5
5B1
  8
0
  6
CONTINUOUS
 62
     7
 10
371.5108203561
 20
240.0302663838
 30
0.0
  0
VERTEX
  5
5B2
  8
0
  6
CONTINUOUS
 62
     7
 10
375.3218817384
 20
239.9867549931
 30
0.0
  0
VERTEX
  5
5B3
  8
0
  6
CONTINUOUS
 62
     7
 10
379.1395353944
 20
239.9528995549
 30
0.0
  0
VERTEX
  5
5B4
  8
0
  6
CONTINUOUS
 62
     7
 10
382.9621362359
 20
239.9287000691
 30
0.0
  0
VERTEX
  5
5B5
  8
0
  6
CONTINUOUS
 62
     7
 10
386.7880391748
 20
239.9141684567
 30
0.0
  0
VERTEX
  5
5B6
  8
0
  6
CONTINUOUS
 62
     7
 10
390.6155752809
 20
239.9093285596
 30
0.0
  0
VERTEX
  5
5B7
  8
0
  6
CONTINUOUS
 62
     7
 10
394.4431233079
 20
239.9141684567
 30
0.0
  0
VERTEX
  5
5B8
  8
0
  6
CONTINUOUS
 62
     7
 10
398.2690262468
 20
239.9287000691
 30
0.0
  0
VERTEX
  5
5B9
  8
0
  6
CONTINUOUS
 62
     7
 10
402.0916270883
 20
239.9528995549
 30
0.0
  0
VERTEX
  5
5BA
  8
0
  6
CONTINUOUS
 62
     7
 10
405.9092807443
 20
239.9867549931
 30
0.0
  0
VERTEX
  5
5BB
  8
0
  6
CONTINUOUS
 62
     7
 10
409.7203421266
 20
240.0302663838
 30
0.0
  0
VERTEX
  5
5BC
  8
0
  6
CONTINUOUS
 62
     7
 10
413.523166147
 20
240.0834098851
 30
0.0
  0
VERTEX
  5
5BD
  8
0
  6
CONTINUOUS
 62
     7
 10
417.31614348
 20
240.1461616551
 30
0.0
  0
SEQEND
  5
AB6
  8
0
  6
CONTINUOUS
 62
     7
  0
ARC
  5
AB
  8
0
  6
CONTINUOUS
 62
     7
 10
415.7794659699
 20
230.4954516838
 30
0.0
 40
9.772286360933984
 50
359.3868289463
 51
80.9527739403
  0
LINE
  5
AC
  8
0
  6
CONTINUOUS
 62
     7
 10
425.5511927278
 20
190.6890169179
 30
0.0
 11
425.5511927278
 21
230.3908721005
 31
0.0
  0
POLYLINE
  5
AD
  8
0
  6
CONTINUOUS
 62
     7
 66
     1
 10
0.0
 20
0.0
 30
0.0
  0
VERTEX
  5
5BE
  8
0
  6
CONTINUOUS
 62
     7
 10
365.5818032892
 20
180.5373564755
 30
0.0
  0
VERTEX
  5
5BF
  8
0
  6
CONTINUOUS
 62
     7
 10
369.4145726831
 20
180.4784074818
 30
0.0
  0
VERTEX
  5
5C0
  8
0
  6
CONTINUOUS
 62
     7
 10
373.2566284807
 20
180.4292336499
 30
0.0
  0
VERTEX
  5
5C1
  8
0
  6
CONTINUOUS
 62
     7
 10
377.1062898309
 20
180.3898707425
 30
0.0
  0
VERTEX
  5
5C2
  8
0
  6
CONTINUOUS
 62
     7
 10
380.961852041
 20
180.3603426015
 30
0.0
  0
VERTEX
  5
5C3
  8
0
  6
CONTINUOUS
 62
     7
 10
384.8216581018
 20
180.3406373059
 30
0.0
  0
VERTEX
  5
5C4
  8
0
  6
CONTINUOUS
 62
     7
 10
388.6839913995
 20
180.3307906186
 30
0.0
  0
VERTEX
  5
5C5
  8
0
  6
CONTINUOUS
 62
     7
 10
392.5471710832
 20
180.3307906186
 30
0.0
  0
VERTEX
  5
5C6
  8
0
  6
CONTINUOUS
 62
     7
 10
396.4095043809
 20
180.3406373059
 30
0.0
  0
VERTEX
  5
5C7
  8
0
  6
CONTINUOUS
 62
     7
 10
400.2692985208
 20
180.3603426015
 30
0.0
  0
VERTEX
  5
5C8
  8
0
  6
CONTINUOUS
 62
     7
 10
404.1248726518
 20
180.3898707425
 30
0.0
  0
VERTEX
  5
5C9
  8
0
  6
CONTINUOUS
 62
     7
 10
407.9745340021
 20
180.4292336499
 30
0.0
  0
VERTEX
  5
5CA
  8
0
  6
CONTINUOUS
 62
     7
 10
411.8165897996
 20
180.4784074818
 30
0.0
  0
VERTEX
  5
5CB
  8
0
  6
CONTINUOUS
 62
     7
 10
415.6493591935
 20
180.5373564755
 30
0.0
  0
SEQEND
  5
AB5
  8
0
  6
CONTINUOUS
 62
     7
  0
ARC
  5
AE
  8
0
  6
CONTINUOUS
 62
     7
 10
363.6513644079
 20
233.0114453229
 30
0.0
 40
11.53088881758463
 50
111.5480965958
 51
126.724277509
  0
ARC
  5
AF
  8
0
  6
CONTINUOUS
 62
     7
 10
417.194514556
 20
232.2415506005
 30
0.0
 40
12.38165990240534
 50
54.0750740516
 51
68.1449629569
  0
POLYLINE
  5
B0
  8
0
  6
CONTINUOUS
 62
     7
 66
     1
 10
0.0
 20
0.0
 30
0.0
  0
VERTEX
  5
5CC
  8
0
  6
CONTINUOUS
 62
     7
 10
175.6493556173
 20
180.5373564755
 30
0.0
  0
VERTEX
  5
5CD
  8
0
  6
CONTINUOUS
 62
     7
 10
176.489876476
 20
180.5590287244
 30
0.0
  0
VERTEX
  5
5CE
  8
0
  6
CONTINUOUS
 62
     7
 10
177.3161339433
 20
180.5933967626
 30
0.0
  0
SEQEND
  5
AB4
  8
0
  6
CONTINUOUS
 62
     7
  0
ARC
  5
B1
  8
0
  6
CONTINUOUS
 62
     7
 10
175.2916611468
 20
190.6512717604
 30
0.0
 40
10.25959743735735
 50
281.3805628125
 51
0.2107921984
  0
ARC
  5
B2
  8
0
  6
CONTINUOUS
 62
     7
 10
126.5743974429
 20
234.8746174187
 30
0.0
 40
54.34632614283862
 50
267.1951819377
 51
268.9534806573
  0
ARC
  5
B3
  8
0
  6
CONTINUOUS
 62
     7
 10
125.926931537
 20
190.6410194758
 30
0.0
 40
10.2470718089012
 50
179.7316247056
 51
258.6770202835
  0
POLYLINE
  5
B4
  8
0
  6
CONTINUOUS
 62
     7
 66
     1
 10
0.0
 20
0.0
 30
0.0
  0
VERTEX
  5
5CF
  8
0
  6
CONTINUOUS
 62
     7
 10
123.9150273473
 20
180.5933967626
 30
0.0
  0
VERTEX
  5
5D0
  8
0
  6
CONTINUOUS
 62
     7
 10
127.707986799
 20
180.5306449925
 30
0.0
  0
VERTEX
  5
5D1
  8
0
  6
CONTINUOUS
 62
     7
 10
131.5108167798
 20
180.4775014912
 30
0.0
  0
VERTEX
  5
5D2
  8
0
  6
CONTINUOUS
 62
     7
 10
135.3218841226
 20
180.4339901006
 30
0.0
  0
VERTEX
  5
5D3
  8
0
  6
CONTINUOUS
 62
     7
 10
139.1395377786
 20
180.4001227414
 30
0.0
  0
VERTEX
  5
5D4
  8
0
  6
CONTINUOUS
 62
     7
 10
142.9621386201
 20
180.3759232556
 30
0.0
  0
VERTEX
  5
5D5
  8
0
  6
CONTINUOUS
 62
     7
 10
146.7880355985
 20
180.3614035642
 30
0.0
  0
VERTEX
  5
5D6
  8
0
  6
CONTINUOUS
 62
     7
 10
150.6155776651
 20
180.356563667
 30
0.0
  0
VERTEX
  5
5D7
  8
0
  6
CONTINUOUS
 62
     7
 10
154.4431256921
 20
180.3614035642
 30
0.0
  0
VERTEX
  5
5D8
  8
0
  6
CONTINUOUS
 62
     7
 10
158.2690226705
 20
180.3759232556
 30
0.0
  0
VERTEX
  5
5D9
  8
0
  6
CONTINUOUS
 62
     7
 10
162.091623512
 20
180.4001227414
 30
0.0
  0
VERTEX
  5
5DA
  8
0
  6
CONTINUOUS
 62
     7
 10
165.909277168
 20
180.4339901006
 30
0.0
  0
VERTEX
  5
5DB
  8
0
  6
CONTINUOUS
 62
     7
 10
169.7203415305
 20
180.4775014912
 30
0.0
  0
VERTEX
  5
5DC
  8
0
  6
CONTINUOUS
 62
     7
 10
173.5231715114
 20
180.5306449925
 30
0.0
  0
VERTEX
  5
5DD
  8
0
  6
CONTINUOUS
 62
     7
 10
177.3161339433
 20
180.5933967626
 30
0.0
  0
SEQEND
  5
AB3
  8
0
  6
CONTINUOUS
 62
     7
  0
LINE
  5
B5
  8
0
  6
CONTINUOUS
 62
     7
 10
115.6799721391
 20
230.3908721005
 30
0.0
 11
115.6799721391
 21
190.6890169179
 31
0.0
  0
ARC
  5
B6
  8
0
  6
CONTINUOUS
 62
     7
 10
125.4631296167
 20
230.4858013534
 30
0.0
 40
9.783618031955813
 50
99.1044135448
 51
180.5559426864
  0
POLYLINE
  5
B7
  8
0
  6
CONTINUOUS
 62
     7
 66
     1
 10
0.0
 20
0.0
 30
0.0
  0
VERTEX
  5
5DE
  8
0
  6
CONTINUOUS
 62
     7
 10
123.9150273473
 20
240.1461616551
 30
0.0
  0
VERTEX
  5
5DF
  8
0
  6
CONTINUOUS
 62
     7
 10
127.707986799
 20
240.0834098851
 30
0.0
  0
VERTEX
  5
5E0
  8
0
  6
CONTINUOUS
 62
     7
 10
131.5108167798
 20
240.0302663838
 30
0.0
  0
VERTEX
  5
5E1
  8
0
  6
CONTINUOUS
 62
     7
 10
135.3218841226
 20
239.9867549931
 30
0.0
  0
VERTEX
  5
5E2
  8
0
  6
CONTINUOUS
 62
     7
 10
139.1395377786
 20
239.9528995549
 30
0.0
  0
VERTEX
  5
5E3
  8
0
  6
CONTINUOUS
 62
     7
 10
142.9621386201
 20
239.9287000691
 30
0.0
  0
VERTEX
  5
5E4
  8
0
  6
CONTINUOUS
 62
     7
 10
146.7880355985
 20
239.9141684567
 30
0.0
  0
VERTEX
  5
5E5
  8
0
  6
CONTINUOUS
 62
     7
 10
150.6155776651
 20
239.9093285596
 30
0.0
  0
VERTEX
  5
5E6
  8
0
  6
CONTINUOUS
 62
     7
 10
154.4431256921
 20
239.9141684567
 30
0.0
  0
VERTEX
  5
5E7
  8
0
  6
CONTINUOUS
 62
     7
 10
158.2690226705
 20
239.9287000691
 30
0.0
  0
VERTEX
  5
5E8
  8
0
  6
CONTINUOUS
 62
     7
 10
162.091623512
 20
239.9528995549
 30
0.0
  0
VERTEX
  5
5E9
  8
0
  6
CONTINUOUS
 62
     7
 10
165.909277168
 20
239.9867549931
 30
0.0
  0
VERTEX
  5
5EA
  8
0
  6
CONTINUOUS
 62
     7
 10
169.7203415305
 20
240.0302663838
 30
0.0
  0
VERTEX
  5
5EB
  8
0
  6
CONTINUOUS
 62
     7
 10
173.5231715114
 20
240.0834098851
 30
0.0
  0
VERTEX
  5
5EC
  8
0
  6
CONTINUOUS
 62
     7
 10
177.3161339433
 20
240.1461616551
 30
0.0
  0
SEQEND
  5
AB2
  8
0
  6
CONTINUOUS
 62
     7
  0
ARC
  5
B8
  8
0
  6
CONTINUOUS
 62
     7
 10
175.7794666414
 20
230.4954543308
 30
0.0
 40
9.772282141696769
 50
359.3868131615
 51
80.9528306073
  0
LINE
  5
B9
  8
0
  6
CONTINUOUS
 62
     7
 10
185.5511891515
 20
190.6890169179
 30
0.0
 11
185.5511891515
 21
230.3908721005
 31
0.0
  0
POLYLINE
  5
BA
  8
0
  6
CONTINUOUS
 62
     7
 66
     1
 10
0.0
 20
0.0
 30
0.0
  0
VERTEX
  5
5ED
  8
0
  6
CONTINUOUS
 62
     7
 10
125.5818056733
 20
180.5373564755
 30
0.0
  0
VERTEX
  5
5EE
  8
0
  6
CONTINUOUS
 62
     7
 10
129.4145750673
 20
180.4784074818
 30
0.0
  0
VERTEX
  5
5EF
  8
0
  6
CONTINUOUS
 62
     7
 10
133.2566308648
 20
180.4292336499
 30
0.0
  0
VERTEX
  5
5F0
  8
0
  6
CONTINUOUS
 62
     7
 10
137.1062862546
 20
180.3898707425
 30
0.0
  0
VERTEX
  5
5F1
  8
0
  6
CONTINUOUS
 62
     7
 10
140.9618603856
 20
180.3603426015
 30
0.0
  0
VERTEX
  5
5F2
  8
0
  6
CONTINUOUS
 62
     7
 10
144.8216545255
 20
180.3406373059
 30
0.0
  0
VERTEX
  5
5F3
  8
0
  6
CONTINUOUS
 62
     7
 10
148.6839878232
 20
180.3307906186
 30
0.0
  0
VERTEX
  5
5F4
  8
0
  6
CONTINUOUS
 62
     7
 10
152.5471675069
 20
180.3307906186
 30
0.0
  0
VERTEX
  5
5F5
  8
0
  6
CONTINUOUS
 62
     7
 10
156.4095067651
 20
180.3406373059
 30
0.0
  0
VERTEX
  5
5F6
  8
0
  6
CONTINUOUS
 62
     7
 10
160.269300905
 20
180.3603426015
 30
0.0
  0
VERTEX
  5
5F7
  8
0
  6
CONTINUOUS
 62
     7
 10
164.1248720558
 20
180.3898707425
 30
0.0
  0
VERTEX
  5
5F8
  8
0
  6
CONTINUOUS
 62
     7
 10
167.9745304258
 20
180.4292336499
 30
0.0
  0
VERTEX
  5
5F9
  8
0
  6
CONTINUOUS
 62
     7
 10
171.8165832431
 20
180.4784074818
 30
0.0
  0
VERTEX
  5
5FA
  8
0
  6
CONTINUOUS
 62
     7
 10
175.6493556173
 20
180.5373564755
 30
0.0
  0
SEQEND
  5
AB1
  8
0
  6
CONTINUOUS
 62
     7
  0
ARC
  5
BB
  8
0
  6
CONTINUOUS
 62
     7
 10
123.6511659506
 20
233.0117779113
 30
0.0
 40
11.53050570870247
 50
111.5477753418
 51
126.7244895617
  0
ARC
  5
BC
  8
0
  6
CONTINUOUS
 62
     7
 10
177.1949160393
 20
232.2422122222
 30
0.0
 40
12.38089171755702
 50
54.0747620571
 51
68.1456013588
  0
LINE
  5
BD
  8
0
  6
CONTINUOUS
 62
     7
 10
288.6155771882
 20
133.9603439366
 30
0.0
 11
288.6155771882
 21
127.160342077
 31
0.0
  0
ARC
  5
BE
  8
0
  6
CONTINUOUS
 62
     7
 10
285.6155800493
 20
127.1603413617
 30
0.0
 40
3.0
 50
270.0
 51
0.0
  0
LINE
  5
BF
  8
0
  6
CONTINUOUS
 62
     7
 10
285.6155800493
 20
124.1603389775
 30
0.0
 11
255.6155788572
 21
124.1603389775
 31
0.0
  0
ARC
  5
C0
  8
0
  6
CONTINUOUS
 62
     7
 10
255.6155800493
 20
127.1603413617
 30
0.0
 40
3.0
 50
180.0
 51
270.0
  0
LINE
  5
C1
  8
0
  6
CONTINUOUS
 62
     7
 10
252.615578738
 20
133.9603439366
 30
0.0
 11
252.615578738
 21
127.160342077
 31
0.0
  0
CIRCLE
  5
C2
  8
0
  6
CONTINUOUS
 62
     7
 10
255.6155800493
 20
128.3603413617
 30
0.0
 40
1.100000000000009
  0
CIRCLE
  5
C3
  8
0
  6
CONTINUOUS
 62
     7
 10
285.6155800493
 20
128.3603413617
 30
0.0
 40
1.099999999999994
  0
LINE
  5
C4
  8
0
  6
CONTINUOUS
 62
     7
 10
288.6155771882
 20
134.9603429829
 30
0.0
 11
252.615578738
 21
134.9603429829
 31
0.0
  0
LINE
  5
C5
  8
0
  6
CONTINUOUS
 62
     7
 10
252.615578738
 20
134.9603429829
 30
0.0
 11
252.615578738
 21
133.9603439366
 31
0.0
  0
LINE
  5
C6
  8
0
  6
CONTINUOUS
 62
     7
 10
288.6155771882
 20
134.9603429829
 30
0.0
 11
288.6155771882
 21
133.9603439366
 31
0.0
  0
LINE
  5
C7
  8
0
  6
CONTINUOUS
 62
     7
 10
267.615579334
 20
140.9051016366
 30
0.0
 11
267.615579334
 21
134.9603429829
 31
0.0
  0
LINE
  5
C8
  8
0
  6
CONTINUOUS
 62
     7
 10
273.6155795724
 20
140.9051016366
 30
0.0
 11
273.6155795724
 21
134.9603429829
 31
0.0
  0
LINE
  5
C9
  8
0
  6
CONTINUOUS
 62
     7
 10
273.6155795724
 20
143.982203344
 30
0.0
 11
273.6155795724
 21
140.9051016366
 31
0.0
  0
LINE
  5
CA
  8
0
  6
CONTINUOUS
 62
     7
 10
267.615579334
 20
143.982203344
 30
0.0
 11
267.615579334
 21
140.9051016366
 31
0.0
  0
LINE
  5
CB
  8
0
  6
CONTINUOUS
 62
     7
 10
267.615579334
 20
165.3322235143
 30
0.0
 11
267.615579334
 21
149.3629053628
 31
0.0
  0
LINE
  5
CC
  8
0
  6
CONTINUOUS
 62
     7
 10
273.6155795724
 20
165.3322235143
 30
0.0
 11
273.6155795724
 21
149.3629053628
 31
0.0
  0
LINE
  5
CD
  8
0
  6
CONTINUOUS
 62
     7
 10
267.615579334
 20
169.0962925946
 30
0.0
 11
267.615579334
 21
165.3322235143
 31
0.0
  0
LINE
  5
CE
  8
0
  6
CONTINUOUS
 62
     7
 10
273.6155795724
 20
169.0962925946
 30
0.0
 11
273.6155795724
 21
165.3322235143
 31
0.0
  0
LINE
  5
CF
  8
0
  6
CONTINUOUS
 62
     7
 10
267.615579334
 20
169.0962925946
 30
0.0
 11
267.615579334
 21
175.1818076169
 31
0.0
  0
LINE
  5
D0
  8
0
  6
CONTINUOUS
 62
     7
 10
273.6155795724
 20
169.0962925946
 30
0.0
 11
273.6155795724
 21
175.1824990308
 31
0.0
  0
LINE
  5
D1
  8
0
  6
CONTINUOUS
 62
     7
 10
168.6155813606
 20
133.9603439366
 30
0.0
 11
168.6155813606
 21
127.160342077
 31
0.0
  0
ARC
  5
D2
  8
0
  6
CONTINUOUS
 62
     7
 10
165.6155800493
 20
127.1603413617
 30
0.0
 40
3.0
 50
270.0
 51
0.0
  0
LINE
  5
D3
  8
0
  6
CONTINUOUS
 62
     7
 10
165.6155812414
 20
124.1603389775
 30
0.0
 11
135.6155800493
 21
124.1603389775
 31
0.0
  0
ARC
  5
D4
  8
0
  6
CONTINUOUS
 62
     7
 10
135.6155800493
 20
127.1603413617
 30
0.0
 40
3.0
 50
180.0
 51
270.0
  0
LINE
  5
D5
  8
0
  6
CONTINUOUS
 62
     7
 10
132.6155829103
 20
133.9603439366
 30
0.0
 11
132.6155829103
 21
127.160342077
 31
0.0
  0
CIRCLE
  5
D6
  8
0
  6
CONTINUOUS
 62
     7
 10
135.6155800493
 20
128.3603413617
 30
0.0
 40
1.100000000000009
  0
CIRCLE
  5
D7
  8
0
  6
CONTINUOUS
 62
     7
 10
165.6155800493
 20
128.3603413617
 30
0.0
 40
1.099999999999994
  0
LINE
  5
D8
  8
0
  6
CONTINUOUS
 62
     7
 10
168.6155813606
 20
134.9603429829
 30
0.0
 11
132.6155829103
 21
134.9603429829
 31
0.0
  0
LINE
  5
D9
  8
0
  6
CONTINUOUS
 62
     7
 10
168.6155813606
 20
134.9603429829
 30
0.0
 11
168.6155813606
 21
133.9603439366
 31
0.0
  0
LINE
  5
DA
  8
0
  6
CONTINUOUS
 62
     7
 10
132.6155829103
 20
134.9603429829
 30
0.0
 11
132.6155829103
 21
133.9603439366
 31
0.0
  0
LINE
  5
DB
  8
0
  6
CONTINUOUS
 62
     7
 10
147.6155805261
 20
140.9051016366
 30
0.0
 11
147.6155805261
 21
134.9603429829
 31
0.0
  0
LINE
  5
DC
  8
0
  6
CONTINUOUS
 62
     7
 10
153.6155807645
 20
140.9051016366
 30
0.0
 11
153.6155807645
 21
134.9603429829
 31
0.0
  0
LINE
  5
DD
  8
0
  6
CONTINUOUS
 62
     7
 10
153.6155807645
 20
143.982203344
 30
0.0
 11
153.6155807645
 21
140.9051016366
 31
0.0
  0
LINE
  5
DE
  8
0
  6
CONTINUOUS
 62
     7
 10
147.6155805261
 20
143.982203344
 30
0.0
 11
147.6155805261
 21
140.9051016366
 31
0.0
  0
LINE
  5
DF
  8
0
  6
CONTINUOUS
 62
     7
 10
153.6155807645
 20
165.3322235143
 30
0.0
 11
153.6155807645
 21
149.3629053628
 31
0.0
  0
LINE
  5
E0
  8
0
  6
CONTINUOUS
 62
     7
 10
147.6155805261
 20
165.3322235143
 30
0.0
 11
147.6155805261
 21
149.3629053628
 31
0.0
  0
LINE
  5
E1
  8
0
  6
CONTINUOUS
 62
     7
 10
147.6155805261
 20
169.0962925946
 30
0.0
 11
147.6155805261
 21
165.3322235143
 31
0.0
  0
LINE
  5
E2
  8
0
  6
CONTINUOUS
 62
     7
 10
153.6155807645
 20
169.0962925946
 30
0.0
 11
153.6155807645
 21
165.3322235143
 31
0.0
  0
LINE
  5
E3
  8
0
  6
CONTINUOUS
 62
     7
 10
147.6155805261
 20
169.0962925946
 30
0.0
 11
147.6155805261
 21
175.1818076169
 31
0.0
  0
LINE
  5
E4
  8
0
  6
CONTINUOUS
 62
     7
 10
153.6155807645
 20
169.0962925946
 30
0.0
 11
153.6155807645
 21
175.1824990308
 31
0.0
  0
LINE
  5
E5
  8
0
  6
CONTINUOUS
 62
     7
 10
408.6155819566
 20
133.9603439366
 30
0.0
 11
408.6155819566
 21
127.160342077
 31
0.0
  0
ARC
  5
E6
  8
0
  6
CONTINUOUS
 62
     7
 10
405.6155800493
 20
127.1603413617
 30
0.0
 40
3.0
 50
270.0
 51
0.0
  0
LINE
  5
E7
  8
0
  6
CONTINUOUS
 62
     7
 10
405.6155848176
 20
124.1603389775
 30
0.0
 11
375.6155776651
 21
124.1603389775
 31
0.0
  0
ARC
  5
E8
  8
0
  6
CONTINUOUS
 62
     7
 10
375.6155800493
 20
127.1603413617
 30
0.0
 40
3.0
 50
180.0
 51
270.0
  0
LINE
  5
E9
  8
0
  6
CONTINUOUS
 62
     7
 10
372.6155805261
 20
133.9603439366
 30
0.0
 11
372.6155805261
 21
127.160342077
 31
0.0
  0
CIRCLE
  5
EA
  8
0
  6
CONTINUOUS
 62
     7
 10
375.6155800493
 20
128.3603413617
 30
0.0
 40
1.100000000000009
  0
CIRCLE
  5
EB
  8
0
  6
CONTINUOUS
 62
     7
 10
405.6155800493
 20
128.3603413617
 30
0.0
 40
1.099999999999994
  0
LINE
  5
EC
  8
0
  6
CONTINUOUS
 62
     7
 10
408.6155819566
 20
134.9603429829
 30
0.0
 11
372.6155805261
 21
134.9603429829
 31
0.0
  0
LINE
  5
ED
  8
0
  6
CONTINUOUS
 62
     7
 10
408.6155819566
 20
134.9603429829
 30
0.0
 11
408.6155819566
 21
133.9603439366
 31
0.0
  0
LINE
  5
EE
  8
0
  6
CONTINUOUS
 62
     7
 10
372.6155805261
 20
134.9603429829
 30
0.0
 11
372.6155805261
 21
133.9603439366
 31
0.0
  0
LINE
  5
EF
  8
0
  6
CONTINUOUS
 62
     7
 10
387.6155781419
 20
140.9051016366
 30
0.0
 11
387.6155781419
 21
134.9603429829
 31
0.0
  0
LINE
  5
F0
  8
0
  6
CONTINUOUS
 62
     7
 10
393.6155843408
 20
140.9051016366
 30
0.0
 11
393.6155843408
 21
134.9603429829
 31
0.0
  0
LINE
  5
F1
  8
0
  6
CONTINUOUS
 62
     7
 10
393.6155843408
 20
143.982203344
 30
0.0
 11
393.6155843408
 21
140.9051016366
 31
0.0
  0
LINE
  5
F2
  8
0
  6
CONTINUOUS
 62
     7
 10
387.6155781419
 20
143.982203344
 30
0.0
 11
387.6155781419
 21
140.9051016366
 31
0.0
  0
LINE
  5
F3
  8
0
  6
CONTINUOUS
 62
     7
 10
387.6155781419
 20
165.3322235143
 30
0.0
 11
387.6155781419
 21
149.3629053628
 31
0.0
  0
LINE
  5
F4
  8
0
  6
CONTINUOUS
 62
     7
 10
393.6155843408
 20
165.3322235143
 30
0.0
 11
393.6155843408
 21
149.3629053628
 31
0.0
  0
LINE
  5
F5
  8
0
  6
CONTINUOUS
 62
     7
 10
387.6155781419
 20
169.0962925946
 30
0.0
 11
387.6155781419
 21
165.3322235143
 31
0.0
  0
LINE
  5
F6
  8
0
  6
CONTINUOUS
 62
     7
 10
393.6155843408
 20
169.0962925946
 30
0.0
 11
393.6155843408
 21
165.3322235143
 31
0.0
  0
LINE
  5
F7
  8
0
  6
CONTINUOUS
 62
     7
 10
387.6155781419
 20
169.0962925946
 30
0.0
 11
387.6155781419
 21
175.1818076169
 31
0.0
  0
LINE
  5
F8
  8
0
  6
CONTINUOUS
 62
     7
 10
393.6155843408
 20
169.0962925946
 30
0.0
 11
393.6155843408
 21
175.1824990308
 31
0.0
  0
LINE
  5
F9
  8
0
  6
CONTINUOUS
 62
     7
 10
48.6155795724
 20
133.9603439366
 30
0.0
 11
48.6155795724
 21
127.160342077
 31
0.0
  0
ARC
  5
FA
  8
0
  6
CONTINUOUS
 62
     7
 10
45.6155800493
 20
127.1603413617
 30
0.0
 40
3.000000000000007
 50
270.0
 51
0.0
  0
LINE
  5
FB
  8
0
  6
CONTINUOUS
 62
     7
 10
45.6155824334
 20
124.1603389775
 30
0.0
 11
15.6155752809
 21
124.1603389775
 31
0.0
  0
ARC
  5
FC
  8
0
  6
CONTINUOUS
 62
     7
 10
15.6155800493
 20
127.1603413617
 30
0.0
 40
3.000000000000002
 50
180.0
 51
270.0
  0
LINE
  5
FD
  8
0
  6
CONTINUOUS
 62
     7
 10
12.6155781419
 20
133.9603439366
 30
0.0
 11
12.6155781419
 21
127.160342077
 31
0.0
  0
CIRCLE
  5
FE
  8
0
  6
CONTINUOUS
 62
     7
 10
15.6155800493
 20
128.3603413617
 30
0.0
 40
1.100000000000009
  0
CIRCLE
  5
FF
  8
0
  6
CONTINUOUS
 62
     7
 10
45.6155800493
 20
128.3603413617
 30
0.0
 40
1.099999999999994
  0
LINE
  5
100
  8
0
  6
CONTINUOUS
 62
     7
 10
48.6155795724
 20
134.9603429829
 30
0.0
 11
12.6155781419
 21
134.9603429829
 31
0.0
  0
LINE
  5
101
  8
0
  6
CONTINUOUS
 62
     7
 10
12.6155781419
 20
134.9603429829
 30
0.0
 11
12.6155781419
 21
133.9603439366
 31
0.0
  0
LINE
  5
102
  8
0
  6
CONTINUOUS
 62
     7
 10
48.6155795724
 20
134.9603429829
 30
0.0
 11
48.6155795724
 21
133.9603439366
 31
0.0
  0
LINE
  5
103
  8
0
  6
CONTINUOUS
 62
     7
 10
27.6155757577
 20
140.9051016366
 30
0.0
 11
27.6155757577
 21
134.9603429829
 31
0.0
  0
LINE
  5
104
  8
0
  6
CONTINUOUS
 62
     7
 10
33.6155819566
 20
140.9051016366
 30
0.0
 11
33.6155819566
 21
134.9603429829
 31
0.0
  0
LINE
  5
105
  8
0
  6
CONTINUOUS
 62
     7
 10
33.6155819566
 20
143.982203344
 30
0.0
 11
33.6155819566
 21
140.9051016366
 31
0.0
  0
LINE
  5
106
  8
0
  6
CONTINUOUS
 62
     7
 10
27.6155757577
 20
143.982203344
 30
0.0
 11
27.6155757577
 21
140.9051016366
 31
0.0
  0
LINE
  5
107
  8
0
  6
CONTINUOUS
 62
     7
 10
27.6155757577
 20
165.3322235143
 30
0.0
 11
27.6155757577
 21
149.3629053628
 31
0.0
  0
LINE
  5
108
  8
0
  6
CONTINUOUS
 62
     7
 10
33.6155819566
 20
165.3322235143
 30
0.0
 11
33.6155819566
 21
149.3629053628
 31
0.0
  0
LINE
  5
109
  8
0
  6
CONTINUOUS
 62
     7
 10
27.6155757577
 20
169.0962925946
 30
0.0
 11
27.6155757577
 21
165.3322235143
 31
0.0
  0
LINE
  5
10A
  8
0
  6
CONTINUOUS
 62
     7
 10
33.6155819566
 20
169.0962925946
 30
0.0
 11
33.6155819566
 21
165.3322235143
 31
0.0
  0
LINE
  5
10B
  8
0
  6
CONTINUOUS
 62
     7
 10
27.6155757577
 20
169.0962925946
 30
0.0
 11
27.6155757577
 21
175.1818076169
 31
0.0
  0
LINE
  5
10C
  8
0
  6
CONTINUOUS
 62
     7
 10
33.6155819566
 20
169.0962925946
 30
0.0
 11
33.6155819566
 21
175.1824990308
 31
0.0
  0
ARC
  5
10D
  8
0
  6
CONTINUOUS
 62
     7
 10
30.6160740042
 20
332.645386452
 30
0.0
 40
183.3069945136858
 50
277.7930028174
 51
281.5888278678
  0
ARC
  5
10E
  8
0
  6
CONTINUOUS
 62
     7
 10
67.9843366821
 20
150.4408444822
 30
0.0
 40
2.690000000000013
 50
12.4186815058
 51
100.0467259554
  0
ARC
  5
10F
  8
0
  6
CONTINUOUS
 62
     7
 10
30.6293047562
 20
332.5680767277
 30
0.0
 40
188.6086048625178
 50
277.792205894
 51
281.5895835726
  0
ARC
  5
110
  8
0
  6
CONTINUOUS
 62
     7
 10
67.9843366821
 20
150.4408444822
 30
0.0
 40
2.690000000000002
 50
281.5900201068
 51
12.4186815058
  0
ARC
  5
111
  8
0
  6
CONTINUOUS
 62
     7
 10
30.6345523956
 20
332.7595893936
 30
0.0
 40
188.802782681975
 50
258.4124969862
 51
262.2058421755
  0
ARC
  5
112
  8
0
  6
CONTINUOUS
 62
     7
 10
-6.7531765836
 20
150.4408444822
 30
0.0
 40
2.690000000000004
 50
167.5813184942
 51
258.4099798932
  0
ARC
  5
113
  8
0
  6
CONTINUOUS
 62
     7
 10
-6.7531765836
 20
150.4408444822
 30
0.0
 40
2.69000000000002
 50
80.0567778886
 51
167.5813184942
  0
ARC
  5
114
  8
0
  6
CONTINUOUS
 62
     7
 10
30.6352557287
 20
332.7638514126
 30
0.0
 40
183.4271022551112
 50
258.4125361985
 51
262.2057682471
  0
ARC
  5
115
  8
0
  6
CONTINUOUS
 62
     7
 10
30.6155800493
 20
332.6483526363
 30
0.0
 40
188.6900000000001
 50
262.2069690737
 51
277.7930309263
  0
ARC
  5
116
  8
0
  6
CONTINUOUS
 62
     7
 10
30.6155800493
 20
332.6483526363
 30
0.0
 40
183.3100000000001
 50
262.2069690737
 51
277.7930309263
  0
LINE
  5
117
  8
0
  6
CONTINUOUS
 62
     7
 10
67.3155831964
 20
147.3003402745
 30
0.0
 11
67.3155831964
 21
142.8333953416
 31
0.0
  0
LINE
  5
118
  8
0
  6
CONTINUOUS
 62
     7
 10
67.3155831964
 20
147.3003402745
 30
0.0
 11
68.3155822427
 21
147.3003402745
 31
0.0
  0
LINE
  5
119
  8
0
  6
CONTINUOUS
 62
     7
 10
68.3155822427
 20
147.3003402745
 30
0.0
 11
68.3155822427
 21
142.8333953416
 31
0.0
  0
LINE
  5
11A
  8
0
  6
CONTINUOUS
 62
     7
 10
67.3155831964
 20
147.5617900884
 30
0.0
 11
67.3155831964
 21
147.3003402745
 31
0.0
  0
LINE
  5
11B
  8
0
  6
CONTINUOUS
 62
     7
 10
68.3155822427
 20
147.7713182961
 30
0.0
 11
68.3155822427
 21
147.3003402745
 31
0.0
  0
LINE
  5
11C
  8
0
  6
CONTINUOUS
 62
     7
 10
-6.084425482
 20
147.3003402745
 30
0.0
 11
-7.0844245284
 21
147.3003402745
 31
0.0
  0
LINE
  5
11D
  8
0
  6
CONTINUOUS
 62
     7
 10
-7.0844245284
 20
147.3003402745
 30
0.0
 11
-7.0844245284
 21
142.8333953416
 31
0.0
  0
LINE
  5
11E
  8
0
  6
CONTINUOUS
 62
     7
 10
-6.084425482
 20
147.3003402745
 30
0.0
 11
-6.084425482
 21
142.8333953416
 31
0.0
  0
LINE
  5
11F
  8
0
  6
CONTINUOUS
 62
     7
 10
-7.0844245284
 20
147.7713182961
 30
0.0
 11
-7.0844245284
 21
147.3003402745
 31
0.0
  0
LINE
  5
120
  8
0
  6
CONTINUOUS
 62
     7
 10
-6.084425482
 20
147.5618139302
 30
0.0
 11
-6.084425482
 21
147.3003402745
 31
0.0
  0
LINE
  5
121
  8
0
  6
CONTINUOUS
 62
     7
 10
-6.2127423613
 20
153.0759945905
 30
0.0
 11
-6.2088084548
 21
153.0751899278
 31
0.0
  0
LINE
  5
122
  8
0
  6
CONTINUOUS
 62
     7
 10
67.4396681459
 20
153.0751243626
 30
0.0
 11
67.4439000757
 21
153.0759945905
 31
0.0
  0
LINE
  5
123
  8
0
  6
CONTINUOUS
 62
     7
 10
-7.0844245284
 20
142.8333953416
 30
0.0
 11
-7.0844245284
 21
141.9798568284
 31
0.0
  0
LINE
  5
124
  8
0
  6
CONTINUOUS
 62
     7
 10
-6.084425482
 20
142.8333953416
 30
0.0
 11
-6.084425482
 21
141.9798568284
 31
0.0
  0
LINE
  5
125
  8
0
  6
CONTINUOUS
 62
     7
 10
67.3155831964
 20
142.8333953416
 30
0.0
 11
67.3155831964
 21
141.9798568284
 31
0.0
  0
LINE
  5
126
  8
0
  6
CONTINUOUS
 62
     7
 10
68.3155822427
 20
142.8333953416
 30
0.0
 11
68.3155822427
 21
141.9798568284
 31
0.0
  0
LINE
  5
127
  8
0
  6
CONTINUOUS
 62
     7
 10
67.3155831964
 20
141.9798568284
 30
0.0
 11
67.3155831964
 21
134.1254249608
 31
0.0
  0
LINE
  5
128
  8
0
  6
CONTINUOUS
 62
     7
 10
68.3155822427
 20
141.9798568284
 30
0.0
 11
68.3155822427
 21
134.1254249608
 31
0.0
  0
LINE
  5
129
  8
0
  6
CONTINUOUS
 62
     7
 10
-7.0844245284
 20
141.9798568284
 30
0.0
 11
-7.0844245284
 21
134.1254249608
 31
0.0
  0
LINE
  5
12A
  8
0
  6
CONTINUOUS
 62
     7
 10
-6.084425482
 20
141.9798568284
 30
0.0
 11
-6.084425482
 21
134.1254249608
 31
0.0
  0
LINE
  5
12B
  8
0
  6
CONTINUOUS
 62
     7
 10
67.3155831964
 20
134.1254249608
 30
0.0
 11
67.3155831964
 21
133.3603397405
 31
0.0
  0
LINE
  5
12C
  8
0
  6
CONTINUOUS
 62
     7
 10
68.3155822427
 20
134.1254249608
 30
0.0
 11
68.3155822427
 21
133.3603397405
 31
0.0
  0
LINE
  5
12D
  8
0
  6
CONTINUOUS
 62
     7
 10
-7.0844245284
 20
134.1254249608
 30
0.0
 11
-7.0844245284
 21
133.3603397405
 31
0.0
  0
LINE
  5
12E
  8
0
  6
CONTINUOUS
 62
     7
 10
-6.084425482
 20
134.1254249608
 30
0.0
 11
-6.084425482
 21
133.3603397405
 31
0.0
  0
LINE
  5
12F
  8
0
  6
CONTINUOUS
 62
     7
 10
67.3155831964
 20
131.3603416478
 30
0.0
 11
68.3155822427
 21
131.3603416478
 31
0.0
  0
LINE
  5
130
  8
0
  6
CONTINUOUS
 62
     7
 10
67.3155831964
 20
133.3603397405
 30
0.0
 11
67.3155831964
 21
131.3603416478
 31
0.0
  0
LINE
  5
131
  8
0
  6
CONTINUOUS
 62
     7
 10
68.3155822427
 20
133.3603397405
 30
0.0
 11
68.3155822427
 21
131.3603416478
 31
0.0
  0
LINE
  5
132
  8
0
  6
CONTINUOUS
 62
     7
 10
-6.084425482
 20
131.3603416478
 30
0.0
 11
-7.0844245284
 21
131.3603416478
 31
0.0
  0
LINE
  5
133
  8
0
  6
CONTINUOUS
 62
     7
 10
-7.0844245284
 20
133.3603397405
 30
0.0
 11
-7.0844245284
 21
131.3603416478
 31
0.0
  0
LINE
  5
134
  8
0
  6
CONTINUOUS
 62
     7
 10
-6.084425482
 20
133.3603397405
 30
0.0
 11
-6.084425482
 21
131.3603416478
 31
0.0
  0
LINE
  5
135
  8
0
  6
CONTINUOUS
 62
     7
 10
-11.884410414
 20
134.1603413617
 30
0.0
 11
-11.884410414
 21
135.160340408
 31
0.0
  0
LINE
  5
136
  8
0
  6
CONTINUOUS
 62
     7
 10
-7.0844245284
 20
135.160340408
 30
0.0
 11
-11.884410414
 21
135.160340408
 31
0.0
  0
LINE
  5
137
  8
0
  6
CONTINUOUS
 62
     7
 10
73.1155800493
 20
134.1603413617
 30
0.0
 11
73.1155800493
 21
135.160340408
 31
0.0
  0
LINE
  5
138
  8
0
  6
CONTINUOUS
 62
     7
 10
73.1155800493
 20
135.160340408
 30
0.0
 11
68.3155822427
 21
135.160340408
 31
0.0
  0
LINE
  5
139
  8
0
  6
CONTINUOUS
 62
     7
 10
67.3155831964
 20
135.160340408
 30
0.0
 11
63.1155776651
 21
135.160340408
 31
0.0
  0
LINE
  5
13A
  8
0
  6
CONTINUOUS
 62
     7
 10
63.1155776651
 20
134.1603413617
 30
0.0
 11
63.1155776651
 21
135.160340408
 31
0.0
  0
LINE
  5
13B
  8
0
  6
CONTINUOUS
 62
     7
 10
73.1155800493
 20
127.160342077
 30
0.0
 11
73.1155800493
 21
134.1603413617
 31
0.0
  0
LINE
  5
13C
  8
0
  6
CONTINUOUS
 62
     7
 10
71.1155819566
 20
125.1603439843
 30
0.0
 11
65.1155757577
 21
125.1603439843
 31
0.0
  0
CIRCLE
  5
13D
  8
0
  6
CONTINUOUS
 62
     7
 10
68.1155800493
 20
128.5603413617
 30
0.0
 40
1.0
  0
LINE
  5
13E
  8
0
  6
CONTINUOUS
 62
     7
 10
63.1155776651
 20
134.1603413617
 30
0.0
 11
63.1155776651
 21
127.160342077
 31
0.0
  0
ARC
  5
13F
  8
0
  6
CONTINUOUS
 62
     7
 10
65.1155800493
 20
127.1603413617
 30
0.0
 40
2.0
 50
180.0
 51
270.0
  0
ARC
  5
140
  8
0
  6
CONTINUOUS
 62
     7
 10
71.1155800493
 20
127.1603413617
 30
0.0
 40
2.0
 50
270.0
 51
0.0
  0
LINE
  5
141
  8
0
  6
CONTINUOUS
 62
     7
 10
-1.8844199507
 20
135.160340408
 30
0.0
 11
-6.084425482
 21
135.160340408
 31
0.0
  0
LINE
  5
142
  8
0
  6
CONTINUOUS
 62
     7
 10
-1.8844199507
 20
135.160340408
 30
0.0
 11
-1.8844199507
 21
134.1603413617
 31
0.0
  0
LINE
  5
143
  8
0
  6
CONTINUOUS
 62
     7
 10
-1.8844199507
 20
127.160342077
 30
0.0
 11
-1.8844199507
 21
134.1603413617
 31
0.0
  0
ARC
  5
144
  8
0
  6
CONTINUOUS
 62
     7
 10
-3.8844199507
 20
127.1603413617
 30
0.0
 40
2.000000000000002
 50
270.0
 51
0.0
  0
LINE
  5
145
  8
0
  6
CONTINUOUS
 62
     7
 10
-3.8844180434
 20
125.1603439843
 30
0.0
 11
-9.8844123213
 21
125.1603439843
 31
0.0
  0
ARC
  5
146
  8
0
  6
CONTINUOUS
 62
     7
 10
-9.8844199507
 20
127.1603413617
 30
0.0
 40
2.0
 50
180.0
 51
270.0
  0
CIRCLE
  5
147
  8
0
  6
CONTINUOUS
 62
     7
 10
-6.8844199507
 20
128.5603413617
 30
0.0
 40
1.000000000000001
  0
LINE
  5
148
  8
0
  6
CONTINUOUS
 62
     7
 10
-11.884410414
 20
127.160342077
 30
0.0
 11
-11.884410414
 21
134.1603413617
 31
0.0
  0
ARC
  5
149
  8
0
  6
CONTINUOUS
 62
     7
 10
390.6281049511
 20
332.5751165603
 30
0.0
 40
188.6157426852897
 50
277.7922777727
 51
281.5895116938
  0
ARC
  5
14A
  8
0
  6
CONTINUOUS
 62
     7
 10
427.9843366821
 20
150.4408444822
 30
0.0
 40
2.689999999999974
 50
281.5900201068
 51
12.4186815058
  0
ARC
  5
14B
  8
0
  6
CONTINUOUS
 62
     7
 10
390.6164287944
 20
332.6429630784
 30
0.0
 40
183.3045473535204
 50
277.7930000842
 51
281.5888684784
  0
ARC
  5
14C
  8
0
  6
CONTINUOUS
 62
     7
 10
427.9843366821
 20
150.4408444822
 30
0.0
 40
2.69000000000002
 50
12.4186815058
 51
100.0467259554
  0
ARC
  5
14D
  8
0
  6
CONTINUOUS
 62
     7
 10
353.2468234164
 20
150.4408444822
 30
0.0
 40
2.690000000000036
 50
80.0567778886
 51
167.5813184942
  0
ARC
  5
14E
  8
0
  6
CONTINUOUS
 62
     7
 10
390.6350056952
 20
332.7625183783
 30
0.0
 40
183.4257456875503
 50
258.4125297998
 51
262.2057935849
  0
ARC
  5
14F
  8
0
  6
CONTINUOUS
 62
     7
 10
390.6354762639
 20
332.7649854975
 30
0.0
 40
188.8082539016023
 50
258.4125519674
 51
262.2057871943
  0
ARC
  5
150
  8
0
  6
CONTINUOUS
 62
     7
 10
353.2468234164
 20
150.4408444822
 30
0.0
 40
2.69000000000003
 50
167.5813184942
 51
258.4099798932
  0
ARC
  5
151
  8
0
  6
CONTINUOUS
 62
     7
 10
390.6155800493
 20
332.6483526363
 30
0.0
 40
183.3100000000001
 50
262.2069690737
 51
277.7930309263
  0
ARC
  5
152
  8
0
  6
CONTINUOUS
 62
     7
 10
390.6155800493
 20
332.6483526363
 30
0.0
 40
188.6900000000001
 50
262.2069690737
 51
277.7930309263
  0
LINE
  5
153
  8
0
  6
CONTINUOUS
 62
     7
 10
427.3155855806
 20
147.3003402745
 30
0.0
 11
427.3155855806
 21
142.8333953416
 31
0.0
  0
LINE
  5
154
  8
0
  6
CONTINUOUS
 62
     7
 10
427.3155855806
 20
147.3003402745
 30
0.0
 11
428.3155846269
 21
147.3003402745
 31
0.0
  0
LINE
  5
155
  8
0
  6
CONTINUOUS
 62
     7
 10
428.3155846269
 20
147.3003402745
 30
0.0
 11
428.3155846269
 21
142.8333953416
 31
0.0
  0
LINE
  5
156
  8
0
  6
CONTINUOUS
 62
     7
 10
353.9155769021
 20
147.3003402745
 30
0.0
 11
352.9155778558
 21
147.3003402745
 31
0.0
  0
LINE
  5
157
  8
0
  6
CONTINUOUS
 62
     7
 10
352.9155778558
 20
147.3003402745
 30
0.0
 11
352.9155778558
 21
142.8333953416
 31
0.0
  0
LINE
  5
158
  8
0
  6
CONTINUOUS
 62
     7
 10
353.9155769021
 20
147.3003402745
 30
0.0
 11
353.9155769021
 21
142.8333953416
 31
0.0
  0
LINE
  5
159
  8
0
  6
CONTINUOUS
 62
     7
 10
427.3155855806
 20
147.5617900884
 30
0.0
 11
427.3155855806
 21
147.3003402745
 31
0.0
  0
LINE
  5
15A
  8
0
  6
CONTINUOUS
 62
     7
 10
428.3155846269
 20
147.7713182961
 30
0.0
 11
428.3155846269
 21
147.3003402745
 31
0.0
  0
LINE
  5
15B
  8
0
  6
CONTINUOUS
 62
     7
 10
352.9155778558
 20
147.7713182961
 30
0.0
 11
352.9155778558
 21
147.3003402745
 31
0.0
  0
LINE
  5
15C
  8
0
  6
CONTINUOUS
 62
     7
 10
353.9155769021
 20
147.5618139302
 30
0.0
 11
353.9155769021
 21
147.3003402745
 31
0.0
  0
LINE
  5
15D
  8
0
  6
CONTINUOUS
 62
     7
 10
353.7872600229
 20
153.0759945905
 30
0.0
 11
353.7911820085
 21
153.0751899278
 31
0.0
  0
LINE
  5
15E
  8
0
  6
CONTINUOUS
 62
     7
 10
427.4396586091
 20
153.0751243626
 30
0.0
 11
427.4439024598
 21
153.0759945905
 31
0.0
  0
LINE
  5
15F
  8
0
  6
CONTINUOUS
 62
     7
 10
352.9155778558
 20
142.8333953416
 30
0.0
 11
352.9155778558
 21
141.9798568284
 31
0.0
  0
LINE
  5
160
  8
0
  6
CONTINUOUS
 62
     7
 10
353.9155769021
 20
142.8333953416
 30
0.0
 11
353.9155769021
 21
141.9798568284
 31
0.0
  0
LINE
  5
161
  8
0
  6
CONTINUOUS
 62
     7
 10
427.3155855806
 20
142.8333953416
 30
0.0
 11
427.3155855806
 21
141.9798568284
 31
0.0
  0
LINE
  5
162
  8
0
  6
CONTINUOUS
 62
     7
 10
428.3155846269
 20
142.8333953416
 30
0.0
 11
428.3155846269
 21
141.9798568284
 31
0.0
  0
LINE
  5
163
  8
0
  6
CONTINUOUS
 62
     7
 10
352.9155778558
 20
141.9798568284
 30
0.0
 11
352.9155778558
 21
134.1254249608
 31
0.0
  0
LINE
  5
164
  8
0
  6
CONTINUOUS
 62
     7
 10
353.9155769021
 20
141.9798568284
 30
0.0
 11
353.9155769021
 21
134.1254249608
 31
0.0
  0
LINE
  5
165
  8
0
  6
CONTINUOUS
 62
     7
 10
427.3155855806
 20
141.9798568284
 30
0.0
 11
427.3155855806
 21
134.1254249608
 31
0.0
  0
LINE
  5
166
  8
0
  6
CONTINUOUS
 62
     7
 10
428.3155846269
 20
141.9798568284
 30
0.0
 11
428.3155846269
 21
134.1254249608
 31
0.0
  0
LINE
  5
167
  8
0
  6
CONTINUOUS
 62
     7
 10
427.3155855806
 20
134.1254249608
 30
0.0
 11
427.3155855806
 21
133.3603397405
 31
0.0
  0
LINE
  5
168
  8
0
  6
CONTINUOUS
 62
     7
 10
428.3155846269
 20
134.1254249608
 30
0.0
 11
428.3155846269
 21
133.3603397405
 31
0.0
  0
LINE
  5
169
  8
0
  6
CONTINUOUS
 62
     7
 10
352.9155778558
 20
134.1254249608
 30
0.0
 11
352.9155778558
 21
133.3603397405
 31
0.0
  0
LINE
  5
16A
  8
0
  6
CONTINUOUS
 62
     7
 10
353.9155769021
 20
134.1254249608
 30
0.0
 11
353.9155769021
 21
133.3603397405
 31
0.0
  0
LINE
  5
16B
  8
0
  6
CONTINUOUS
 62
     7
 10
427.3155855806
 20
131.3603416478
 30
0.0
 11
428.3155846269
 21
131.3603416478
 31
0.0
  0
LINE
  5
16C
  8
0
  6
CONTINUOUS
 62
     7
 10
427.3155855806
 20
133.3603397405
 30
0.0
 11
427.3155855806
 21
131.3603416478
 31
0.0
  0
LINE
  5
16D
  8
0
  6
CONTINUOUS
 62
     7
 10
428.3155846269
 20
133.3603397405
 30
0.0
 11
428.3155846269
 21
131.3603416478
 31
0.0
  0
LINE
  5
16E
  8
0
  6
CONTINUOUS
 62
     7
 10
353.9155769021
 20
131.3603416478
 30
0.0
 11
352.9155778558
 21
131.3603416478
 31
0.0
  0
LINE
  5
16F
  8
0
  6
CONTINUOUS
 62
     7
 10
352.9155778558
 20
133.3603397405
 30
0.0
 11
352.9155778558
 21
131.3603416478
 31
0.0
  0
LINE
  5
170
  8
0
  6
CONTINUOUS
 62
     7
 10
353.9155769021
 20
133.3603397405
 30
0.0
 11
353.9155769021
 21
131.3603416478
 31
0.0
  0
LINE
  5
171
  8
0
  6
CONTINUOUS
 62
     7
 10
427.3155855806
 20
135.160340408
 30
0.0
 11
423.1155800493
 21
135.160340408
 31
0.0
  0
LINE
  5
172
  8
0
  6
CONTINUOUS
 62
     7
 10
423.1155800493
 20
134.1603413617
 30
0.0
 11
423.1155800493
 21
135.160340408
 31
0.0
  0
LINE
  5
173
  8
0
  6
CONTINUOUS
 62
     7
 10
433.1155705125
 20
127.160342077
 30
0.0
 11
433.1155705125
 21
134.1603413617
 31
0.0
  0
ARC
  5
174
  8
0
  6
CONTINUOUS
 62
     7
 10
431.1155800493
 20
127.1603413617
 30
0.0
 40
2.0
 50
270.0
 51
0.0
  0
LINE
  5
175
  8
0
  6
CONTINUOUS
 62
     7
 10
431.1155724199
 20
125.1603439843
 30
0.0
 11
425.1155781419
 21
125.1603439843
 31
0.0
  0
ARC
  5
176
  8
0
  6
CONTINUOUS
 62
     7
 10
425.1155800493
 20
127.1603413617
 30
0.0
 40
2.0
 50
180.0
 51
270.0
  0
LINE
  5
177
  8
0
  6
CONTINUOUS
 62
     7
 10
423.1155800493
 20
134.1603413617
 30
0.0
 11
423.1155800493
 21
127.160342077
 31
0.0
  0
CIRCLE
  5
178
  8
0
  6
CONTINUOUS
 62
     7
 10
428.1155800493
 20
128.5603413617
 30
0.0
 40
0.9999999999999432
  0
LINE
  5
179
  8
0
  6
CONTINUOUS
 62
     7
 10
348.1155800493
 20
134.1603413617
 30
0.0
 11
348.1155800493
 21
135.160340408
 31
0.0
  0
LINE
  5
17A
  8
0
  6
CONTINUOUS
 62
     7
 10
352.9155778558
 20
135.160340408
 30
0.0
 11
348.1155800493
 21
135.160340408
 31
0.0
  0
LINE
  5
17B
  8
0
  6
CONTINUOUS
 62
     7
 10
433.1155705125
 20
134.1603413617
 30
0.0
 11
433.1155705125
 21
135.160340408
 31
0.0
  0
LINE
  5
17C
  8
0
  6
CONTINUOUS
 62
     7
 10
433.1155705125
 20
135.160340408
 30
0.0
 11
428.3155846269
 21
135.160340408
 31
0.0
  0
LINE
  5
17D
  8
0
  6
CONTINUOUS
 62
     7
 10
358.1155824334
 20
135.160340408
 30
0.0
 11
353.9155769021
 21
135.160340408
 31
0.0
  0
LINE
  5
17E
  8
0
  6
CONTINUOUS
 62
     7
 10
358.1155824334
 20
135.160340408
 30
0.0
 11
358.1155824334
 21
134.1603413617
 31
0.0
  0
LINE
  5
17F
  8
0
  6
CONTINUOUS
 62
     7
 10
356.1155843408
 20
125.1603439843
 30
0.0
 11
350.1155781419
 21
125.1603439843
 31
0.0
  0
ARC
  5
180
  8
0
  6
CONTINUOUS
 62
     7
 10
350.1155800493
 20
127.1603413617
 30
0.0
 40
2.0
 50
180.0
 51
270.0
  0
CIRCLE
  5
181
  8
0
  6
CONTINUOUS
 62
     7
 10
353.1155800493
 20
128.5603413617
 30
0.0
 40
1.0
  0
LINE
  5
182
  8
0
  6
CONTINUOUS
 62
     7
 10
358.1155824334
 20
127.160342077
 30
0.0
 11
358.1155824334
 21
134.1603413617
 31
0.0
  0
LINE
  5
183
  8
0
  6
CONTINUOUS
 62
     7
 10
348.1155800493
 20
127.160342077
 30
0.0
 11
348.1155800493
 21
134.1603413617
 31
0.0
  0
ARC
  5
184
  8
0
  6
CONTINUOUS
 62
     7
 10
356.1155800493
 20
127.1603413617
 30
0.0
 40
2.0
 50
270.0
 51
0.0
  0
ARC
  5
185
  8
0
  6
CONTINUOUS
 62
     7
 10
270.6154050035
 20
332.6493249494
 30
0.0
 40
183.3109878346254
 50
277.7930441774
 51
281.5887865078
  0
ARC
  5
186
  8
0
  6
CONTINUOUS
 62
     7
 10
307.9843366821
 20
150.4408444822
 30
0.0
 40
2.69000000000001
 50
12.4186815058
 51
100.0467259554
  0
ARC
  5
187
  8
0
  6
CONTINUOUS
 62
     7
 10
270.6280239183
 20
332.5755980565
 30
0.0
 40
188.6162308835972
 50
277.7922826888
 51
281.5895067778
  0
ARC
  5
188
  8
0
  6
CONTINUOUS
 62
     7
 10
307.9843366821
 20
150.4408444822
 30
0.0
 40
2.689999999999974
 50
281.5900201068
 51
12.4186815058
  0
ARC
  5
189
  8
0
  6
CONTINUOUS
 62
     7
 10
233.2468234164
 20
150.4408444822
 30
0.0
 40
2.690000000000014
 50
80.0567778886
 51
167.5813184942
  0
ARC
  5
18A
  8
0
  6
CONTINUOUS
 62
     7
 10
270.6350181459
 20
332.762574897
 30
0.0
 40
183.4258036151303
 50
258.4125294448
 51
262.2057915725
  0
ARC
  5
18B
  8
0
  6
CONTINUOUS
 62
     7
 10
270.6348278469
 20
332.7610914656
 30
0.0
 40
188.8043081517327
 50
258.4125086084
 51
262.2058213536
  0
ARC
  5
18C
  8
0
  6
CONTINUOUS
 62
     7
 10
233.2468234164
 20
150.4408444822
 30
0.0
 40
2.690000000000002
 50
167.5813184942
 51
258.4099798932
  0
ARC
  5
18D
  8
0
  6
CONTINUOUS
 62
     7
 10
270.6155800493
 20
332.6483526363
 30
0.0
 40
183.3100000000001
 50
262.2069690737
 51
277.7930309263
  0
ARC
  5
18E
  8
0
  6
CONTINUOUS
 62
     7
 10
270.6155800493
 20
332.6483526363
 30
0.0
 40
188.6900000000001
 50
262.2069690737
 51
277.7930309263
  0
LINE
  5
18F
  8
0
  6
CONTINUOUS
 62
     7
 10
307.3155808122
 20
147.3003402745
 30
0.0
 11
307.3155808122
 21
142.8333953416
 31
0.0
  0
LINE
  5
190
  8
0
  6
CONTINUOUS
 62
     7
 10
307.3155808122
 20
147.3003402745
 30
0.0
 11
308.3155798585
 21
147.3003402745
 31
0.0
  0
LINE
  5
191
  8
0
  6
CONTINUOUS
 62
     7
 10
308.3155798585
 20
147.3003402745
 30
0.0
 11
308.3155798585
 21
142.8333953416
 31
0.0
  0
LINE
  5
192
  8
0
  6
CONTINUOUS
 62
     7
 10
233.9155795843
 20
147.3003402745
 30
0.0
 11
232.915580538
 21
147.3003402745
 31
0.0
  0
LINE
  5
193
  8
0
  6
CONTINUOUS
 62
     7
 10
232.915580538
 20
147.3003402745
 30
0.0
 11
232.915580538
 21
142.8333953416
 31
0.0
  0
LINE
  5
194
  8
0
  6
CONTINUOUS
 62
     7
 10
233.9155795843
 20
147.3003402745
 30
0.0
 11
233.9155795843
 21
142.8333953416
 31
0.0
  0
LINE
  5
195
  8
0
  6
CONTINUOUS
 62
     7
 10
307.3155808122
 20
147.5617900884
 30
0.0
 11
307.3155808122
 21
147.3003402745
 31
0.0
  0
LINE
  5
196
  8
0
  6
CONTINUOUS
 62
     7
 10
308.3155798585
 20
147.7713182961
 30
0.0
 11
308.3155798585
 21
147.3003402745
 31
0.0
  0
LINE
  5
197
  8
0
  6
CONTINUOUS
 62
     7
 10
232.915580538
 20
147.7713182961
 30
0.0
 11
232.915580538
 21
147.3003402745
 31
0.0
  0
LINE
  5
198
  8
0
  6
CONTINUOUS
 62
     7
 10
233.9155795843
 20
147.5618139302
 30
0.0
 11
233.9155795843
 21
147.3003402745
 31
0.0
  0
LINE
  5
199
  8
0
  6
CONTINUOUS
 62
     7
 10
233.7872641952
 20
153.0759945905
 30
0.0
 11
233.7911861808
 21
153.0751899278
 31
0.0
  0
LINE
  5
19A
  8
0
  6
CONTINUOUS
 62
     7
 10
307.4396657617
 20
153.0751243626
 30
0.0
 11
307.4438976915
 21
153.0759945905
 31
0.0
  0
LINE
  5
19B
  8
0
  6
CONTINUOUS
 62
     7
 10
232.915580538
 20
142.8333953416
 30
0.0
 11
232.915580538
 21
141.9798568284
 31
0.0
  0
LINE
  5
19C
  8
0
  6
CONTINUOUS
 62
     7
 10
233.9155795843
 20
142.8333953416
 30
0.0
 11
233.9155795843
 21
141.9798568284
 31
0.0
  0
LINE
  5
19D
  8
0
  6
CONTINUOUS
 62
     7
 10
307.3155808122
 20
142.8333953416
 30
0.0
 11
307.3155808122
 21
141.9798568284
 31
0.0
  0
LINE
  5
19E
  8
0
  6
CONTINUOUS
 62
     7
 10
308.3155798585
 20
142.8333953416
 30
0.0
 11
308.3155798585
 21
141.9798568284
 31
0.0
  0
LINE
  5
19F
  8
0
  6
CONTINUOUS
 62
     7
 10
307.3155808122
 20
141.9798568284
 30
0.0
 11
307.3155808122
 21
134.1254249608
 31
0.0
  0
LINE
  5
1A0
  8
0
  6
CONTINUOUS
 62
     7
 10
308.3155798585
 20
141.9798568284
 30
0.0
 11
308.3155798585
 21
134.1254249608
 31
0.0
  0
LINE
  5
1A1
  8
0
  6
CONTINUOUS
 62
     7
 10
232.915580538
 20
141.9798568284
 30
0.0
 11
232.915580538
 21
134.1254249608
 31
0.0
  0
LINE
  5
1A2
  8
0
  6
CONTINUOUS
 62
     7
 10
233.9155795843
 20
141.9798568284
 30
0.0
 11
233.9155795843
 21
134.1254249608
 31
0.0
  0
LINE
  5
1A3
  8
0
  6
CONTINUOUS
 62
     7
 10
307.3155808122
 20
134.1254249608
 30
0.0
 11
307.3155808122
 21
133.3603397405
 31
0.0
  0
LINE
  5
1A4
  8
0
  6
CONTINUOUS
 62
     7
 10
308.3155798585
 20
134.1254249608
 30
0.0
 11
308.3155798585
 21
133.3603397405
 31
0.0
  0
LINE
  5
1A5
  8
0
  6
CONTINUOUS
 62
     7
 10
232.915580538
 20
134.1254249608
 30
0.0
 11
232.915580538
 21
133.3603397405
 31
0.0
  0
LINE
  5
1A6
  8
0
  6
CONTINUOUS
 62
     7
 10
233.9155795843
 20
134.1254249608
 30
0.0
 11
233.9155795843
 21
133.3603397405
 31
0.0
  0
LINE
  5
1A7
  8
0
  6
CONTINUOUS
 62
     7
 10
307.3155808122
 20
131.3603416478
 30
0.0
 11
308.3155798585
 21
131.3603416478
 31
0.0
  0
LINE
  5
1A8
  8
0
  6
CONTINUOUS
 62
     7
 10
307.3155808122
 20
133.3603397405
 30
0.0
 11
307.3155808122
 21
131.3603416478
 31
0.0
  0
LINE
  5
1A9
  8
0
  6
CONTINUOUS
 62
     7
 10
308.3155798585
 20
133.3603397405
 30
0.0
 11
308.3155798585
 21
131.3603416478
 31
0.0
  0
LINE
  5
1AA
  8
0
  6
CONTINUOUS
 62
     7
 10
233.9155795843
 20
131.3603416478
 30
0.0
 11
232.915580538
 21
131.3603416478
 31
0.0
  0
LINE
  5
1AB
  8
0
  6
CONTINUOUS
 62
     7
 10
232.915580538
 20
133.3603397405
 30
0.0
 11
232.915580538
 21
131.3603416478
 31
0.0
  0
LINE
  5
1AC
  8
0
  6
CONTINUOUS
 62
     7
 10
233.9155795843
 20
133.3603397405
 30
0.0
 11
233.9155795843
 21
131.3603416478
 31
0.0
  0
LINE
  5
1AD
  8
0
  6
CONTINUOUS
 62
     7
 10
238.1155806453
 20
135.160340408
 30
0.0
 11
233.9155795843
 21
135.160340408
 31
0.0
  0
LINE
  5
1AE
  8
0
  6
CONTINUOUS
 62
     7
 10
238.1155806453
 20
135.160340408
 30
0.0
 11
238.1155806453
 21
134.1603413617
 31
0.0
  0
LINE
  5
1AF
  8
0
  6
CONTINUOUS
 62
     7
 10
228.1155797512
 20
134.1603413617
 30
0.0
 11
228.1155797512
 21
135.160340408
 31
0.0
  0
LINE
  5
1B0
  8
0
  6
CONTINUOUS
 62
     7
 10
232.915580538
 20
135.160340408
 30
0.0
 11
228.1155797512
 21
135.160340408
 31
0.0
  0
LINE
  5
1B1
  8
0
  6
CONTINUOUS
 62
     7
 10
311.1155795724
 20
125.1603439843
 30
0.0
 11
305.115579334
 21
125.1603439843
 31
0.0
  0
ARC
  5
1B2
  8
0
  6
CONTINUOUS
 62
     7
 10
305.1155800493
 20
127.1603413617
 30
0.0
 40
2.0
 50
180.0
 51
270.0
  0
CIRCLE
  5
1B3
  8
0
  6
CONTINUOUS
 62
     7
 10
308.1155800493
 20
128.5603413617
 30
0.0
 40
1.000000000000057
  0
LINE
  5
1B4
  8
0
  6
CONTINUOUS
 62
     7
 10
313.1155776651
 20
127.160342077
 30
0.0
 11
313.1155776651
 21
134.1603413617
 31
0.0
  0
LINE
  5
1B5
  8
0
  6
CONTINUOUS
 62
     7
 10
303.1155812414
 20
134.1603413617
 30
0.0
 11
303.1155812414
 21
127.160342077
 31
0.0
  0
ARC
  5
1B6
  8
0
  6
CONTINUOUS
 62
     7
 10
311.1155800493
 20
127.1603413617
 30
0.0
 40
2.0
 50
270.0
 51
0.0
  0
LINE
  5
1B7
  8
0
  6
CONTINUOUS
 62
     7
 10
238.1155806453
 20
127.160342077
 30
0.0
 11
238.1155806453
 21
134.1603413617
 31
0.0
  0
ARC
  5
1B8
  8
0
  6
CONTINUOUS
 62
     7
 10
236.1155800493
 20
127.1603413617
 30
0.0
 40
2.0
 50
270.0
 51
0.0
  0
LINE
  5
1B9
  8
0
  6
CONTINUOUS
 62
     7
 10
236.1155795724
 20
125.1603439843
 30
0.0
 11
230.115579334
 21
125.1603439843
 31
0.0
  0
ARC
  5
1BA
  8
0
  6
CONTINUOUS
 62
     7
 10
230.1155800493
 20
127.1603413617
 30
0.0
 40
2.0
 50
180.0
 51
270.0
  0
LINE
  5
1BB
  8
0
  6
CONTINUOUS
 62
     7
 10
228.1155797512
 20
127.160342077
 30
0.0
 11
228.1155797512
 21
134.1603413617
 31
0.0
  0
CIRCLE
  5
1BC
  8
0
  6
CONTINUOUS
 62
     7
 10
233.1155800493
 20
128.5603413617
 30
0.0
 40
1.0
  0
LINE
  5
1BD
  8
0
  6
CONTINUOUS
 62
     7
 10
307.3155808122
 20
135.160340408
 30
0.0
 11
303.1155812414
 21
135.160340408
 31
0.0
  0
LINE
  5
1BE
  8
0
  6
CONTINUOUS
 62
     7
 10
303.1155812414
 20
134.1603413617
 30
0.0
 11
303.1155812414
 21
135.160340408
 31
0.0
  0
LINE
  5
1BF
  8
0
  6
CONTINUOUS
 62
     7
 10
313.1155776651
 20
135.160340408
 30
0.0
 11
308.3155798585
 21
135.160340408
 31
0.0
  0
LINE
  5
1C0
  8
0
  6
CONTINUOUS
 62
     7
 10
313.1155776651
 20
134.1603413617
 30
0.0
 11
313.1155776651
 21
135.160340408
 31
0.0
  0
ARC
  5
1C1
  8
0
  6
CONTINUOUS
 62
     7
 10
150.6155121417
 20
332.6486870954
 30
0.0
 40
183.3103411017729
 50
277.7930374791
 51
281.5887932061
  0
ARC
  5
1C2
  8
0
  6
CONTINUOUS
 62
     7
 10
187.9843366821
 20
150.4408444822
 30
0.0
 40
2.690000000000015
 50
12.4186815058
 51
100.0467259554
  0
ARC
  5
1C3
  8
0
  6
CONTINUOUS
 62
     7
 10
150.6285747294
 20
332.5723621215
 30
0.0
 40
188.6129499063503
 50
277.7922496498
 51
281.5895398168
  0
ARC
  5
1C4
  8
0
  6
CONTINUOUS
 62
     7
 10
187.9843366821
 20
150.4408444822
 30
0.0
 40
2.690000000000002
 50
281.5900201068
 51
12.4186815058
  0
ARC
  5
1C5
  8
0
  6
CONTINUOUS
 62
     7
 10
113.2468234164
 20
150.4408444822
 30
0.0
 40
2.690000000000019
 50
80.0567778886
 51
167.5813184942
  0
ARC
  5
1C6
  8
0
  6
CONTINUOUS
 62
     7
 10
150.6356804074
 20
332.7664903533
 30
0.0
 40
183.4297729540963
 50
258.4125714562
 51
262.2057519284
  0
ARC
  5
1C7
  8
0
  6
CONTINUOUS
 62
     7
 10
150.6350353348
 20
332.7623169614
 30
0.0
 40
188.8055507068908
 50
258.4125210951
 51
262.2058088669
  0
ARC
  5
1C8
  8
0
  6
CONTINUOUS
 62
     7
 10
113.2468234164
 20
150.4408444822
 30
0.0
 40
2.690000000000002
 50
167.5813184942
 51
258.4099798932
  0
ARC
  5
1C9
  8
0
  6
CONTINUOUS
 62
     7
 10
150.6155800493
 20
332.6483526363
 30
0.0
 40
183.3100000000001
 50
262.2069690737
 51
277.7930309263
  0
ARC
  5
1CA
  8
0
  6
CONTINUOUS
 62
     7
 10
150.6155800493
 20
332.6483526363
 30
0.0
 40
188.6900000000001
 50
262.2069690737
 51
277.7930309263
  0
LINE
  5
1CB
  8
0
  6
CONTINUOUS
 62
     7
 10
113.9155792863
 20
147.3003402745
 30
0.0
 11
112.91558024
 21
147.3003402745
 31
0.0
  0
LINE
  5
1CC
  8
0
  6
CONTINUOUS
 62
     7
 10
112.91558024
 20
147.3003402745
 30
0.0
 11
112.91558024
 21
142.8333953416
 31
0.0
  0
LINE
  5
1CD
  8
0
  6
CONTINUOUS
 62
     7
 10
113.9155792863
 20
147.3003402745
 30
0.0
 11
113.9155792863
 21
142.8333953416
 31
0.0
  0
LINE
  5
1CE
  8
0
  6
CONTINUOUS
 62
     7
 10
187.3155805142
 20
147.3003402745
 30
0.0
 11
187.3155805142
 21
142.8333953416
 31
0.0
  0
LINE
  5
1CF
  8
0
  6
CONTINUOUS
 62
     7
 10
187.3155805142
 20
147.3003402745
 30
0.0
 11
188.3155795605
 21
147.3003402745
 31
0.0
  0
LINE
  5
1D0
  8
0
  6
CONTINUOUS
 62
     7
 10
188.3155795605
 20
147.3003402745
 30
0.0
 11
188.3155795605
 21
142.8333953416
 31
0.0
  0
LINE
  5
1D1
  8
0
  6
CONTINUOUS
 62
     7
 10
187.3155805142
 20
147.5617900884
 30
0.0
 11
187.3155805142
 21
147.3003402745
 31
0.0
  0
LINE
  5
1D2
  8
0
  6
CONTINUOUS
 62
     7
 10
188.3155795605
 20
147.7713182961
 30
0.0
 11
188.3155795605
 21
147.3003402745
 31
0.0
  0
LINE
  5
1D3
  8
0
  6
CONTINUOUS
 62
     7
 10
112.91558024
 20
147.7713182961
 30
0.0
 11
112.91558024
 21
147.3003402745
 31
0.0
  0
LINE
  5
1D4
  8
0
  6
CONTINUOUS
 62
     7
 10
113.9155792863
 20
147.5618139302
 30
0.0
 11
113.9155792863
 21
147.3003402745
 31
0.0
  0
LINE
  5
1D5
  8
0
  6
CONTINUOUS
 62
     7
 10
113.787262407
 20
153.0759945905
 30
0.0
 11
113.7911843927
 21
153.0751899278
 31
0.0
  0
LINE
  5
1D6
  8
0
  6
CONTINUOUS
 62
     7
 10
187.4396624834
 20
153.0751243626
 30
0.0
 11
187.4438959033
 21
153.0759945905
 31
0.0
  0
LINE
  5
1D7
  8
0
  6
CONTINUOUS
 62
     7
 10
112.91558024
 20
142.8333953416
 30
0.0
 11
112.91558024
 21
141.9798568284
 31
0.0
  0
LINE
  5
1D8
  8
0
  6
CONTINUOUS
 62
     7
 10
113.9155792863
 20
142.8333953416
 30
0.0
 11
113.9155792863
 21
141.9798568284
 31
0.0
  0
LINE
  5
1D9
  8
0
  6
CONTINUOUS
 62
     7
 10
187.3155805142
 20
142.8333953416
 30
0.0
 11
187.3155805142
 21
141.9798568284
 31
0.0
  0
LINE
  5
1DA
  8
0
  6
CONTINUOUS
 62
     7
 10
188.3155795605
 20
142.8333953416
 30
0.0
 11
188.3155795605
 21
141.9798568284
 31
0.0
  0
LINE
  5
1DB
  8
0
  6
CONTINUOUS
 62
     7
 10
112.91558024
 20
141.9798568284
 30
0.0
 11
112.91558024
 21
134.1254249608
 31
0.0
  0
LINE
  5
1DC
  8
0
  6
CONTINUOUS
 62
     7
 10
113.9155792863
 20
141.9798568284
 30
0.0
 11
113.9155792863
 21
134.1254249608
 31
0.0
  0
LINE
  5
1DD
  8
0
  6
CONTINUOUS
 62
     7
 10
187.3155805142
 20
141.9798568284
 30
0.0
 11
187.3155805142
 21
134.1254249608
 31
0.0
  0
LINE
  5
1DE
  8
0
  6
CONTINUOUS
 62
     7
 10
188.3155795605
 20
141.9798568284
 30
0.0
 11
188.3155795605
 21
134.1254249608
 31
0.0
  0
LINE
  5
1DF
  8
0
  6
CONTINUOUS
 62
     7
 10
187.3155805142
 20
134.1254249608
 30
0.0
 11
187.3155805142
 21
133.3603397405
 31
0.0
  0
LINE
  5
1E0
  8
0
  6
CONTINUOUS
 62
     7
 10
188.3155795605
 20
134.1254249608
 30
0.0
 11
188.3155795605
 21
133.3603397405
 31
0.0
  0
LINE
  5
1E1
  8
0
  6
CONTINUOUS
 62
     7
 10
112.91558024
 20
134.1254249608
 30
0.0
 11
112.91558024
 21
133.3603397405
 31
0.0
  0
LINE
  5
1E2
  8
0
  6
CONTINUOUS
 62
     7
 10
113.9155792863
 20
134.1254249608
 30
0.0
 11
113.9155792863
 21
133.3603397405
 31
0.0
  0
LINE
  5
1E3
  8
0
  6
CONTINUOUS
 62
     7
 10
187.3155805142
 20
131.3603416478
 30
0.0
 11
188.3155795605
 21
131.3603416478
 31
0.0
  0
LINE
  5
1E4
  8
0
  6
CONTINUOUS
 62
     7
 10
187.3155805142
 20
133.3603397405
 30
0.0
 11
187.3155805142
 21
131.3603416478
 31
0.0
  0
LINE
  5
1E5
  8
0
  6
CONTINUOUS
 62
     7
 10
188.3155795605
 20
133.3603397405
 30
0.0
 11
188.3155795605
 21
131.3603416478
 31
0.0
  0
LINE
  5
1E6
  8
0
  6
CONTINUOUS
 62
     7
 10
113.9155792863
 20
131.3603416478
 30
0.0
 11
112.91558024
 21
131.3603416478
 31
0.0
  0
LINE
  5
1E7
  8
0
  6
CONTINUOUS
 62
     7
 10
112.91558024
 20
133.3603397405
 30
0.0
 11
112.91558024
 21
131.3603416478
 31
0.0
  0
LINE
  5
1E8
  8
0
  6
CONTINUOUS
 62
     7
 10
113.9155792863
 20
133.3603397405
 30
0.0
 11
113.9155792863
 21
131.3603416478
 31
0.0
  0
LINE
  5
1E9
  8
0
  6
CONTINUOUS
 62
     7
 10
108.1155824334
 20
134.1603413617
 30
0.0
 11
108.1155824334
 21
135.160340408
 31
0.0
  0
LINE
  5
1EA
  8
0
  6
CONTINUOUS
 62
     7
 10
112.91558024
 20
135.160340408
 30
0.0
 11
108.1155824334
 21
135.160340408
 31
0.0
  0
LINE
  5
1EB
  8
0
  6
CONTINUOUS
 62
     7
 10
193.1155803473
 20
127.160342077
 30
0.0
 11
193.1155803473
 21
134.1603413617
 31
0.0
  0
ARC
  5
1EC
  8
0
  6
CONTINUOUS
 62
     7
 10
191.1155800493
 20
127.1603413617
 30
0.0
 40
2.0
 50
270.0
 51
0.0
  0
ARC
  5
1ED
  8
0
  6
CONTINUOUS
 62
     7
 10
185.1155800493
 20
127.1603413617
 30
0.0
 40
2.0
 50
180.0
 51
270.0
  0
CIRCLE
  5
1EE
  8
0
  6
CONTINUOUS
 62
     7
 10
188.1155800493
 20
128.5603413617
 30
0.0
 40
1.000000000000028
  0
LINE
  5
1EF
  8
0
  6
CONTINUOUS
 62
     7
 10
183.1155794532
 20
134.1603413617
 30
0.0
 11
183.1155794532
 21
127.160342077
 31
0.0
  0
LINE
  5
1F0
  8
0
  6
CONTINUOUS
 62
     7
 10
191.1155807645
 20
125.1603439843
 30
0.0
 11
185.1155805261
 21
125.1603439843
 31
0.0
  0
LINE
  5
1F1
  8
0
  6
CONTINUOUS
 62
     7
 10
187.3155805142
 20
135.160340408
 30
0.0
 11
183.1155794532
 21
135.160340408
 31
0.0
  0
LINE
  5
1F2
  8
0
  6
CONTINUOUS
 62
     7
 10
183.1155794532
 20
134.1603413617
 30
0.0
 11
183.1155794532
 21
135.160340408
 31
0.0
  0
ARC
  5
1F3
  8
0
  6
CONTINUOUS
 62
     7
 10
116.1155800493
 20
127.1603413617
 30
0.0
 40
2.0
 50
270.0
 51
0.0
  0
LINE
  5
1F4
  8
0
  6
CONTINUOUS
 62
     7
 10
116.1155807645
 20
125.1603439843
 30
0.0
 11
110.1155805261
 21
125.1603439843
 31
0.0
  0
ARC
  5
1F5
  8
0
  6
CONTINUOUS
 62
     7
 10
110.1155800493
 20
127.1603413617
 30
0.0
 40
2.0
 50
180.0
 51
270.0
  0
LINE
  5
1F6
  8
0
  6
CONTINUOUS
 62
     7
 10
108.1155824334
 20
127.160342077
 30
0.0
 11
108.1155824334
 21
134.1603413617
 31
0.0
  0
LINE
  5
1F7
  8
0
  6
CONTINUOUS
 62
     7
 10
118.1155788572
 20
127.160342077
 30
0.0
 11
118.1155788572
 21
134.1603413617
 31
0.0
  0
CIRCLE
  5
1F8
  8
0
  6
CONTINUOUS
 62
     7
 10
113.1155800493
 20
128.5603413617
 30
0.0
 40
1.0
  0
LINE
  5
1F9
  8
0
  6
CONTINUOUS
 62
     7
 10
193.1155803473
 20
135.160340408
 30
0.0
 11
188.3155795605
 21
135.160340408
 31
0.0
  0
LINE
  5
1FA
  8
0
  6
CONTINUOUS
 62
     7
 10
193.1155803473
 20
134.1603413617
 30
0.0
 11
193.1155803473
 21
135.160340408
 31
0.0
  0
LINE
  5
1FB
  8
0
  6
CONTINUOUS
 62
     7
 10
118.1155788572
 20
135.160340408
 30
0.0
 11
113.9155792863
 21
135.160340408
 31
0.0
  0
LINE
  5
1FC
  8
0
  6
CONTINUOUS
 62
     7
 10
118.1155788572
 20
135.160340408
 30
0.0
 11
118.1155788572
 21
134.1603413617
 31
0.0
  0
LINE
  5
1FD
  8
0
  6
CONTINUOUS
 62
     7
 10
27.2012996347
 20
59.1603413617
 30
0.0
 11
23.442654577
 21
59.1603413617
 31
0.0
  0
LINE
  5
1FE
  8
0
  6
CONTINUOUS
 62
     7
 10
23.442654577
 20
60.3603413721
 30
0.0
 11
27.2012996347
 21
60.3603413721
 31
0.0
  0
LINE
  5
1FF
  8
0
  6
CONTINUOUS
 62
     7
 10
37.7885150583
 20
59.1603413617
 30
0.0
 11
34.0298700006
 21
59.1603413617
 31
0.0
  0
LINE
  5
200
  8
0
  6
CONTINUOUS
 62
     7
 10
34.0298700006
 20
60.3603413721
 30
0.0
 11
37.7885150583
 21
60.3603413721
 31
0.0
  0
LINE
  5
201
  8
0
  6
CONTINUOUS
 62
     7
 10
27.2012996347
 20
59.1603413617
 30
0.0
 11
34.0298700006
 21
59.1603413617
 31
0.0
  0
LINE
  5
202
  8
0
  6
CONTINUOUS
 62
     7
 10
27.2012996347
 20
60.3603413721
 30
0.0
 11
34.0298700006
 21
60.3603413721
 31
0.0
  0
LINE
  5
203
  8
0
  6
CONTINUOUS
 62
     7
 10
383.4426450403
 20
60.3603413721
 30
0.0
 11
387.2012900979
 21
60.3603413721
 31
0.0
  0
LINE
  5
204
  8
0
  6
CONTINUOUS
 62
     7
 10
387.2012900979
 20
59.1603413617
 30
0.0
 11
383.4426450403
 21
59.1603413617
 31
0.0
  0
LINE
  5
205
  8
0
  6
CONTINUOUS
 62
     7
 10
387.2012900979
 20
60.3603413721
 30
0.0
 11
394.0298604638
 21
60.3603413721
 31
0.0
  0
LINE
  5
206
  8
0
  6
CONTINUOUS
 62
     7
 10
387.2012900979
 20
59.1603413617
 30
0.0
 11
394.0298604638
 21
59.1603413617
 31
0.0
  0
LINE
  5
207
  8
0
  6
CONTINUOUS
 62
     7
 10
394.0298604638
 20
60.3603413721
 30
0.0
 11
397.7885055215
 21
60.3603413721
 31
0.0
  0
LINE
  5
208
  8
0
  6
CONTINUOUS
 62
     7
 10
397.7885055215
 20
59.1603413617
 30
0.0
 11
394.0298604638
 21
59.1603413617
 31
0.0
  0
LINE
  5
209
  8
0
  6
CONTINUOUS
 62
     7
 10
18.6155843408
 20
59.1603413617
 30
0.0
 11
18.6155843408
 21
60.3603413721
 31
0.0
  0
LINE
  5
20A
  8
0
  6
CONTINUOUS
 62
     7
 10
18.6155843408
 20
59.1603413617
 30
0.0
 11
23.442654577
 21
59.1603413617
 31
0.0
  0
LINE
  5
20B
  8
0
  6
CONTINUOUS
 62
     7
 10
23.442654577
 20
60.3603413721
 30
0.0
 11
18.6155843408
 21
60.3603413721
 31
0.0
  0
LINE
  5
20C
  8
0
  6
CONTINUOUS
 62
     7
 10
42.6155852945
 20
59.1603413617
 30
0.0
 11
42.6155852945
 21
60.3603413721
 31
0.0
  0
LINE
  5
20D
  8
0
  6
CONTINUOUS
 62
     7
 10
37.7885150583
 20
59.1603413617
 30
0.0
 11
42.6155852945
 21
59.1603413617
 31
0.0
  0
LINE
  5
20E
  8
0
  6
CONTINUOUS
 62
     7
 10
42.6155852945
 20
60.3603413721
 30
0.0
 11
37.7885150583
 21
60.3603413721
 31
0.0
  0
LINE
  5
20F
  8
0
  6
CONTINUOUS
 62
     7
 10
378.6155748041
 20
59.1603413617
 30
0.0
 11
378.6155748041
 21
60.3603413721
 31
0.0
  0
LINE
  5
210
  8
0
  6
CONTINUOUS
 62
     7
 10
383.4426450403
 20
60.3603413721
 30
0.0
 11
378.6155748041
 21
60.3603413721
 31
0.0
  0
LINE
  5
211
  8
0
  6
CONTINUOUS
 62
     7
 10
378.6155748041
 20
59.1603413617
 30
0.0
 11
383.4426450403
 21
59.1603413617
 31
0.0
  0
LINE
  5
212
  8
0
  6
CONTINUOUS
 62
     7
 10
402.6155757577
 20
59.1603413617
 30
0.0
 11
402.6155757577
 21
60.3603413721
 31
0.0
  0
LINE
  5
213
  8
0
  6
CONTINUOUS
 62
     7
 10
402.6155757577
 20
60.3603413721
 30
0.0
 11
397.7885055215
 21
60.3603413721
 31
0.0
  0
LINE
  5
214
  8
0
  6
CONTINUOUS
 62
     7
 10
397.7885055215
 20
59.1603413617
 30
0.0
 11
402.6155757577
 21
59.1603413617
 31
0.0
  0
LINE
  5
215
  8
0
  6
CONTINUOUS
 62
     7
 10
14.5385431917
 20
124.3603423631
 30
0.0
 11
-12.5844312041
 21
124.3603423631
 31
0.0
  0
LINE
  5
216
  8
0
  6
CONTINUOUS
 62
     7
 10
434.2155861528
 20
125.3603414094
 30
0.0
 11
434.2155861528
 21
124.7603431737
 31
0.0
  0
ARC
  5
217
  8
0
  6
CONTINUOUS
 62
     7
 10
433.8155800493
 20
124.7603413617
 30
0.0
 40
0.4000000000000057
 50
270.0
 51
0.0
  0
LINE
  5
218
  8
0
  6
CONTINUOUS
 62
     7
 10
-12.5844312041
 20
134.3603387868
 30
0.0
 11
-11.884410414
 21
134.3603387868
 31
0.0
  0
LINE
  5
219
  8
0
  6
CONTINUOUS
 62
     7
 10
-1.8844199507
 20
134.3603387868
 30
0.0
 11
12.6155781419
 21
134.3603387868
 31
0.0
  0
LINE
  5
21A
  8
0
  6
CONTINUOUS
 62
     7
 10
48.6155795724
 20
134.3603387868
 30
0.0
 11
63.1155776651
 21
134.3603387868
 31
0.0
  0
LINE
  5
21B
  8
0
  6
CONTINUOUS
 62
     7
 10
73.1155800493
 20
134.3603387868
 30
0.0
 11
108.1155824334
 21
134.3603387868
 31
0.0
  0
LINE
  5
21C
  8
0
  6
CONTINUOUS
 62
     7
 10
118.1155788572
 20
134.3603387868
 30
0.0
 11
132.6155829103
 21
134.3603387868
 31
0.0
  0
LINE
  5
21D
  8
0
  6
CONTINUOUS
 62
     7
 10
168.6155813606
 20
134.3603387868
 30
0.0
 11
183.1155794532
 21
134.3603387868
 31
0.0
  0
LINE
  5
21E
  8
0
  6
CONTINUOUS
 62
     7
 10
193.1155803473
 20
134.3603387868
 30
0.0
 11
228.1155797512
 21
134.3603387868
 31
0.0
  0
LINE
  5
21F
  8
0
  6
CONTINUOUS
 62
     7
 10
238.1155806453
 20
134.3603387868
 30
0.0
 11
252.615578738
 21
134.3603387868
 31
0.0
  0
LINE
  5
220
  8
0
  6
CONTINUOUS
 62
     7
 10
288.6155771882
 20
134.3603387868
 30
0.0
 11
303.1155812414
 21
134.3603387868
 31
0.0
  0
LINE
  5
221
  8
0
  6
CONTINUOUS
 62
     7
 10
313.1155776651
 20
134.3603387868
 30
0.0
 11
348.1155800493
 21
134.3603387868
 31
0.0
  0
LINE
  5
222
  8
0
  6
CONTINUOUS
 62
     7
 10
358.1155824334
 20
134.3603387868
 30
0.0
 11
372.6155805261
 21
134.3603387868
 31
0.0
  0
LINE
  5
223
  8
0
  6
CONTINUOUS
 62
     7
 10
408.6155819566
 20
134.3603387868
 30
0.0
 11
423.1155800493
 21
134.3603387868
 31
0.0
  0
LINE
  5
224
  8
0
  6
CONTINUOUS
 62
     7
 10
433.1155705125
 20
134.3603387868
 30
0.0
 11
433.8155913026
 21
134.3603387868
 31
0.0
  0
LINE
  5
225
  8
0
  6
CONTINUOUS
 62
     7
 10
-12.9844260543
 20
133.3603397405
 30
0.0
 11
-12.9844260543
 21
133.9603439366
 31
0.0
  0
ARC
  5
226
  8
0
  6
CONTINUOUS
 62
     7
 10
-12.5844199507
 20
133.9603413617
 30
0.0
 40
0.4000000000000341
 50
90.0
 51
180.0
  0
LINE
  5
227
  8
0
  6
CONTINUOUS
 62
     7
 10
395.6155824334
 20
124.1603389775
 30
0.0
 11
395.6155824334
 21
60.3603413721
 31
0.0
  0
LINE
  5
228
  8
0
  6
CONTINUOUS
 62
     7
 10
35.6155800493
 20
124.1603389775
 30
0.0
 11
35.6155800493
 21
60.3603413721
 31
0.0
  0
LINE
  5
229
  8
0
  6
CONTINUOUS
 62
     7
 10
433.8155913026
 20
124.3603423631
 30
0.0
 11
406.6926169069
 21
124.3603423631
 31
0.0
  0
LINE
  5
22A
  8
0
  6
CONTINUOUS
 62
     7
 10
374.5385455758
 20
124.3603423631
 30
0.0
 11
286.6926121385
 21
124.3603423631
 31
0.0
  0
LINE
  5
22B
  8
0
  6
CONTINUOUS
 62
     7
 10
254.5385467679
 20
124.3603423631
 30
0.0
 11
166.6926133306
 21
124.3603423631
 31
0.0
  0
LINE
  5
22C
  8
0
  6
CONTINUOUS
 62
     7
 10
134.53854796
 20
124.3603423631
 30
0.0
 11
46.6926145227
 21
124.3603423631
 31
0.0
  0
LINE
  5
22D
  8
0
  6
CONTINUOUS
 62
     7
 10
385.6155800493
 20
60.3603413721
 30
0.0
 11
385.6155800493
 21
124.1603389775
 31
0.0
  0
LINE
  5
22E
  8
0
  6
CONTINUOUS
 62
     7
 10
434.2155861528
 20
133.3603397405
 30
0.0
 11
434.2155861528
 21
125.3603414094
 31
0.0
  0
LINE
  5
22F
  8
0
  6
CONTINUOUS
 62
     7
 10
-12.9844260543
 20
125.3603414094
 30
0.0
 11
-12.9844260543
 21
133.3603397405
 31
0.0
  0
LINE
  5
230
  8
0
  6
CONTINUOUS
 62
     7
 10
-12.9844260543
 20
124.7603431737
 30
0.0
 11
-12.9844260543
 21
125.3603414094
 31
0.0
  0
ARC
  5
231
  8
0
  6
CONTINUOUS
 62
     7
 10
-12.5844199507
 20
124.7603413617
 30
0.0
 40
0.4000000000000057
 50
180.0
 51
270.0
  0
ARC
  5
232
  8
0
  6
CONTINUOUS
 62
     7
 10
433.8155800493
 20
133.9603413617
 30
0.0
 40
0.4000000000000341
 50
0.0
 51
90.0
  0
LINE
  5
233
  8
0
  6
CONTINUOUS
 62
     7
 10
434.2155861528
 20
133.9603439366
 30
0.0
 11
434.2155861528
 21
133.3603397405
 31
0.0
  0
LINE
  5
234
  8
0
  6
CONTINUOUS
 62
     7
 10
25.6155776651
 20
60.3603413721
 30
0.0
 11
25.6155776651
 21
124.1603389775
 31
0.0
  0
POLYLINE
  5
235
  8
0
  6
CONTINUOUS
 62
     7
 66
     1
 10
0.0
 20
0.0
 30
0.0
  0
VERTEX
  5
5FB
  8
0
  6
CONTINUOUS
 62
     7
 10
5.0328182847
 20
-52.2030541324
 30
0.0
  0
VERTEX
  5
5FC
  8
0
  6
CONTINUOUS
 62
     7
 10
4.2367148073
 20
-52.3150289082
 30
0.0
  0
VERTEX
  5
5FD
  8
0
  6
CONTINUOUS
 62
     7
 10
3.3300327928
 20
-52.454825642
 30
0.0
  0
VERTEX
  5
5FE
  8
0
  6
CONTINUOUS
 62
     7
 10
2.4327921541
 20
-52.605609002
 30
0.0
  0
VERTEX
  5
5FF
  8
0
  6
CONTINUOUS
 62
     7
 10
1.5496182115
 20
-52.7667248272
 30
0.0
  0
VERTEX
  5
600
  8
0
  6
CONTINUOUS
 62
     7
 10
0.6951021821
 20
-52.9349827789
 30
0.0
  0
VERTEX
  5
601
  8
0
  6
CONTINUOUS
 62
     7
 10
-0.143845114
 20
-53.1122648739
 30
0.0
  0
VERTEX
  5
602
  8
0
  6
CONTINUOUS
 62
     7
 10
-0.9659123748
 20
-53.2981121563
 30
0.0
  0
VERTEX
  5
603
  8
0
  6
CONTINUOUS
 62
     7
 10
-1.7650199263
 20
-53.4910672926
 30
0.0
  0
VERTEX
  5
604
  8
0
  6
CONTINUOUS
 62
     7
 10
-2.5353026717
 20
-53.6896729492
 30
0.0
  0
VERTEX
  5
605
  8
0
  6
CONTINUOUS
 62
     7
 10
-3.2715154021
 20
-53.8925850414
 30
0.0
  0
VERTEX
  5
606
  8
0
  6
CONTINUOUS
 62
     7
 10
-3.9694619506
 20
-54.0987768792
 30
0.0
  0
VERTEX
  5
607
  8
0
  6
CONTINUOUS
 62
     7
 10
-4.6236825316
 20
-54.3064186
 30
0.0
  0
VERTEX
  5
608
  8
0
  6
CONTINUOUS
 62
     7
 10
-5.2228522628
 20
-54.5109921717
 30
0.0
  0
VERTEX
  5
609
  8
0
  6
CONTINUOUS
 62
     7
 10
-5.8070493071
 20
-54.7269323491
 30
0.0
  0
VERTEX
  5
60A
  8
0
  6
CONTINUOUS
 62
     7
 10
-6.3604903548
 20
-54.9509832286
 30
0.0
  0
VERTEX
  5
60B
  8
0
  6
CONTINUOUS
 62
     7
 10
-6.8908048003
 20
-55.190111103
 30
0.0
  0
VERTEX
  5
60C
  8
0
  6
CONTINUOUS
 62
     7
 10
-7.4167561858
 20
-55.4622182273
 30
0.0
  0
VERTEX
  5
60D
  8
0
  6
CONTINUOUS
 62
     7
 10
-7.8584742873
 20
-55.7330259704
 30
0.0
  0
VERTEX
  5
60E
  8
0
  6
CONTINUOUS
 62
     7
 10
-8.1631017058
 20
-55.9550458216
 30
0.0
  0
VERTEX
  5
60F
  8
0
  6
CONTINUOUS
 62
     7
 10
-8.4226203292
 20
-56.1780774616
 30
0.0
  0
VERTEX
  5
610
  8
0
  6
CONTINUOUS
 62
     7
 10
-8.6569381087
 20
-56.4181917929
 30
0.0
  0
VERTEX
  5
611
  8
0
  6
CONTINUOUS
 62
     7
 10
-8.8693690627
 20
-56.6829392337
 30
0.0
  0
VERTEX
  5
612
  8
0
  6
CONTINUOUS
 62
     7
 10
-9.0589833586
 20
-56.9789746427
 30
0.0
  0
VERTEX
  5
613
  8
0
  6
CONTINUOUS
 62
     7
 10
-9.2196059554
 20
-57.3085287236
 30
0.0
  0
VERTEX
  5
614
  8
0
  6
CONTINUOUS
 62
     7
 10
-9.3424630492
 20
-57.6686137938
 30
0.0
  0
VERTEX
  5
615
  8
0
  6
CONTINUOUS
 62
     7
 10
-9.4190907805
 20
-58.0520147108
 30
0.0
  0
VERTEX
  5
616
  8
0
  6
CONTINUOUS
 62
     7
 10
-9.4414782851
 20
-58.417978289
 30
0.0
  0
SEQEND
  5
AB0
  8
0
  6
CONTINUOUS
 62
     7
  0
POLYLINE
  5
236
  8
0
  6
CONTINUOUS
 62
     7
 66
     1
 10
0.0
 20
0.0
 30
0.0
  0
VERTEX
  5
617
  8
0
  6
CONTINUOUS
 62
     7
 10
70.6687616975
 20
-58.4307664656
 30
0.0
  0
VERTEX
  5
618
  8
0
  6
CONTINUOUS
 62
     7
 10
70.6723498971
 20
-58.3575063967
 30
0.0
  0
VERTEX
  5
619
  8
0
  6
CONTINUOUS
 62
     7
 10
70.6351565988
 20
-57.9586485051
 30
0.0
  0
VERTEX
  5
61A
  8
0
  6
CONTINUOUS
 62
     7
 10
70.5482291849
 20
-57.5842374586
 30
0.0
  0
VERTEX
  5
61B
  8
0
  6
CONTINUOUS
 62
     7
 10
70.4201268823
 20
-57.2395125054
 30
0.0
  0
VERTEX
  5
61C
  8
0
  6
CONTINUOUS
 62
     7
 10
70.2597069414
 20
-56.9276297115
 30
0.0
  0
VERTEX
  5
61D
  8
0
  6
CONTINUOUS
 62
     7
 10
70.0750040681
 20
-56.6488677286
 30
0.0
  0
VERTEX
  5
61E
  8
0
  6
CONTINUOUS
 62
     7
 10
69.8714422853
 20
-56.4000168466
 30
0.0
  0
VERTEX
  5
61F
  8
0
  6
CONTINUOUS
 62
     7
 10
69.6498560579
 20
-56.1745712184
 30
0.0
  0
VERTEX
  5
620
  8
0
  6
CONTINUOUS
 62
     7
 10
69.4047379167
 20
-55.963380041
 30
0.0
  0
VERTEX
  5
621
  8
0
  6
CONTINUOUS
 62
     7
 10
69.1185164125
 20
-55.752680602
 30
0.0
  0
VERTEX
  5
622
  8
0
  6
CONTINUOUS
 62
     7
 10
68.7455224664
 20
-55.5184373283
 30
0.0
  0
VERTEX
  5
623
  8
0
  6
CONTINUOUS
 62
     7
 10
68.265693155
 20
-55.2611896419
 30
0.0
  0
VERTEX
  5
624
  8
0
  6
CONTINUOUS
 62
     7
 10
67.7343773515
 20
-55.0135949277
 30
0.0
  0
VERTEX
  5
625
  8
0
  6
CONTINUOUS
 62
     7
 10
67.1972322137
 20
-54.7899508499
 30
0.0
  0
VERTEX
  5
626
  8
0
  6
CONTINUOUS
 62
     7
 10
66.5790724428
 20
-54.5562171959
 30
0.0
  0
VERTEX
  5
627
  8
0
  6
CONTINUOUS
 62
     7
 10
65.940909353
 20
-54.3350601219
 30
0.0
  0
VERTEX
  5
628
  8
0
  6
CONTINUOUS
 62
     7
 10
65.2780460985
 20
-54.1225889348
 30
0.0
  0
VERTEX
  5
629
  8
0
  6
CONTINUOUS
 62
     7
 10
64.5908999116
 20
-53.9177233004
 30
0.0
  0
VERTEX
  5
62A
  8
0
  6
CONTINUOUS
 62
     7
 10
63.8578223855
 20
-53.7136995815
 30
0.0
  0
VERTEX
  5
62B
  8
0
  6
CONTINUOUS
 62
     7
 10
63.0916165979
 20
-53.5143205546
 30
0.0
  0
VERTEX
  5
62C
  8
0
  6
CONTINUOUS
 62
     7
 10
62.2947740228
 20
-53.3202999853
 30
0.0
  0
VERTEX
  5
62D
  8
0
  6
CONTINUOUS
 62
     7
 10
61.4704656274
 20
-53.1325885676
 30
0.0
  0
VERTEX
  5
62E
  8
0
  6
CONTINUOUS
 62
     7
 10
60.622339216
 20
-52.9522711062
 30
0.0
  0
VERTEX
  5
62F
  8
0
  6
CONTINUOUS
 62
     7
 10
59.7543644578
 20
-52.7804711484
 30
0.0
  0
VERTEX
  5
630
  8
0
  6
CONTINUOUS
 62
     7
 10
58.8706779153
 20
-52.6183152222
 30
0.0
  0
VERTEX
  5
631
  8
0
  6
CONTINUOUS
 62
     7
 10
57.9808878572
 20
-52.4676361703
 30
0.0
  0
VERTEX
  5
632
  8
0
  6
CONTINUOUS
 62
     7
 10
57.0793437631
 20
-52.3273775004
 30
0.0
  0
VERTEX
  5
633
  8
0
  6
CONTINUOUS
 62
     7
 10
56.1984228761
 20
-52.2022435092
 30
0.0
  0
SEQEND
  5
AAF
  8
0
  6
CONTINUOUS
 62
     7
  0
ARC
  5
237
  8
0
  6
CONTINUOUS
 62
     7
 10
30.4931268998
 20
-239.2943819488
 30
0.0
 40
188.8172303875931
 50
90.2488982536
 51
97.7494271563
  0
ARC
  5
238
  8
0
  6
CONTINUOUS
 62
     7
 10
30.8224380857
 20
-238.3857798547
 30
0.0
 40
187.9055487928393
 50
82.2387174998
 51
89.7798336298
  0
POLYLINE
  5
239
  8
0
  6
CONTINUOUS
 62
     7
 66
     1
 10
0.0
 20
0.0
 30
0.0
  0
VERTEX
  5
634
  8
0
  6
CONTINUOUS
 62
     7
 10
-4.8483682006
 20
-60.1920539164
 30
0.0
  0
VERTEX
  5
635
  8
0
  6
CONTINUOUS
 62
     7
 10
-4.8498463957
 20
-60.1931834244
 30
0.0
  0
VERTEX
  5
636
  8
0
  6
CONTINUOUS
 62
     7
 10
-4.8094344466
 20
-60.1685801171
 30
0.0
  0
VERTEX
  5
637
  8
0
  6
CONTINUOUS
 62
     7
 10
-4.7179770796
 20
-60.1181054138
 30
0.0
  0
VERTEX
  5
638
  8
0
  6
CONTINUOUS
 62
     7
 10
-4.5687747328
 20
-60.0432091974
 30
0.0
  0
VERTEX
  5
639
  8
0
  6
CONTINUOUS
 62
     7
 10
-4.3567252486
 20
-59.945906105
 30
0.0
  0
VERTEX
  5
63A
  8
0
  6
CONTINUOUS
 62
     7
 10
-4.0791821807
 20
-59.8288410925
 30
0.0
  0
VERTEX
  5
63B
  8
0
  6
CONTINUOUS
 62
     7
 10
-3.7360024779
 20
-59.6951106214
 30
0.0
  0
VERTEX
  5
63C
  8
0
  6
CONTINUOUS
 62
     7
 10
-3.3291411727
 20
-59.5479810261
 30
0.0
  0
VERTEX
  5
63D
  8
0
  6
CONTINUOUS
 62
     7
 10
-2.8620553343
 20
-59.3906664871
 30
0.0
  0
VERTEX
  5
63E
  8
0
  6
CONTINUOUS
 62
     7
 10
-2.3394179671
 20
-59.226266446
 30
0.0
  0
VERTEX
  5
63F
  8
0
  6
CONTINUOUS
 62
     7
 10
-1.7641377776
 20
-59.0572172426
 30
0.0
  0
VERTEX
  5
640
  8
0
  6
CONTINUOUS
 62
     7
 10
-1.1552167266
 20
-58.8896521949
 30
0.0
  0
VERTEX
  5
641
  8
0
  6
CONTINUOUS
 62
     7
 10
-0.4945826857
 20
-58.7190294289
 30
0.0
  0
VERTEX
  5
642
  8
0
  6
CONTINUOUS
 62
     7
 10
0.2108978898
 20
-58.5480758571
 30
0.0
  0
VERTEX
  5
643
  8
0
  6
CONTINUOUS
 62
     7
 10
0.9538817079
 20
-58.379376831
 30
0.0
  0
VERTEX
  5
644
  8
0
  6
CONTINUOUS
 62
     7
 10
1.7263340623
 20
-58.215440216
 30
0.0
  0
VERTEX
  5
645
  8
0
  6
CONTINUOUS
 62
     7
 10
2.5184321077
 20
-58.0588975572
 30
0.0
  0
VERTEX
  5
646
  8
0
  6
CONTINUOUS
 62
     7
 10
3.3216881425
 20
-57.9118305468
 30
0.0
  0
VERTEX
  5
647
  8
0
  6
CONTINUOUS
 62
     7
 10
4.1323351533
 20
-57.7749618911
 30
0.0
  0
VERTEX
  5
648
  8
0
  6
CONTINUOUS
 62
     7
 10
4.9614119203
 20
-57.6463663601
 30
0.0
  0
VERTEX
  5
649
  8
0
  6
CONTINUOUS
 62
     7
 10
5.7572769792
 20
-57.5336539768
 30
0.0
  0
SEQEND
  5
AAE
  8
0
  6
CONTINUOUS
 62
     7
  0
POLYLINE
  5
23A
  8
0
  6
CONTINUOUS
 62
     7
 66
     1
 10
0.0
 20
0.0
 30
0.0
  0
VERTEX
  5
64A
  8
0
  6
CONTINUOUS
 62
     7
 10
55.4739403398
 20
-57.534027996
 30
0.0
  0
VERTEX
  5
64B
  8
0
  6
CONTINUOUS
 62
     7
 10
56.1338948877
 20
-57.6261231326
 30
0.0
  0
VERTEX
  5
64C
  8
0
  6
CONTINUOUS
 62
     7
 10
56.9713282258
 20
-57.7543431543
 30
0.0
  0
VERTEX
  5
64D
  8
0
  6
CONTINUOUS
 62
     7
 10
57.8005122812
 20
-57.8927674913
 30
0.0
  0
VERTEX
  5
64E
  8
0
  6
CONTINUOUS
 62
     7
 10
58.6149620683
 20
-58.0402934574
 30
0.0
  0
VERTEX
  5
64F
  8
0
  6
CONTINUOUS
 62
     7
 10
59.4037818582
 20
-58.1944906735
 30
0.0
  0
VERTEX
  5
650
  8
0
  6
CONTINUOUS
 62
     7
 10
60.1719188363
 20
-58.3557510399
 30
0.0
  0
VERTEX
  5
651
  8
0
  6
CONTINUOUS
 62
     7
 10
60.9155702264
 20
-58.5228958749
 30
0.0
  0
VERTEX
  5
652
  8
0
  6
CONTINUOUS
 62
     7
 10
61.6287040384
 20
-58.6941683315
 30
0.0
  0
VERTEX
  5
653
  8
0
  6
CONTINUOUS
 62
     7
 10
62.3053002031
 20
-58.8676372193
 30
0.0
  0
VERTEX
  5
654
  8
0
  6
CONTINUOUS
 62
     7
 10
62.9396009118
 20
-59.0412357473
 30
0.0
  0
VERTEX
  5
655
  8
0
  6
CONTINUOUS
 62
     7
 10
63.5259556444
 20
-59.2127227806
 30
0.0
  0
VERTEX
  5
656
  8
0
  6
CONTINUOUS
 62
     7
 10
64.0593456895
 20
-59.3797543668
 30
0.0
  0
VERTEX
  5
657
  8
0
  6
CONTINUOUS
 62
     7
 10
64.5386743219
 20
-59.5407956862
 30
0.0
  0
VERTEX
  5
658
  8
0
  6
CONTINUOUS
 62
     7
 10
64.9648356111
 20
-59.6948990249
 30
0.0
  0
VERTEX
  5
659
  8
0
  6
CONTINUOUS
 62
     7
 10
65.3306173951
 20
-59.837984445
 30
0.0
  0
VERTEX
  5
65A
  8
0
  6
CONTINUOUS
 62
     7
 10
65.6292247445
 20
-59.9652165197
 30
0.0
  0
VERTEX
  5
65B
  8
0
  6
CONTINUOUS
 62
     7
 10
65.8334421785
 20
-60.0603246712
 30
0.0
  0
VERTEX
  5
65C
  8
0
  6
CONTINUOUS
 62
     7
 10
65.974812475
 20
-60.1324373507
 30
0.0
  0
VERTEX
  5
65D
  8
0
  6
CONTINUOUS
 62
     7
 10
66.0570072801
 20
-60.1786354207
 30
0.0
  0
VERTEX
  5
65E
  8
0
  6
CONTINUOUS
 62
     7
 10
66.0864162118
 20
-60.1968699717
 30
0.0
  0
VERTEX
  5
65F
  8
0
  6
CONTINUOUS
 62
     7
 10
66.0842227609
 20
-60.1952680968
 30
0.0
  0
SEQEND
  5
AAD
  8
0
  6
CONTINUOUS
 62
     7
  0
LINE
  5
23B
  8
0
  6
CONTINUOUS
 62
     7
 10
29.6155857713
 20
-50.1367726945
 30
0.0
 11
29.6155857713
 21
-50.49474478
 31
0.0
  0
LINE
  5
23C
  8
0
  6
CONTINUOUS
 62
     7
 10
31.615583864
 20
-50.49474478
 30
0.0
 11
31.615583864
 21
-50.1367726945
 31
0.0
  0
ARC
  5
23D
  8
0
  6
CONTINUOUS
 62
     7
 10
30.6155848176
 20
-240.543427339
 30
0.0
 40
184.6913860541054
 50
82.2647808458
 51
97.7352191542
  0
LINE
  5
23E
  8
0
  6
CONTINUOUS
 62
     7
 10
70.6743406923
 20
-63.3012728416
 30
0.0
 11
70.6743406923
 21
-58.426498773
 31
0.0
  0
LINE
  5
23F
  8
0
  6
CONTINUOUS
 62
     7
 10
-9.443171057
 20
-58.426498773
 30
0.0
 11
-9.443171057
 21
-63.3012728416
 31
0.0
  0
POLYLINE
  5
240
  8
0
  6
CONTINUOUS
 62
     7
 66
     1
 10
0.0
 20
0.0
 30
0.0
  0
VERTEX
  5
660
  8
0
  6
CONTINUOUS
 62
     7
 10
55.4741191537
 20
-65.4080943786
 30
0.0
  0
VERTEX
  5
661
  8
0
  6
CONTINUOUS
 62
     7
 10
56.2507676751
 20
-65.512299689
 30
0.0
  0
VERTEX
  5
662
  8
0
  6
CONTINUOUS
 62
     7
 10
57.1331905992
 20
-65.6270721578
 30
0.0
  0
VERTEX
  5
663
  8
0
  6
CONTINUOUS
 62
     7
 10
58.0051350267
 20
-65.7368728541
 30
0.0
  0
VERTEX
  5
664
  8
0
  6
CONTINUOUS
 62
     7
 10
58.8626193673
 20
-65.8411295735
 30
0.0
  0
VERTEX
  5
665
  8
0
  6
CONTINUOUS
 62
     7
 10
59.6985029847
 20
-65.9386494779
 30
0.0
  0
VERTEX
  5
666
  8
0
  6
CONTINUOUS
 62
     7
 10
60.5199384363
 20
-66.0299652838
 30
0.0
  0
VERTEX
  5
667
  8
0
  6
CONTINUOUS
 62
     7
 10
61.3261270196
 20
-66.1145308637
 30
0.0
  0
VERTEX
  5
668
  8
0
  6
CONTINUOUS
 62
     7
 10
62.1106433542
 20
-66.1911354982
 30
0.0
  0
VERTEX
  5
669
  8
0
  6
CONTINUOUS
 62
     7
 10
62.8674316079
 20
-66.2586087011
 30
0.0
  0
VERTEX
  5
66A
  8
0
  6
CONTINUOUS
 62
     7
 10
63.5911512048
 20
-66.3158388459
 30
0.0
  0
VERTEX
  5
66B
  8
0
  6
CONTINUOUS
 62
     7
 10
64.277737108
 20
-66.3617657148
 30
0.0
  0
VERTEX
  5
66C
  8
0
  6
CONTINUOUS
 62
     7
 10
64.925925699
 20
-66.3954006158
 30
0.0
  0
VERTEX
  5
66D
  8
0
  6
CONTINUOUS
 62
     7
 10
65.5439662607
 20
-66.4160305285
 30
0.0
  0
VERTEX
  5
66E
  8
0
  6
CONTINUOUS
 62
     7
 10
66.1369609506
 20
-66.4218740188
 30
0.0
  0
VERTEX
  5
66F
  8
0
  6
CONTINUOUS
 62
     7
 10
66.7134213121
 20
-66.4094643318
 30
0.0
  0
VERTEX
  5
670
  8
0
  6
CONTINUOUS
 62
     7
 10
67.2953653009
 20
-66.3706766092
 30
0.0
  0
VERTEX
  5
671
  8
0
  6
CONTINUOUS
 62
     7
 10
67.8581046731
 20
-66.2950800382
 30
0.0
  0
VERTEX
  5
672
  8
0
  6
CONTINUOUS
 62
     7
 10
68.2240414293
 20
-66.216490569
 30
0.0
  0
VERTEX
  5
673
  8
0
  6
CONTINUOUS
 62
     7
 10
68.561689821
 20
-66.1158637725
 30
0.0
  0
VERTEX
  5
674
  8
0
  6
CONTINUOUS
 62
     7
 10
68.8745903642
 20
-65.992060455
 30
0.0
  0
VERTEX
  5
675
  8
0
  6
CONTINUOUS
 62
     7
 10
69.1763448388
 20
-65.8379362547
 30
0.0
  0
VERTEX
  5
676
  8
0
  6
CONTINUOUS
 62
     7
 10
69.4693016679
 20
-65.6471768045
 30
0.0
  0
VERTEX
  5
677
  8
0
  6
CONTINUOUS
 62
     7
 10
69.7498130472
 20
-65.4148319387
 30
0.0
  0
VERTEX
  5
678
  8
0
  6
CONTINUOUS
 62
     7
 10
70.0093078286
 20
-65.1394592249
 30
0.0
  0
VERTEX
  5
679
  8
0
  6
CONTINUOUS
 62
     7
 10
70.237283674
 20
-64.8236879729
 30
0.0
  0
VERTEX
  5
67A
  8
0
  6
CONTINUOUS
 62
     7
 10
70.4240488679
 20
-64.4733817898
 30
0.0
  0
VERTEX
  5
67B
  8
0
  6
CONTINUOUS
 62
     7
 10
70.5738234193
 20
-64.0546837472
 30
0.0
  0
VERTEX
  5
67C
  8
0
  6
CONTINUOUS
 62
     7
 10
70.5996441514
 20
-63.920824381
 30
0.0
  0
SEQEND
  5
AAC
  8
0
  6
CONTINUOUS
 62
     7
  0
POLYLINE
  5
241
  8
0
  6
CONTINUOUS
 62
     7
 66
     1
 10
0.0
 20
0.0
 30
0.0
  0
VERTEX
  5
67D
  8
0
  6
CONTINUOUS
 62
     7
 10
-9.3736243575
 20
-63.9214979135
 30
0.0
  0
VERTEX
  5
67E
  8
0
  6
CONTINUOUS
 62
     7
 10
-9.3726706832
 20
-63.9280082308
 30
0.0
  0
VERTEX
  5
67F
  8
0
  6
CONTINUOUS
 62
     7
 10
-9.2498374312
 20
-64.3334248685
 30
0.0
  0
VERTEX
  5
680
  8
0
  6
CONTINUOUS
 62
     7
 10
-9.0766740172
 20
-64.7023358964
 30
0.0
  0
VERTEX
  5
681
  8
0
  6
CONTINUOUS
 62
     7
 10
-8.8631463378
 20
-65.030396136
 30
0.0
  0
VERTEX
  5
682
  8
0
  6
CONTINUOUS
 62
     7
 10
-8.6191964476
 20
-65.315383824
 30
0.0
  0
VERTEX
  5
683
  8
0
  6
CONTINUOUS
 62
     7
 10
-8.3545041411
 20
-65.556983056
 30
0.0
  0
VERTEX
  5
684
  8
0
  6
CONTINUOUS
 62
     7
 10
-8.0775094359
 20
-65.7570914947
 30
0.0
  0
VERTEX
  5
685
  8
0
  6
CONTINUOUS
 62
     7
 10
-7.7937198012
 20
-65.9199179732
 30
0.0
  0
VERTEX
  5
686
  8
0
  6
CONTINUOUS
 62
     7
 10
-7.5037789672
 20
-66.0513618611
 30
0.0
  0
VERTEX
  5
687
  8
0
  6
CONTINUOUS
 62
     7
 10
-7.2005105345
 20
-66.1582456552
 30
0.0
  0
VERTEX
  5
688
  8
0
  6
CONTINUOUS
 62
     7
 10
-6.8669629424
 20
-66.2464895867
 30
0.0
  0
VERTEX
  5
689
  8
0
  6
CONTINUOUS
 62
     7
 10
-6.509788069
 20
-66.3142570876
 30
0.0
  0
VERTEX
  5
68A
  8
0
  6
CONTINUOUS
 62
     7
 10
-6.0442281096
 20
-66.3717383169
 30
0.0
  0
VERTEX
  5
68B
  8
0
  6
CONTINUOUS
 62
     7
 10
-5.3777528136
 20
-66.4124408387
 30
0.0
  0
VERTEX
  5
68C
  8
0
  6
CONTINUOUS
 62
     7
 10
-4.8044038146
 20
-66.4213524782
 30
0.0
  0
VERTEX
  5
68D
  8
0
  6
CONTINUOUS
 62
     7
 10
-4.223759207
 20
-66.4134958409
 30
0.0
  0
VERTEX
  5
68E
  8
0
  6
CONTINUOUS
 62
     7
 10
-3.5659623473
 20
-66.3895079517
 30
0.0
  0
VERTEX
  5
68F
  8
0
  6
CONTINUOUS
 62
     7
 10
-2.8920245497
 20
-66.3522572838
 30
0.0
  0
VERTEX
  5
690
  8
0
  6
CONTINUOUS
 62
     7
 10
-2.1886658995
 20
-66.3031303906
 30
0.0
  0
VERTEX
  5
691
  8
0
  6
CONTINUOUS
 62
     7
 10
-1.4535975783
 20
-66.2431956851
 30
0.0
  0
VERTEX
  5
692
  8
0
  6
CONTINUOUS
 62
     7
 10
-0.6883216231
 20
-66.1733323359
 30
0.0
  0
VERTEX
  5
693
  8
0
  6
CONTINUOUS
 62
     7
 10
0.1047062547
 20
-66.0943733179
 30
0.0
  0
VERTEX
  5
694
  8
0
  6
CONTINUOUS
 62
     7
 10
0.9221958787
 20
-66.0071754479
 30
0.0
  0
VERTEX
  5
695
  8
0
  6
CONTINUOUS
 62
     7
 10
1.760284868
 20
-65.9126201295
 30
0.0
  0
VERTEX
  5
696
  8
0
  6
CONTINUOUS
 62
     7
 10
2.6148485811
 20
-65.8116073929
 30
0.0
  0
VERTEX
  5
697
  8
0
  6
CONTINUOUS
 62
     7
 10
3.4802364976
 20
-65.7052466296
 30
0.0
  0
VERTEX
  5
698
  8
0
  6
CONTINUOUS
 62
     7
 10
4.351704088
 20
-65.5944877886
 30
0.0
  0
VERTEX
  5
699
  8
0
  6
CONTINUOUS
 62
     7
 10
5.2313017518
 20
-65.4790917062
 30
0.0
  0
VERTEX
  5
69A
  8
0
  6
CONTINUOUS
 62
     7
 10
5.7571100862
 20
-65.4079483472
 30
0.0
  0
SEQEND
  5
AAB
  8
0
  6
CONTINUOUS
 62
     7
  0
POLYLINE
  5
242
  8
0
  6
CONTINUOUS
 62
     7
 66
     1
 10
0.0
 20
0.0
 30
0.0
  0
VERTEX
  5
69B
  8
0
  6
CONTINUOUS
 62
     7
 10
70.613138643
 20
-63.8508909964
 30
0.0
  0
VERTEX
  5
69C
  8
0
  6
CONTINUOUS
 62
     7
 10
70.6556248338
 20
-63.6305922293
 30
0.0
  0
VERTEX
  5
69D
  8
0
  6
CONTINUOUS
 62
     7
 10
70.6696438463
 20
-63.3021266781
 30
0.0
  0
SEQEND
  5
AAA
  8
0
  6
CONTINUOUS
 62
     7
  0
POLYLINE
  5
243
  8
0
  6
CONTINUOUS
 62
     7
 66
     1
 10
0.0
 20
0.0
 30
0.0
  0
VERTEX
  5
69E
  8
0
  6
CONTINUOUS
 62
     7
 10
-9.4350171416
 20
-63.2949070655
 30
0.0
  0
VERTEX
  5
69F
  8
0
  6
CONTINUOUS
 62
     7
 10
-9.435446295
 20
-63.494755479
 30
0.0
  0
VERTEX
  5
6A0
  8
0
  6
CONTINUOUS
 62
     7
 10
-9.3736243575
 20
-63.9214979135
 30
0.0
  0
SEQEND
  5
AA9
  8
0
  6
CONTINUOUS
 62
     7
  0
ARC
  5
244
  8
0
  6
CONTINUOUS
 62
     7
 10
30.6155848176
 20
-248.418556909
 30
0.0
 40
184.6913188604277
 50
82.2647780144
 51
97.7352219856
  0
POLYLINE
  5
245
  8
0
  6
CONTINUOUS
 62
     7
 66
     1
 10
0.0
 20
0.0
 30
0.0
  0
VERTEX
  5
6A1
  8
0
  6
CONTINUOUS
 62
     7
 10
245.0328159005
 20
-52.2030541324
 30
0.0
  0
VERTEX
  5
6A2
  8
0
  6
CONTINUOUS
 62
     7
 10
244.2367124231
 20
-52.3150289082
 30
0.0
  0
VERTEX
  5
6A3
  8
0
  6
CONTINUOUS
 62
     7
 10
243.3300304086
 20
-52.454825642
 30
0.0
  0
VERTEX
  5
6A4
  8
0
  6
CONTINUOUS
 62
     7
 10
242.4327838094
 20
-52.605609002
 30
0.0
  0
VERTEX
  5
6A5
  8
0
  6
CONTINUOUS
 62
     7
 10
241.5496098668
 20
-52.7667248272
 30
0.0
  0
VERTEX
  5
6A6
  8
0
  6
CONTINUOUS
 62
     7
 10
240.6950968177
 20
-52.9349827789
 30
0.0
  0
VERTEX
  5
6A7
  8
0
  6
CONTINUOUS
 62
     7
 10
239.8561525018
 20
-53.1122648739
 30
0.0
  0
VERTEX
  5
6A8
  8
0
  6
CONTINUOUS
 62
     7
 10
239.0340792806
 20
-53.2981121563
 30
0.0
  0
VERTEX
  5
6A9
  8
0
  6
CONTINUOUS
 62
     7
 10
238.2349776895
 20
-53.4910672926
 30
0.0
  0
VERTEX
  5
6AA
  8
0
  6
CONTINUOUS
 62
     7
 10
237.4646949441
 20
-53.6896729492
 30
0.0
  0
VERTEX
  5
6AB
  8
0
  6
CONTINUOUS
 62
     7
 10
236.728473273
 20
-53.8925850414
 30
0.0
  0
VERTEX
  5
6AC
  8
0
  6
CONTINUOUS
 62
     7
 10
236.0305297048
 20
-54.0987768792
 30
0.0
  0
VERTEX
  5
6AD
  8
0
  6
CONTINUOUS
 62
     7
 10
235.3763270051
 20
-54.3064186
 30
0.0
  0
VERTEX
  5
6AE
  8
0
  6
CONTINUOUS
 62
     7
 10
234.7771453531
 20
-54.5109921717
 30
0.0
  0
VERTEX
  5
6AF
  8
0
  6
CONTINUOUS
 62
     7
 10
234.1929438383
 20
-54.7269323491
 30
0.0
  0
VERTEX
  5
6B0
  8
0
  6
CONTINUOUS
 62
     7
 10
233.639507261
 20
-54.9509832286
 30
0.0
  0
VERTEX
  5
6B1
  8
0
  6
CONTINUOUS
 62
     7
 10
233.1091868551
 20
-55.190111103
 30
0.0
  0
VERTEX
  5
6B2
  8
0
  6
CONTINUOUS
 62
     7
 10
232.5832354696
 20
-55.4622182273
 30
0.0
  0
VERTEX
  5
6B3
  8
0
  6
CONTINUOUS
 62
     7
 10
232.1415277989
 20
-55.7330259704
 30
0.0
  0
VERTEX
  5
6B4
  8
0
  6
CONTINUOUS
 62
     7
 10
231.8369033606
 20
-55.9550458216
 30
0.0
  0
VERTEX
  5
6B5
  8
0
  6
CONTINUOUS
 62
     7
 10
231.5773743064
 20
-56.1780774616
 30
0.0
  0
VERTEX
  5
6B6
  8
0
  6
CONTINUOUS
 62
     7
 10
231.3430639775
 20
-56.4181917929
 30
0.0
  0
VERTEX
  5
6B7
  8
0
  6
CONTINUOUS
 62
     7
 10
231.1306255729
 20
-56.6829392337
 30
0.0
  0
VERTEX
  5
6B8
  8
0
  6
CONTINUOUS
 62
     7
 10
230.9410172374
 20
-56.9789746427
 30
0.0
  0
VERTEX
  5
6B9
  8
0
  6
CONTINUOUS
 62
     7
 10
230.7803961308
 20
-57.3085287236
 30
0.0
  0
VERTEX
  5
6BA
  8
0
  6
CONTINUOUS
 62
     7
 10
230.6575449974
 20
-57.6686137938
 30
0.0
  0
VERTEX
  5
6BB
  8
0
  6
CONTINUOUS
 62
     7
 10
230.580902365
 20
-58.0520147108
 30
0.0
  0
VERTEX
  5
6BC
  8
0
  6
CONTINUOUS
 62
     7
 10
230.5585252912
 20
-58.417978289
 30
0.0
  0
SEQEND
  5
AA8
  8
0
  6
CONTINUOUS
 62
     7
  0
POLYLINE
  5
246
  8
0
  6
CONTINUOUS
 62
     7
 66
     1
 10
0.0
 20
0.0
 30
0.0
  0
VERTEX
  5
6BD
  8
0
  6
CONTINUOUS
 62
     7
 10
310.6687593133
 20
-58.4307664656
 30
0.0
  0
VERTEX
  5
6BE
  8
0
  6
CONTINUOUS
 62
     7
 10
310.6723475129
 20
-58.3575063967
 30
0.0
  0
VERTEX
  5
6BF
  8
0
  6
CONTINUOUS
 62
     7
 10
310.6351542146
 20
-57.9586485051
 30
0.0
  0
VERTEX
  5
6C0
  8
0
  6
CONTINUOUS
 62
     7
 10
310.5482268007
 20
-57.5842374586
 30
0.0
  0
VERTEX
  5
6C1
  8
0
  6
CONTINUOUS
 62
     7
 10
310.4201244981
 20
-57.2395125054
 30
0.0
  0
VERTEX
  5
6C2
  8
0
  6
CONTINUOUS
 62
     7
 10
310.2597045572
 20
-56.9276297115
 30
0.0
  0
VERTEX
  5
6C3
  8
0
  6
CONTINUOUS
 62
     7
 10
310.0750076444
 20
-56.6488677286
 30
0.0
  0
VERTEX
  5
6C4
  8
0
  6
CONTINUOUS
 62
     7
 10
309.8714458616
 20
-56.4000168466
 30
0.0
  0
VERTEX
  5
6C5
  8
0
  6
CONTINUOUS
 62
     7
 10
309.6498596341
 20
-56.1745712184
 30
0.0
  0
VERTEX
  5
6C6
  8
0
  6
CONTINUOUS
 62
     7
 10
309.4047355325
 20
-55.963380041
 30
0.0
  0
VERTEX
  5
6C7
  8
0
  6
CONTINUOUS
 62
     7
 10
309.1185199888
 20
-55.752680602
 30
0.0
  0
VERTEX
  5
6C8
  8
0
  6
CONTINUOUS
 62
     7
 10
308.7455200822
 20
-55.5184373283
 30
0.0
  0
VERTEX
  5
6C9
  8
0
  6
CONTINUOUS
 62
     7
 10
308.2656967313
 20
-55.2611896419
 30
0.0
  0
VERTEX
  5
6CA
  8
0
  6
CONTINUOUS
 62
     7
 10
307.7343749673
 20
-55.0135949277
 30
0.0
  0
VERTEX
  5
6CB
  8
0
  6
CONTINUOUS
 62
     7
 10
307.19723579
 20
-54.7899508499
 30
0.0
  0
VERTEX
  5
6CC
  8
0
  6
CONTINUOUS
 62
     7
 10
306.579076019
 20
-54.5562171959
 30
0.0
  0
VERTEX
  5
6CD
  8
0
  6
CONTINUOUS
 62
     7
 10
305.9409069688
 20
-54.3350601219
 30
0.0
  0
VERTEX
  5
6CE
  8
0
  6
CONTINUOUS
 62
     7
 10
305.2780377538
 20
-54.1225889348
 30
0.0
  0
VERTEX
  5
6CF
  8
0
  6
CONTINUOUS
 62
     7
 10
304.5909034879
 20
-53.9177233004
 30
0.0
  0
VERTEX
  5
6D0
  8
0
  6
CONTINUOUS
 62
     7
 10
303.8578200013
 20
-53.7136995815
 30
0.0
  0
VERTEX
  5
6D1
  8
0
  6
CONTINUOUS
 62
     7
 10
303.0916201742
 20
-53.5143205546
 30
0.0
  0
VERTEX
  5
6D2
  8
0
  6
CONTINUOUS
 62
     7
 10
302.2947775991
 20
-53.3202999853
 30
0.0
  0
VERTEX
  5
6D3
  8
0
  6
CONTINUOUS
 62
     7
 10
301.4704632432
 20
-53.1325885676
 30
0.0
  0
VERTEX
  5
6D4
  8
0
  6
CONTINUOUS
 62
     7
 10
300.6223427923
 20
-52.9522711062
 30
0.0
  0
VERTEX
  5
6D5
  8
0
  6
CONTINUOUS
 62
     7
 10
299.7543620736
 20
-52.7804711484
 30
0.0
  0
VERTEX
  5
6D6
  8
0
  6
CONTINUOUS
 62
     7
 10
298.8706814916
 20
-52.6183152222
 30
0.0
  0
VERTEX
  5
6D7
  8
0
  6
CONTINUOUS
 62
     7
 10
297.980885473
 20
-52.4676361703
 30
0.0
  0
VERTEX
  5
6D8
  8
0
  6
CONTINUOUS
 62
     7
 10
297.0793413789
 20
-52.3273775004
 30
0.0
  0
VERTEX
  5
6D9
  8
0
  6
CONTINUOUS
 62
     7
 10
296.1984264524
 20
-52.2022435092
 30
0.0
  0
SEQEND
  5
AA7
  8
0
  6
CONTINUOUS
 62
     7
  0
ARC
  5
247
  8
0
  6
CONTINUOUS
 62
     7
 10
270.4931429577
 20
-239.2946485766
 30
0.0
 40
188.8174970670504
 50
90.2489016896
 51
97.7494217917
  0
ARC
  5
248
  8
0
  6
CONTINUOUS
 62
     7
 10
270.8224274635
 20
-238.3859858787
 30
0.0
 40
187.9057548470574
 50
82.2387216937
 51
89.7798313593
  0
POLYLINE
  5
249
  8
0
  6
CONTINUOUS
 62
     7
 66
     1
 10
0.0
 20
0.0
 30
0.0
  0
VERTEX
  5
6DA
  8
0
  6
CONTINUOUS
 62
     7
 10
235.1516309054
 20
-60.1920539164
 30
0.0
  0
VERTEX
  5
6DB
  8
0
  6
CONTINUOUS
 62
     7
 10
235.1501586706
 20
-60.1931834244
 30
0.0
  0
VERTEX
  5
6DC
  8
0
  6
CONTINUOUS
 62
     7
 10
235.1905676396
 20
-60.1685801171
 30
0.0
  0
VERTEX
  5
6DD
  8
0
  6
CONTINUOUS
 62
     7
 10
235.2820115955
 20
-60.1181054138
 30
0.0
  0
VERTEX
  5
6DE
  8
0
  6
CONTINUOUS
 62
     7
 10
235.4312303336
 20
-60.0432091974
 30
0.0
  0
VERTEX
  5
6DF
  8
0
  6
CONTINUOUS
 62
     7
 10
235.6432842882
 20
-59.945906105
 30
0.0
  0
VERTEX
  5
6E0
  8
0
  6
CONTINUOUS
 62
     7
 10
235.9208243759
 20
-59.8288410925
 30
0.0
  0
VERTEX
  5
6E1
  8
0
  6
CONTINUOUS
 62
     7
 10
236.2639981181
 20
-59.6951106214
 30
0.0
  0
VERTEX
  5
6E2
  8
0
  6
CONTINUOUS
 62
     7
 10
236.6708594234
 20
-59.5479810261
 30
0.0
  0
VERTEX
  5
6E3
  8
0
  6
CONTINUOUS
 62
     7
 10
237.1379512222
 20
-59.3906664871
 30
0.0
  0
VERTEX
  5
6E4
  8
0
  6
CONTINUOUS
 62
     7
 10
237.660582629
 20
-59.226266446
 30
0.0
  0
VERTEX
  5
6E5
  8
0
  6
CONTINUOUS
 62
     7
 10
238.2358657987
 20
-59.0572172426
 30
0.0
  0
VERTEX
  5
6E6
  8
0
  6
CONTINUOUS
 62
     7
 10
238.8447808893
 20
-58.8896521949
 30
0.0
  0
VERTEX
  5
6E7
  8
0
  6
CONTINUOUS
 62
     7
 10
239.5054208906
 20
-58.7190294289
 30
0.0
  0
VERTEX
  5
6E8
  8
0
  6
CONTINUOUS
 62
     7
 10
240.2108955057
 20
-58.5480758571
 30
0.0
  0
VERTEX
  5
6E9
  8
0
  6
CONTINUOUS
 62
     7
 10
240.953870383
 20
-58.379376831
 30
0.0
  0
VERTEX
  5
6EA
  8
0
  6
CONTINUOUS
 62
     7
 10
241.7263257177
 20
-58.215440216
 30
0.0
  0
VERTEX
  5
6EB
  8
0
  6
CONTINUOUS
 62
     7
 10
242.5184386642
 20
-58.0588975572
 30
0.0
  0
VERTEX
  5
6EC
  8
0
  6
CONTINUOUS
 62
     7
 10
243.3216857583
 20
-57.9118305468
 30
0.0
  0
VERTEX
  5
6ED
  8
0
  6
CONTINUOUS
 62
     7
 10
244.1323357494
 20
-57.7749618911
 30
0.0
  0
VERTEX
  5
6EE
  8
0
  6
CONTINUOUS
 62
     7
 10
244.9614095361
 20
-57.6463663601
 30
0.0
  0
VERTEX
  5
6EF
  8
0
  6
CONTINUOUS
 62
     7
 10
245.7572716148
 20
-57.5336539768
 30
0.0
  0
SEQEND
  5
AA6
  8
0
  6
CONTINUOUS
 62
     7
  0
POLYLINE
  5
24A
  8
0
  6
CONTINUOUS
 62
     7
 66
     1
 10
0.0
 20
0.0
 30
0.0
  0
VERTEX
  5
6F0
  8
0
  6
CONTINUOUS
 62
     7
 10
295.4739379556
 20
-57.534027996
 30
0.0
  0
VERTEX
  5
6F1
  8
0
  6
CONTINUOUS
 62
     7
 10
296.1338984639
 20
-57.6261231326
 30
0.0
  0
VERTEX
  5
6F2
  8
0
  6
CONTINUOUS
 62
     7
 10
296.9713258416
 20
-57.7543431543
 30
0.0
  0
VERTEX
  5
6F3
  8
0
  6
CONTINUOUS
 62
     7
 10
297.800509897
 20
-57.8927674913
 30
0.0
  0
VERTEX
  5
6F4
  8
0
  6
CONTINUOUS
 62
     7
 10
298.6149656446
 20
-58.0402934574
 30
0.0
  0
VERTEX
  5
6F5
  8
0
  6
CONTINUOUS
 62
     7
 10
299.403779474
 20
-58.1944906735
 30
0.0
  0
VERTEX
  5
6F6
  8
0
  6
CONTINUOUS
 62
     7
 10
300.1719224126
 20
-58.3557510399
 30
0.0
  0
VERTEX
  5
6F7
  8
0
  6
CONTINUOUS
 62
     7
 10
300.9155678422
 20
-58.5228958749
 30
0.0
  0
VERTEX
  5
6F8
  8
0
  6
CONTINUOUS
 62
     7
 10
301.6287016542
 20
-58.6941683315
 30
0.0
  0
VERTEX
  5
6F9
  8
0
  6
CONTINUOUS
 62
     7
 10
302.3053037793
 20
-58.8676372193
 30
0.0
  0
VERTEX
  5
6FA
  8
0
  6
CONTINUOUS
 62
     7
 10
302.9395985277
 20
-59.0412357473
 30
0.0
  0
VERTEX
  5
6FB
  8
0
  6
CONTINUOUS
 62
     7
 10
303.5259532602
 20
-59.2127227806
 30
0.0
  0
VERTEX
  5
6FC
  8
0
  6
CONTINUOUS
 62
     7
 10
304.0593492658
 20
-59.3797543668
 30
0.0
  0
VERTEX
  5
6FD
  8
0
  6
CONTINUOUS
 62
     7
 10
304.5386719377
 20
-59.5407956862
 30
0.0
  0
VERTEX
  5
6FE
  8
0
  6
CONTINUOUS
 62
     7
 10
304.9648391874
 20
-59.6948990249
 30
0.0
  0
VERTEX
  5
6FF
  8
0
  6
CONTINUOUS
 62
     7
 10
305.3306209714
 20
-59.837984445
 30
0.0
  0
VERTEX
  5
700
  8
0
  6
CONTINUOUS
 62
     7
 10
305.6292283208
 20
-59.9652165197
 30
0.0
  0
VERTEX
  5
701
  8
0
  6
CONTINUOUS
 62
     7
 10
305.8334397943
 20
-60.0603246712
 30
0.0
  0
VERTEX
  5
702
  8
0
  6
CONTINUOUS
 62
     7
 10
305.9748160512
 20
-60.1324373507
 30
0.0
  0
VERTEX
  5
703
  8
0
  6
CONTINUOUS
 62
     7
 10
306.0569989354
 20
-60.1786354207
 30
0.0
  0
VERTEX
  5
704
  8
0
  6
CONTINUOUS
 62
     7
 10
306.0864197881
 20
-60.1968699717
 30
0.0
  0
VERTEX
  5
705
  8
0
  6
CONTINUOUS
 62
     7
 10
306.0842203767
 20
-60.1952680968
 30
0.0
  0
SEQEND
  5
AA5
  8
0
  6
CONTINUOUS
 62
     7
  0
LINE
  5
24B
  8
0
  6
CONTINUOUS
 62
     7
 10
269.6155774267
 20
-50.1367726945
 30
0.0
 11
269.6155774267
 21
-50.49474478
 31
0.0
  0
LINE
  5
24C
  8
0
  6
CONTINUOUS
 62
     7
 10
271.6155814798
 20
-50.49474478
 30
0.0
 11
271.6155814798
 21
-50.1367726945
 31
0.0
  0
ARC
  5
24D
  8
0
  6
CONTINUOUS
 62
     7
 10
270.6155809433
 20
-240.5435427731
 30
0.0
 40
184.6915014406567
 50
82.2647833754
 51
97.7352166246
  0
LINE
  5
24E
  8
0
  6
CONTINUOUS
 62
     7
 10
230.5568235786
 20
-58.426498773
 30
0.0
 11
230.5568235786
 21
-63.3012728416
 31
0.0
  0
LINE
  5
24F
  8
0
  6
CONTINUOUS
 62
     7
 10
310.6743383081
 20
-63.3012728416
 30
0.0
 11
310.6743383081
 21
-58.426498773
 31
0.0
  0
POLYLINE
  5
250
  8
0
  6
CONTINUOUS
 62
     7
 66
     1
 10
0.0
 20
0.0
 30
0.0
  0
VERTEX
  5
706
  8
0
  6
CONTINUOUS
 62
     7
 10
295.4741167695
 20
-65.4080943786
 30
0.0
  0
VERTEX
  5
707
  8
0
  6
CONTINUOUS
 62
     7
 10
296.250765291
 20
-65.512299689
 30
0.0
  0
VERTEX
  5
708
  8
0
  6
CONTINUOUS
 62
     7
 10
297.1331941755
 20
-65.6270721578
 30
0.0
  0
VERTEX
  5
709
  8
0
  6
CONTINUOUS
 62
     7
 10
298.005126682
 20
-65.7368728541
 30
0.0
  0
VERTEX
  5
70A
  8
0
  6
CONTINUOUS
 62
     7
 10
298.8626229436
 20
-65.8411295735
 30
0.0
  0
VERTEX
  5
70B
  8
0
  6
CONTINUOUS
 62
     7
 10
299.6985006006
 20
-65.9386494779
 30
0.0
  0
VERTEX
  5
70C
  8
0
  6
CONTINUOUS
 62
     7
 10
300.5199420125
 20
-66.0299652838
 30
0.0
  0
VERTEX
  5
70D
  8
0
  6
CONTINUOUS
 62
     7
 10
301.3261246354
 20
-66.1145308637
 30
0.0
  0
VERTEX
  5
70E
  8
0
  6
CONTINUOUS
 62
     7
 10
302.1106469304
 20
-66.1911354982
 30
0.0
  0
VERTEX
  5
70F
  8
0
  6
CONTINUOUS
 62
     7
 10
302.8674292238
 20
-66.2586087011
 30
0.0
  0
VERTEX
  5
710
  8
0
  6
CONTINUOUS
 62
     7
 10
303.5911547811
 20
-66.3158388459
 30
0.0
  0
VERTEX
  5
711
  8
0
  6
CONTINUOUS
 62
     7
 10
304.2777406843
 20
-66.3617657148
 30
0.0
  0
VERTEX
  5
712
  8
0
  6
CONTINUOUS
 62
     7
 10
304.9259292753
 20
-66.3954006158
 30
0.0
  0
VERTEX
  5
713
  8
0
  6
CONTINUOUS
 62
     7
 10
305.5439698369
 20
-66.4160305285
 30
0.0
  0
VERTEX
  5
714
  8
0
  6
CONTINUOUS
 62
     7
 10
306.1369585664
 20
-66.4218740188
 30
0.0
  0
VERTEX
  5
715
  8
0
  6
CONTINUOUS
 62
     7
 10
306.7134248884
 20
-66.4094643318
 30
0.0
  0
VERTEX
  5
716
  8
0
  6
CONTINUOUS
 62
     7
 10
307.2953688772
 20
-66.3706766092
 30
0.0
  0
VERTEX
  5
717
  8
0
  6
CONTINUOUS
 62
     7
 10
307.8581082494
 20
-66.2950800382
 30
0.0
  0
VERTEX
  5
718
  8
0
  6
CONTINUOUS
 62
     7
 10
308.2240390451
 20
-66.216490569
 30
0.0
  0
VERTEX
  5
719
  8
0
  6
CONTINUOUS
 62
     7
 10
308.5616874368
 20
-66.1158637725
 30
0.0
  0
VERTEX
  5
71A
  8
0
  6
CONTINUOUS
 62
     7
 10
308.87458798
 20
-65.992060455
 30
0.0
  0
VERTEX
  5
71B
  8
0
  6
CONTINUOUS
 62
     7
 10
309.1763424547
 20
-65.8379362547
 30
0.0
  0
VERTEX
  5
71C
  8
0
  6
CONTINUOUS
 62
     7
 10
309.4692992837
 20
-65.6471768045
 30
0.0
  0
VERTEX
  5
71D
  8
0
  6
CONTINUOUS
 62
     7
 10
309.7498166234
 20
-65.4148319387
 30
0.0
  0
VERTEX
  5
71E
  8
0
  6
CONTINUOUS
 62
     7
 10
310.0093114049
 20
-65.1394592249
 30
0.0
  0
VERTEX
  5
71F
  8
0
  6
CONTINUOUS
 62
     7
 10
310.2372872503
 20
-64.8236879729
 30
0.0
  0
VERTEX
  5
720
  8
0
  6
CONTINUOUS
 62
     7
 10
310.4240464837
 20
-64.4733817898
 30
0.0
  0
VERTEX
  5
721
  8
0
  6
CONTINUOUS
 62
     7
 10
310.5738210351
 20
-64.0546837472
 30
0.0
  0
VERTEX
  5
722
  8
0
  6
CONTINUOUS
 62
     7
 10
310.5996417672
 20
-63.920824381
 30
0.0
  0
SEQEND
  5
AA4
  8
0
  6
CONTINUOUS
 62
     7
  0
POLYLINE
  5
251
  8
0
  6
CONTINUOUS
 62
     7
 66
     1
 10
0.0
 20
0.0
 30
0.0
  0
VERTEX
  5
723
  8
0
  6
CONTINUOUS
 62
     7
 10
230.6263777287
 20
-63.9214979135
 30
0.0
  0
VERTEX
  5
724
  8
0
  6
CONTINUOUS
 62
     7
 10
230.6273209722
 20
-63.9280082308
 30
0.0
  0
VERTEX
  5
725
  8
0
  6
CONTINUOUS
 62
     7
 10
230.7501557143
 20
-64.3334248685
 30
0.0
  0
VERTEX
  5
726
  8
0
  6
CONTINUOUS
 62
     7
 10
230.9233221085
 20
-64.7023358964
 30
0.0
  0
VERTEX
  5
727
  8
0
  6
CONTINUOUS
 62
     7
 10
231.1368527682
 20
-65.030396136
 30
0.0
  0
VERTEX
  5
728
  8
0
  6
CONTINUOUS
 62
     7
 10
231.3808011682
 20
-65.315383824
 30
0.0
  0
VERTEX
  5
729
  8
0
  6
CONTINUOUS
 62
     7
 10
231.6454934747
 20
-65.556983056
 30
0.0
  0
VERTEX
  5
72A
  8
0
  6
CONTINUOUS
 62
     7
 10
231.9224822194
 20
-65.7570914947
 30
0.0
  0
VERTEX
  5
72B
  8
0
  6
CONTINUOUS
 62
     7
 10
232.2062748344
 20
-65.9199179732
 30
0.0
  0
VERTEX
  5
72C
  8
0
  6
CONTINUOUS
 62
     7
 10
232.4962201388
 20
-66.0513618611
 30
0.0
  0
VERTEX
  5
72D
  8
0
  6
CONTINUOUS
 62
     7
 10
232.7995004923
 20
-66.1582456552
 30
0.0
  0
VERTEX
  5
72E
  8
0
  6
CONTINUOUS
 62
     7
 10
233.1330257327
 20
-66.2464895867
 30
0.0
  0
VERTEX
  5
72F
  8
0
  6
CONTINUOUS
 62
     7
 10
233.4902020962
 20
-66.3142570876
 30
0.0
  0
VERTEX
  5
730
  8
0
  6
CONTINUOUS
 62
     7
 10
233.9557695062
 20
-66.3717383169
 30
0.0
  0
VERTEX
  5
731
  8
0
  6
CONTINUOUS
 62
     7
 10
234.6222492726
 20
-66.4124408387
 30
0.0
  0
VERTEX
  5
732
  8
0
  6
CONTINUOUS
 62
     7
 10
235.1956012518
 20
-66.4213524782
 30
0.0
  0
VERTEX
  5
733
  8
0
  6
CONTINUOUS
 62
     7
 10
235.776241389
 20
-66.4134958409
 30
0.0
  0
VERTEX
  5
734
  8
0
  6
CONTINUOUS
 62
     7
 10
236.4340471895
 20
-66.3895079517
 30
0.0
  0
VERTEX
  5
735
  8
0
  6
CONTINUOUS
 62
     7
 10
237.1079760463
 20
-66.3522572838
 30
0.0
  0
VERTEX
  5
736
  8
0
  6
CONTINUOUS
 62
     7
 10
237.8113287361
 20
-66.3031303906
 30
0.0
  0
VERTEX
  5
737
  8
0
  6
CONTINUOUS
 62
     7
 10
238.5464030177
 20
-66.2431956851
 30
0.0
  0
VERTEX
  5
738
  8
0
  6
CONTINUOUS
 62
     7
 10
239.3116789729
 20
-66.1733323359
 30
0.0
  0
VERTEX
  5
739
  8
0
  6
CONTINUOUS
 62
     7
 10
240.104709831
 20
-66.0943733179
 30
0.0
  0
VERTEX
  5
73A
  8
0
  6
CONTINUOUS
 62
     7
 10
240.9221875341
 20
-66.0071754479
 30
0.0
  0
VERTEX
  5
73B
  8
0
  6
CONTINUOUS
 62
     7
 10
241.7602765233
 20
-65.9126201295
 30
0.0
  0
VERTEX
  5
73C
  8
0
  6
CONTINUOUS
 62
     7
 10
242.6148521573
 20
-65.8116073929
 30
0.0
  0
VERTEX
  5
73D
  8
0
  6
CONTINUOUS
 62
     7
 10
243.4802400739
 20
-65.7052466296
 30
0.0
  0
VERTEX
  5
73E
  8
0
  6
CONTINUOUS
 62
     7
 10
244.3517136247
 20
-65.5944877886
 30
0.0
  0
VERTEX
  5
73F
  8
0
  6
CONTINUOUS
 62
     7
 10
245.231290427
 20
-65.4790917062
 30
0.0
  0
VERTEX
  5
740
  8
0
  6
CONTINUOUS
 62
     7
 10
245.7571017415
 20
-65.4079483472
 30
0.0
  0
SEQEND
  5
AA3
  8
0
  6
CONTINUOUS
 62
     7
  0
POLYLINE
  5
252
  8
0
  6
CONTINUOUS
 62
     7
 66
     1
 10
0.0
 20
0.0
 30
0.0
  0
VERTEX
  5
741
  8
0
  6
CONTINUOUS
 62
     7
 10
310.6131362588
 20
-63.8508909964
 30
0.0
  0
VERTEX
  5
742
  8
0
  6
CONTINUOUS
 62
     7
 10
310.6556343706
 20
-63.6305922293
 30
0.0
  0
VERTEX
  5
743
  8
0
  6
CONTINUOUS
 62
     7
 10
310.6696414621
 20
-63.3021266781
 30
0.0
  0
SEQEND
  5
AA2
  8
0
  6
CONTINUOUS
 62
     7
  0
POLYLINE
  5
253
  8
0
  6
CONTINUOUS
 62
     7
 66
     1
 10
0.0
 20
0.0
 30
0.0
  0
VERTEX
  5
744
  8
0
  6
CONTINUOUS
 62
     7
 10
230.5649745138
 20
-63.2949070655
 30
0.0
  0
VERTEX
  5
745
  8
0
  6
CONTINUOUS
 62
     7
 10
230.5645557911
 20
-63.494755479
 30
0.0
  0
VERTEX
  5
746
  8
0
  6
CONTINUOUS
 62
     7
 10
230.6263777287
 20
-63.9214979135
 30
0.0
  0
SEQEND
  5
AA1
  8
0
  6
CONTINUOUS
 62
     7
  0
ARC
  5
254
  8
0
  6
CONTINUOUS
 62
     7
 10
270.6155809433
 20
-248.4186723431
 30
0.0
 40
184.6914342469474
 50
82.264780544
 51
97.735219456
  0
POLYLINE
  5
255
  8
0
  6
CONTINUOUS
 62
     7
 66
     1
 10
0.0
 20
0.0
 30
0.0
  0
VERTEX
  5
747
  8
0
  6
CONTINUOUS
 62
     7
 10
365.0328206689
 20
-52.2030541324
 30
0.0
  0
VERTEX
  5
748
  8
0
  6
CONTINUOUS
 62
     7
 10
364.2367171914
 20
-52.3150289082
 30
0.0
  0
VERTEX
  5
749
  8
0
  6
CONTINUOUS
 62
     7
 10
363.330023256
 20
-52.454825642
 30
0.0
  0
VERTEX
  5
74A
  8
0
  6
CONTINUOUS
 62
     7
 10
362.4327826173
 20
-52.605609002
 30
0.0
  0
VERTEX
  5
74B
  8
0
  6
CONTINUOUS
 62
     7
 10
361.5496086747
 20
-52.7667248272
 30
0.0
  0
VERTEX
  5
74C
  8
0
  6
CONTINUOUS
 62
     7
 10
360.6950926454
 20
-52.9349827789
 30
0.0
  0
VERTEX
  5
74D
  8
0
  6
CONTINUOUS
 62
     7
 10
359.8561572702
 20
-53.1122648739
 30
0.0
  0
VERTEX
  5
74E
  8
0
  6
CONTINUOUS
 62
     7
 10
359.0340780885
 20
-53.2981121563
 30
0.0
  0
VERTEX
  5
74F
  8
0
  6
CONTINUOUS
 62
     7
 10
358.2349824579
 20
-53.4910672926
 30
0.0
  0
VERTEX
  5
750
  8
0
  6
CONTINUOUS
 62
     7
 10
357.4646997125
 20
-53.6896729492
 30
0.0
  0
VERTEX
  5
751
  8
0
  6
CONTINUOUS
 62
     7
 10
356.7284750612
 20
-53.8925850414
 30
0.0
  0
VERTEX
  5
752
  8
0
  6
CONTINUOUS
 62
     7
 10
356.0305285127
 20
-54.0987768792
 30
0.0
  0
VERTEX
  5
753
  8
0
  6
CONTINUOUS
 62
     7
 10
355.3763317735
 20
-54.3064186
 30
0.0
  0
VERTEX
  5
754
  8
0
  6
CONTINUOUS
 62
     7
 10
354.7771501214
 20
-54.5109921717
 30
0.0
  0
VERTEX
  5
755
  8
0
  6
CONTINUOUS
 62
     7
 10
354.1929411561
 20
-54.7269323491
 30
0.0
  0
VERTEX
  5
756
  8
0
  6
CONTINUOUS
 62
     7
 10
353.6395120294
 20
-54.9509832286
 30
0.0
  0
VERTEX
  5
757
  8
0
  6
CONTINUOUS
 62
     7
 10
353.109185663
 20
-55.190111103
 30
0.0
  0
VERTEX
  5
758
  8
0
  6
CONTINUOUS
 62
     7
 10
352.5832342775
 20
-55.4622182273
 30
0.0
  0
VERTEX
  5
759
  8
0
  6
CONTINUOUS
 62
     7
 10
352.1415280969
 20
-55.7330259704
 30
0.0
  0
VERTEX
  5
75A
  8
0
  6
CONTINUOUS
 62
     7
 10
351.8369006784
 20
-55.9550458216
 30
0.0
  0
VERTEX
  5
75B
  8
0
  6
CONTINUOUS
 62
     7
 10
351.5773701341
 20
-56.1780774616
 30
0.0
  0
VERTEX
  5
75C
  8
0
  6
CONTINUOUS
 62
     7
 10
351.3430642755
 20
-56.4181917929
 30
0.0
  0
VERTEX
  5
75D
  8
0
  6
CONTINUOUS
 62
     7
 10
351.1306214006
 20
-56.6829392337
 30
0.0
  0
VERTEX
  5
75E
  8
0
  6
CONTINUOUS
 62
     7
 10
350.9410190255
 20
-56.9789746427
 30
0.0
  0
VERTEX
  5
75F
  8
0
  6
CONTINUOUS
 62
     7
 10
350.7803964288
 20
-57.3085287236
 30
0.0
  0
VERTEX
  5
760
  8
0
  6
CONTINUOUS
 62
     7
 10
350.657539335
 20
-57.6686137938
 30
0.0
  0
VERTEX
  5
761
  8
0
  6
CONTINUOUS
 62
     7
 10
350.5808996827
 20
-58.0520147108
 30
0.0
  0
VERTEX
  5
762
  8
0
  6
CONTINUOUS
 62
     7
 10
350.5585240991
 20
-58.417978289
 30
0.0
  0
SEQEND
  5
AA0
  8
0
  6
CONTINUOUS
 62
     7
  0
POLYLINE
  5
256
  8
0
  6
CONTINUOUS
 62
     7
 66
     1
 10
0.0
 20
0.0
 30
0.0
  0
VERTEX
  5
763
  8
0
  6
CONTINUOUS
 62
     7
 10
430.6687521608
 20
-58.4307664656
 30
0.0
  0
VERTEX
  5
764
  8
0
  6
CONTINUOUS
 62
     7
 10
430.6723522813
 20
-58.3575063967
 30
0.0
  0
VERTEX
  5
765
  8
0
  6
CONTINUOUS
 62
     7
 10
430.635158983
 20
-57.9586485051
 30
0.0
  0
VERTEX
  5
766
  8
0
  6
CONTINUOUS
 62
     7
 10
430.548231569
 20
-57.5842374586
 30
0.0
  0
VERTEX
  5
767
  8
0
  6
CONTINUOUS
 62
     7
 10
430.4201292665
 20
-57.2395125054
 30
0.0
  0
VERTEX
  5
768
  8
0
  6
CONTINUOUS
 62
     7
 10
430.2596974046
 20
-56.9276297115
 30
0.0
  0
VERTEX
  5
769
  8
0
  6
CONTINUOUS
 62
     7
 10
430.0750183732
 20
-56.6488677286
 30
0.0
  0
VERTEX
  5
76A
  8
0
  6
CONTINUOUS
 62
     7
 10
429.8714565904
 20
-56.4000168466
 30
0.0
  0
VERTEX
  5
76B
  8
0
  6
CONTINUOUS
 62
     7
 10
429.649870363
 20
-56.1745712184
 30
0.0
  0
VERTEX
  5
76C
  8
0
  6
CONTINUOUS
 62
     7
 10
429.4047283799
 20
-55.963380041
 30
0.0
  0
VERTEX
  5
76D
  8
0
  6
CONTINUOUS
 62
     7
 10
429.1185068757
 20
-55.752680602
 30
0.0
  0
VERTEX
  5
76E
  8
0
  6
CONTINUOUS
 62
     7
 10
428.7455248506
 20
-55.5184373283
 30
0.0
  0
VERTEX
  5
76F
  8
0
  6
CONTINUOUS
 62
     7
 10
428.2657074601
 20
-55.2611896419
 30
0.0
  0
VERTEX
  5
770
  8
0
  6
CONTINUOUS
 62
     7
 10
427.7343678148
 20
-55.0135949277
 30
0.0
  0
VERTEX
  5
771
  8
0
  6
CONTINUOUS
 62
     7
 10
427.1972345979
 20
-54.7899508499
 30
0.0
  0
VERTEX
  5
772
  8
0
  6
CONTINUOUS
 62
     7
 10
426.579062906
 20
-54.5562171959
 30
0.0
  0
VERTEX
  5
773
  8
0
  6
CONTINUOUS
 62
     7
 10
425.9409117372
 20
-54.3350601219
 30
0.0
  0
VERTEX
  5
774
  8
0
  6
CONTINUOUS
 62
     7
 10
425.2780365617
 20
-54.1225889348
 30
0.0
  0
VERTEX
  5
775
  8
0
  6
CONTINUOUS
 62
     7
 10
424.5909142167
 20
-53.9177233004
 30
0.0
  0
VERTEX
  5
776
  8
0
  6
CONTINUOUS
 62
     7
 10
423.8578247697
 20
-53.7136995815
 30
0.0
  0
VERTEX
  5
777
  8
0
  6
CONTINUOUS
 62
     7
 10
423.0916189821
 20
-53.5143205546
 30
0.0
  0
VERTEX
  5
778
  8
0
  6
CONTINUOUS
 62
     7
 10
422.294776407
 20
-53.3202999853
 30
0.0
  0
VERTEX
  5
779
  8
0
  6
CONTINUOUS
 62
     7
 10
421.4704680116
 20
-53.1325885676
 30
0.0
  0
VERTEX
  5
77A
  8
0
  6
CONTINUOUS
 62
     7
 10
420.6223416002
 20
-52.9522711062
 30
0.0
  0
VERTEX
  5
77B
  8
0
  6
CONTINUOUS
 62
     7
 10
419.7543549211
 20
-52.7804711484
 30
0.0
  0
VERTEX
  5
77C
  8
0
  6
CONTINUOUS
 62
     7
 10
418.8706802995
 20
-52.6183152222
 30
0.0
  0
VERTEX
  5
77D
  8
0
  6
CONTINUOUS
 62
     7
 10
417.9808783204
 20
-52.4676361703
 30
0.0
  0
VERTEX
  5
77E
  8
0
  6
CONTINUOUS
 62
     7
 10
417.0793461473
 20
-52.3273775004
 30
0.0
  0
VERTEX
  5
77F
  8
0
  6
CONTINUOUS
 62
     7
 10
416.1984371812
 20
-52.2022435092
 30
0.0
  0
SEQEND
  5
A9F
  8
0
  6
CONTINUOUS
 62
     7
  0
ARC
  5
257
  8
0
  6
CONTINUOUS
 62
     7
 10
390.493129284
 20
-239.2943819488
 30
0.0
 40
188.8172303875922
 50
90.2488982536
 51
97.7494271563
  0
ARC
  5
258
  8
0
  6
CONTINUOUS
 62
     7
 10
390.8224404699
 20
-238.3857798547
 30
0.0
 40
187.9055487928422
 50
82.2387174998
 51
89.7798336298
  0
POLYLINE
  5
259
  8
0
  6
CONTINUOUS
 62
     7
 66
     1
 10
0.0
 20
0.0
 30
0.0
  0
VERTEX
  5
780
  8
0
  6
CONTINUOUS
 62
     7
 10
355.1516341836
 20
-60.1920539164
 30
0.0
  0
VERTEX
  5
781
  8
0
  6
CONTINUOUS
 62
     7
 10
355.1501559884
 20
-60.1931834244
 30
0.0
  0
VERTEX
  5
782
  8
0
  6
CONTINUOUS
 62
     7
 10
355.1905679376
 20
-60.1685801171
 30
0.0
  0
VERTEX
  5
783
  8
0
  6
CONTINUOUS
 62
     7
 10
355.2820133836
 20
-60.1181054138
 30
0.0
  0
VERTEX
  5
784
  8
0
  6
CONTINUOUS
 62
     7
 10
355.4312276513
 20
-60.0432091974
 30
0.0
  0
VERTEX
  5
785
  8
0
  6
CONTINUOUS
 62
     7
 10
355.6432890565
 20
-59.945906105
 30
0.0
  0
VERTEX
  5
786
  8
0
  6
CONTINUOUS
 62
     7
 10
355.9208202035
 20
-59.8288410925
 30
0.0
  0
VERTEX
  5
787
  8
0
  6
CONTINUOUS
 62
     7
 10
356.2639999063
 20
-59.6951106214
 30
0.0
  0
VERTEX
  5
788
  8
0
  6
CONTINUOUS
 62
     7
 10
356.6708612115
 20
-59.5479810261
 30
0.0
  0
VERTEX
  5
789
  8
0
  6
CONTINUOUS
 62
     7
 10
357.1379470498
 20
-59.3906664871
 30
0.0
  0
VERTEX
  5
78A
  8
0
  6
CONTINUOUS
 62
     7
 10
357.6605844171
 20
-59.226266446
 30
0.0
  0
VERTEX
  5
78B
  8
0
  6
CONTINUOUS
 62
     7
 10
358.2358646066
 20
-59.0572172426
 30
0.0
  0
VERTEX
  5
78C
  8
0
  6
CONTINUOUS
 62
     7
 10
358.8447856576
 20
-58.8896521949
 30
0.0
  0
VERTEX
  5
78D
  8
0
  6
CONTINUOUS
 62
     7
 10
359.5054196985
 20
-58.7190294289
 30
0.0
  0
VERTEX
  5
78E
  8
0
  6
CONTINUOUS
 62
     7
 10
360.210900274
 20
-58.5480758571
 30
0.0
  0
VERTEX
  5
78F
  8
0
  6
CONTINUOUS
 62
     7
 10
360.9538721711
 20
-58.379376831
 30
0.0
  0
VERTEX
  5
790
  8
0
  6
CONTINUOUS
 62
     7
 10
361.7263245256
 20
-58.215440216
 30
0.0
  0
VERTEX
  5
791
  8
0
  6
CONTINUOUS
 62
     7
 10
362.5184344919
 20
-58.0588975572
 30
0.0
  0
VERTEX
  5
792
  8
0
  6
CONTINUOUS
 62
     7
 10
363.3216905267
 20
-57.9118305468
 30
0.0
  0
VERTEX
  5
793
  8
0
  6
CONTINUOUS
 62
     7
 10
364.1323375375
 20
-57.7749618911
 30
0.0
  0
VERTEX
  5
794
  8
0
  6
CONTINUOUS
 62
     7
 10
364.9614143045
 20
-57.6463663601
 30
0.0
  0
VERTEX
  5
795
  8
0
  6
CONTINUOUS
 62
     7
 10
365.7572674424
 20
-57.5336539768
 30
0.0
  0
SEQEND
  5
A9E
  8
0
  6
CONTINUOUS
 62
     7
  0
POLYLINE
  5
25A
  8
0
  6
CONTINUOUS
 62
     7
 66
     1
 10
0.0
 20
0.0
 30
0.0
  0
VERTEX
  5
796
  8
0
  6
CONTINUOUS
 62
     7
 10
415.473930803
 20
-57.534027996
 30
0.0
  0
VERTEX
  5
797
  8
0
  6
CONTINUOUS
 62
     7
 10
416.1338972719
 20
-57.6261231326
 30
0.0
  0
VERTEX
  5
798
  8
0
  6
CONTINUOUS
 62
     7
 10
416.9713186891
 20
-57.7543431543
 30
0.0
  0
VERTEX
  5
799
  8
0
  6
CONTINUOUS
 62
     7
 10
417.8005146653
 20
-57.8927674913
 30
0.0
  0
VERTEX
  5
79A
  8
0
  6
CONTINUOUS
 62
     7
 10
418.6149525316
 20
-58.0402934574
 30
0.0
  0
VERTEX
  5
79B
  8
0
  6
CONTINUOUS
 62
     7
 10
419.4037842424
 20
-58.1944906735
 30
0.0
  0
VERTEX
  5
79C
  8
0
  6
CONTINUOUS
 62
     7
 10
420.1719212205
 20
-58.3557510399
 30
0.0
  0
VERTEX
  5
79D
  8
0
  6
CONTINUOUS
 62
     7
 10
420.9155726106
 20
-58.5228958749
 30
0.0
  0
VERTEX
  5
79E
  8
0
  6
CONTINUOUS
 62
     7
 10
421.6287064226
 20
-58.6941683315
 30
0.0
  0
VERTEX
  5
79F
  8
0
  6
CONTINUOUS
 62
     7
 10
422.3053145082
 20
-58.8676372193
 30
0.0
  0
VERTEX
  5
7A0
  8
0
  6
CONTINUOUS
 62
     7
 10
422.939603296
 20
-59.0412357473
 30
0.0
  0
VERTEX
  5
7A1
  8
0
  6
CONTINUOUS
 62
     7
 10
423.5259461076
 20
-59.2127227806
 30
0.0
  0
VERTEX
  5
7A2
  8
0
  6
CONTINUOUS
 62
     7
 10
424.0593361528
 20
-59.3797543668
 30
0.0
  0
VERTEX
  5
7A3
  8
0
  6
CONTINUOUS
 62
     7
 10
424.5386767061
 20
-59.5407956862
 30
0.0
  0
VERTEX
  5
7A4
  8
0
  6
CONTINUOUS
 62
     7
 10
424.9648499162
 20
-59.6948990249
 30
0.0
  0
VERTEX
  5
7A5
  8
0
  6
CONTINUOUS
 62
     7
 10
425.3306078584
 20
-59.837984445
 30
0.0
  0
VERTEX
  5
7A6
  8
0
  6
CONTINUOUS
 62
     7
 10
425.6292271287
 20
-59.9652165197
 30
0.0
  0
VERTEX
  5
7A7
  8
0
  6
CONTINUOUS
 62
     7
 10
425.8334326417
 20
-60.0603246712
 30
0.0
  0
VERTEX
  5
7A8
  8
0
  6
CONTINUOUS
 62
     7
 10
425.9748148591
 20
-60.1324373507
 30
0.0
  0
VERTEX
  5
7A9
  8
0
  6
CONTINUOUS
 62
     7
 10
426.0569977434
 20
-60.1786354207
 30
0.0
  0
VERTEX
  5
7AA
  8
0
  6
CONTINUOUS
 62
     7
 10
426.086418596
 20
-60.1968699717
 30
0.0
  0
VERTEX
  5
7AB
  8
0
  6
CONTINUOUS
 62
     7
 10
426.0842251451
 20
-60.1952680968
 30
0.0
  0
SEQEND
  5
A9D
  8
0
  6
CONTINUOUS
 62
     7
  0
LINE
  5
25B
  8
0
  6
CONTINUOUS
 62
     7
 10
389.6155762346
 20
-50.1367726945
 30
0.0
 11
389.6155762346
 21
-50.49474478
 31
0.0
  0
LINE
  5
25C
  8
0
  6
CONTINUOUS
 62
     7
 10
391.6155743272
 20
-50.49474478
 30
0.0
 11
391.6155743272
 21
-50.1367726945
 31
0.0
  0
ARC
  5
25D
  8
0
  6
CONTINUOUS
 62
     7
 10
390.6155752809
 20
-240.5433771596
 30
0.0
 40
184.6913363312878
 50
82.2647787506
 51
97.7352212494
  0
LINE
  5
25E
  8
0
  6
CONTINUOUS
 62
     7
 10
430.6743311555
 20
-63.3012728416
 30
0.0
 11
430.6743311555
 21
-58.426498773
 31
0.0
  0
LINE
  5
25F
  8
0
  6
CONTINUOUS
 62
     7
 10
350.5568194063
 20
-58.426498773
 30
0.0
 11
350.5568194063
 21
-63.3012728416
 31
0.0
  0
POLYLINE
  5
260
  8
0
  6
CONTINUOUS
 62
     7
 66
     1
 10
0.0
 20
0.0
 30
0.0
  0
VERTEX
  5
7AC
  8
0
  6
CONTINUOUS
 62
     7
 10
415.4741215379
 20
-65.4080943786
 30
0.0
  0
VERTEX
  5
7AD
  8
0
  6
CONTINUOUS
 62
     7
 10
416.2507700593
 20
-65.512299689
 30
0.0
  0
VERTEX
  5
7AE
  8
0
  6
CONTINUOUS
 62
     7
 10
417.1332049043
 20
-65.6270721578
 30
0.0
  0
VERTEX
  5
7AF
  8
0
  6
CONTINUOUS
 62
     7
 10
418.0051254899
 20
-65.7368728541
 30
0.0
  0
VERTEX
  5
7B0
  8
0
  6
CONTINUOUS
 62
     7
 10
418.8626217515
 20
-65.8411295735
 30
0.0
  0
VERTEX
  5
7B1
  8
0
  6
CONTINUOUS
 62
     7
 10
419.698493448
 20
-65.9386494779
 30
0.0
  0
VERTEX
  5
7B2
  8
0
  6
CONTINUOUS
 62
     7
 10
420.5199408204
 20
-66.0299652838
 30
0.0
  0
VERTEX
  5
7B3
  8
0
  6
CONTINUOUS
 62
     7
 10
421.3261294038
 20
-66.1145308637
 30
0.0
  0
VERTEX
  5
7B4
  8
0
  6
CONTINUOUS
 62
     7
 10
422.1106457383
 20
-66.1911354982
 30
0.0
  0
VERTEX
  5
7B5
  8
0
  6
CONTINUOUS
 62
     7
 10
422.8674339921
 20
-66.2586087011
 30
0.0
  0
VERTEX
  5
7B6
  8
0
  6
CONTINUOUS
 62
     7
 10
423.591153589
 20
-66.3158388459
 30
0.0
  0
VERTEX
  5
7B7
  8
0
  6
CONTINUOUS
 62
     7
 10
424.2777275712
 20
-66.3617657148
 30
0.0
  0
VERTEX
  5
7B8
  8
0
  6
CONTINUOUS
 62
     7
 10
424.9259161622
 20
-66.3954006158
 30
0.0
  0
VERTEX
  5
7B9
  8
0
  6
CONTINUOUS
 62
     7
 10
425.5439686448
 20
-66.4160305285
 30
0.0
  0
VERTEX
  5
7BA
  8
0
  6
CONTINUOUS
 62
     7
 10
426.1369633348
 20
-66.4218740188
 30
0.0
  0
VERTEX
  5
7BB
  8
0
  6
CONTINUOUS
 62
     7
 10
426.7134117753
 20
-66.4094643318
 30
0.0
  0
VERTEX
  5
7BC
  8
0
  6
CONTINUOUS
 62
     7
 10
427.2953676851
 20
-66.3706766092
 30
0.0
  0
VERTEX
  5
7BD
  8
0
  6
CONTINUOUS
 62
     7
 10
427.8581070573
 20
-66.2950800382
 30
0.0
  0
VERTEX
  5
7BE
  8
0
  6
CONTINUOUS
 62
     7
 10
428.2240318925
 20
-66.216490569
 30
0.0
  0
VERTEX
  5
7BF
  8
0
  6
CONTINUOUS
 62
     7
 10
428.5616802842
 20
-66.1158637725
 30
0.0
  0
VERTEX
  5
7C0
  8
0
  6
CONTINUOUS
 62
     7
 10
428.8745808275
 20
-65.992060455
 30
0.0
  0
VERTEX
  5
7C1
  8
0
  6
CONTINUOUS
 62
     7
 10
429.176347223
 20
-65.8379362547
 30
0.0
  0
VERTEX
  5
7C2
  8
0
  6
CONTINUOUS
 62
     7
 10
429.4692921312
 20
-65.6471768045
 30
0.0
  0
VERTEX
  5
7C3
  8
0
  6
CONTINUOUS
 62
     7
 10
429.7498154313
 20
-65.4148319387
 30
0.0
  0
VERTEX
  5
7C4
  8
0
  6
CONTINUOUS
 62
     7
 10
430.0093102128
 20
-65.1394592249
 30
0.0
  0
VERTEX
  5
7C5
  8
0
  6
CONTINUOUS
 62
     7
 10
430.2372860582
 20
-64.8236879729
 30
0.0
  0
VERTEX
  5
7C6
  8
0
  6
CONTINUOUS
 62
     7
 10
430.4240393312
 20
-64.4733817898
 30
0.0
  0
VERTEX
  5
7C7
  8
0
  6
CONTINUOUS
 62
     7
 10
430.5738138826
 20
-64.0546837472
 30
0.0
  0
VERTEX
  5
7C8
  8
0
  6
CONTINUOUS
 62
     7
 10
430.5996346147
 20
-63.920824381
 30
0.0
  0
SEQEND
  5
A9C
  8
0
  6
CONTINUOUS
 62
     7
  0
POLYLINE
  5
261
  8
0
  6
CONTINUOUS
 62
     7
 66
     1
 10
0.0
 20
0.0
 30
0.0
  0
VERTEX
  5
7C9
  8
0
  6
CONTINUOUS
 62
     7
 10
350.6263780267
 20
-63.9214979135
 30
0.0
  0
VERTEX
  5
7CA
  8
0
  6
CONTINUOUS
 62
     7
 10
350.6273197801
 20
-63.9280082308
 30
0.0
  0
VERTEX
  5
7CB
  8
0
  6
CONTINUOUS
 62
     7
 10
350.750153032
 20
-64.3334248685
 30
0.0
  0
VERTEX
  5
7CC
  8
0
  6
CONTINUOUS
 62
     7
 10
350.9233164461
 20
-64.7023358964
 30
0.0
  0
VERTEX
  5
7CD
  8
0
  6
CONTINUOUS
 62
     7
 10
351.1368560464
 20
-65.030396136
 30
0.0
  0
VERTEX
  5
7CE
  8
0
  6
CONTINUOUS
 62
     7
 10
351.3808059366
 20
-65.315383824
 30
0.0
  0
VERTEX
  5
7CF
  8
0
  6
CONTINUOUS
 62
     7
 10
351.6454982431
 20
-65.556983056
 30
0.0
  0
VERTEX
  5
7D0
  8
0
  6
CONTINUOUS
 62
     7
 10
351.9224810273
 20
-65.7570914947
 30
0.0
  0
VERTEX
  5
7D1
  8
0
  6
CONTINUOUS
 62
     7
 10
352.2062706621
 20
-65.9199179732
 30
0.0
  0
VERTEX
  5
7D2
  8
0
  6
CONTINUOUS
 62
     7
 10
352.496223417
 20
-66.0513618611
 30
0.0
  0
VERTEX
  5
7D3
  8
0
  6
CONTINUOUS
 62
     7
 10
352.7995037706
 20
-66.1582456552
 30
0.0
  0
VERTEX
  5
7D4
  8
0
  6
CONTINUOUS
 62
     7
 10
353.1330275209
 20
-66.2464895867
 30
0.0
  0
VERTEX
  5
7D5
  8
0
  6
CONTINUOUS
 62
     7
 10
353.4902023942
 20
-66.3142570876
 30
0.0
  0
VERTEX
  5
7D6
  8
0
  6
CONTINUOUS
 62
     7
 10
353.9557742746
 20
-66.3717383169
 30
0.0
  0
VERTEX
  5
7D7
  8
0
  6
CONTINUOUS
 62
     7
 10
354.6222495706
 20
-66.4124408387
 30
0.0
  0
VERTEX
  5
7D8
  8
0
  6
CONTINUOUS
 62
     7
 10
355.1955985696
 20
-66.4213524782
 30
0.0
  0
VERTEX
  5
7D9
  8
0
  6
CONTINUOUS
 62
     7
 10
355.7762431772
 20
-66.4134958409
 30
0.0
  0
VERTEX
  5
7DA
  8
0
  6
CONTINUOUS
 62
     7
 10
356.4340519578
 20
-66.3895079517
 30
0.0
  0
VERTEX
  5
7DB
  8
0
  6
CONTINUOUS
 62
     7
 10
357.1079778344
 20
-66.3522572838
 30
0.0
  0
VERTEX
  5
7DC
  8
0
  6
CONTINUOUS
 62
     7
 10
357.8113245637
 20
-66.3031303906
 30
0.0
  0
VERTEX
  5
7DD
  8
0
  6
CONTINUOUS
 62
     7
 10
358.5464048059
 20
-66.2431956851
 30
0.0
  0
VERTEX
  5
7DE
  8
0
  6
CONTINUOUS
 62
     7
 10
359.3116807611
 20
-66.1733323359
 30
0.0
  0
VERTEX
  5
7DF
  8
0
  6
CONTINUOUS
 62
     7
 10
360.1047086389
 20
-66.0943733179
 30
0.0
  0
VERTEX
  5
7E0
  8
0
  6
CONTINUOUS
 62
     7
 10
360.922186342
 20
-66.0071754479
 30
0.0
  0
VERTEX
  5
7E1
  8
0
  6
CONTINUOUS
 62
     7
 10
361.7602753312
 20
-65.9126201295
 30
0.0
  0
VERTEX
  5
7E2
  8
0
  6
CONTINUOUS
 62
     7
 10
362.6148509652
 20
-65.8116073929
 30
0.0
  0
VERTEX
  5
7E3
  8
0
  6
CONTINUOUS
 62
     7
 10
363.4802388818
 20
-65.7052466296
 30
0.0
  0
VERTEX
  5
7E4
  8
0
  6
CONTINUOUS
 62
     7
 10
364.3517183931
 20
-65.5944877886
 30
0.0
  0
VERTEX
  5
7E5
  8
0
  6
CONTINUOUS
 62
     7
 10
365.2312922151
 20
-65.4790917062
 30
0.0
  0
VERTEX
  5
7E6
  8
0
  6
CONTINUOUS
 62
     7
 10
365.7571005494
 20
-65.4079483472
 30
0.0
  0
SEQEND
  5
A9B
  8
0
  6
CONTINUOUS
 62
     7
  0
POLYLINE
  5
262
  8
0
  6
CONTINUOUS
 62
     7
 66
     1
 10
0.0
 20
0.0
 30
0.0
  0
VERTEX
  5
7E7
  8
0
  6
CONTINUOUS
 62
     7
 10
430.6131291063
 20
-63.8508909964
 30
0.0
  0
VERTEX
  5
7E8
  8
0
  6
CONTINUOUS
 62
     7
 10
430.6556391389
 20
-63.6305922293
 30
0.0
  0
VERTEX
  5
7E9
  8
0
  6
CONTINUOUS
 62
     7
 10
430.6696343095
 20
-63.3021266781
 30
0.0
  0
SEQEND
  5
A9A
  8
0
  6
CONTINUOUS
 62
     7
  0
POLYLINE
  5
263
  8
0
  6
CONTINUOUS
 62
     7
 66
     1
 10
0.0
 20
0.0
 30
0.0
  0
VERTEX
  5
7EA
  8
0
  6
CONTINUOUS
 62
     7
 10
350.5649733217
 20
-63.2949070655
 30
0.0
  0
VERTEX
  5
7EB
  8
0
  6
CONTINUOUS
 62
     7
 10
350.5645560891
 20
-63.494755479
 30
0.0
  0
VERTEX
  5
7EC
  8
0
  6
CONTINUOUS
 62
     7
 10
350.6263780267
 20
-63.9214979135
 30
0.0
  0
SEQEND
  5
A99
  8
0
  6
CONTINUOUS
 62
     7
  0
ARC
  5
264
  8
0
  6
CONTINUOUS
 62
     7
 10
390.6155752809
 20
-248.4185067297
 30
0.0
 40
184.6912691376433
 50
82.2647759192
 51
97.7352240808
  0
POLYLINE
  5
265
  8
0
  6
CONTINUOUS
 62
     7
 66
     1
 10
0.0
 20
0.0
 30
0.0
  0
VERTEX
  5
7ED
  8
0
  6
CONTINUOUS
 62
     7
 10
125.0328170926
 20
-52.2030541324
 30
0.0
  0
VERTEX
  5
7EE
  8
0
  6
CONTINUOUS
 62
     7
 10
124.2367136152
 20
-52.3150289082
 30
0.0
  0
VERTEX
  5
7EF
  8
0
  6
CONTINUOUS
 62
     7
 10
123.3300316007
 20
-52.454825642
 30
0.0
  0
VERTEX
  5
7F0
  8
0
  6
CONTINUOUS
 62
     7
 10
122.4327850015
 20
-52.605609002
 30
0.0
  0
VERTEX
  5
7F1
  8
0
  6
CONTINUOUS
 62
     7
 10
121.5496110589
 20
-52.7667248272
 30
0.0
  0
VERTEX
  5
7F2
  8
0
  6
CONTINUOUS
 62
     7
 10
120.6950950296
 20
-52.9349827789
 30
0.0
  0
VERTEX
  5
7F3
  8
0
  6
CONTINUOUS
 62
     7
 10
119.8561536939
 20
-53.1122648739
 30
0.0
  0
VERTEX
  5
7F4
  8
0
  6
CONTINUOUS
 62
     7
 10
119.0340804727
 20
-53.2981121563
 30
0.0
  0
VERTEX
  5
7F5
  8
0
  6
CONTINUOUS
 62
     7
 10
118.2349788816
 20
-53.4910672926
 30
0.0
  0
VERTEX
  5
7F6
  8
0
  6
CONTINUOUS
 62
     7
 10
117.4646961362
 20
-53.6896729492
 30
0.0
  0
VERTEX
  5
7F7
  8
0
  6
CONTINUOUS
 62
     7
 10
116.7284714849
 20
-53.8925850414
 30
0.0
  0
VERTEX
  5
7F8
  8
0
  6
CONTINUOUS
 62
     7
 10
116.0305308969
 20
-54.0987768792
 30
0.0
  0
VERTEX
  5
7F9
  8
0
  6
CONTINUOUS
 62
     7
 10
115.3763281972
 20
-54.3064186
 30
0.0
  0
VERTEX
  5
7FA
  8
0
  6
CONTINUOUS
 62
     7
 10
114.7771465452
 20
-54.5109921717
 30
0.0
  0
VERTEX
  5
7FB
  8
0
  6
CONTINUOUS
 62
     7
 10
114.1929435403
 20
-54.7269323491
 30
0.0
  0
VERTEX
  5
7FC
  8
0
  6
CONTINUOUS
 62
     7
 10
113.6395084531
 20
-54.9509832286
 30
0.0
  0
VERTEX
  5
7FD
  8
0
  6
CONTINUOUS
 62
     7
 10
113.1091880472
 20
-55.190111103
 30
0.0
  0
VERTEX
  5
7FE
  8
0
  6
CONTINUOUS
 62
     7
 10
112.5832366617
 20
-55.4622182273
 30
0.0
  0
VERTEX
  5
7FF
  8
0
  6
CONTINUOUS
 62
     7
 10
112.1415304811
 20
-55.7330259704
 30
0.0
  0
VERTEX
  5
800
  8
0
  6
CONTINUOUS
 62
     7
 10
111.8369030626
 20
-55.9550458216
 30
0.0
  0
VERTEX
  5
801
  8
0
  6
CONTINUOUS
 62
     7
 10
111.5773725183
 20
-56.1780774616
 30
0.0
  0
VERTEX
  5
802
  8
0
  6
CONTINUOUS
 62
     7
 10
111.3430606992
 20
-56.4181917929
 30
0.0
  0
VERTEX
  5
803
  8
0
  6
CONTINUOUS
 62
     7
 10
111.1306237848
 20
-56.6829392337
 30
0.0
  0
VERTEX
  5
804
  8
0
  6
CONTINUOUS
 62
     7
 10
110.9410154493
 20
-56.9789746427
 30
0.0
  0
VERTEX
  5
805
  8
0
  6
CONTINUOUS
 62
     7
 10
110.7803928525
 20
-57.3085287236
 30
0.0
  0
VERTEX
  5
806
  8
0
  6
CONTINUOUS
 62
     7
 10
110.6575417192
 20
-57.6686137938
 30
0.0
  0
VERTEX
  5
807
  8
0
  6
CONTINUOUS
 62
     7
 10
110.5809020669
 20
-58.0520147108
 30
0.0
  0
VERTEX
  5
808
  8
0
  6
CONTINUOUS
 62
     7
 10
110.5585264833
 20
-58.417978289
 30
0.0
  0
SEQEND
  5
A98
  8
0
  6
CONTINUOUS
 62
     7
  0
POLYLINE
  5
266
  8
0
  6
CONTINUOUS
 62
     7
 66
     1
 10
0.0
 20
0.0
 30
0.0
  0
VERTEX
  5
809
  8
0
  6
CONTINUOUS
 62
     7
 10
190.6687560351
 20
-58.4307664656
 30
0.0
  0
VERTEX
  5
80A
  8
0
  6
CONTINUOUS
 62
     7
 10
190.6723501952
 20
-58.3575063967
 30
0.0
  0
VERTEX
  5
80B
  8
0
  6
CONTINUOUS
 62
     7
 10
190.635159877
 20
-57.9586485051
 30
0.0
  0
VERTEX
  5
80C
  8
0
  6
CONTINUOUS
 62
     7
 10
190.5482294829
 20
-57.5842374586
 30
0.0
  0
VERTEX
  5
80D
  8
0
  6
CONTINUOUS
 62
     7
 10
190.4201271803
 20
-57.2395125054
 30
0.0
  0
VERTEX
  5
80E
  8
0
  6
CONTINUOUS
 62
     7
 10
190.2597042591
 20
-56.9276297115
 30
0.0
  0
VERTEX
  5
80F
  8
0
  6
CONTINUOUS
 62
     7
 10
190.0750058563
 20
-56.6488677286
 30
0.0
  0
VERTEX
  5
810
  8
0
  6
CONTINUOUS
 62
     7
 10
189.8714470537
 20
-56.4000168466
 30
0.0
  0
VERTEX
  5
811
  8
0
  6
CONTINUOUS
 62
     7
 10
189.6498593361
 20
-56.1745712184
 30
0.0
  0
VERTEX
  5
812
  8
0
  6
CONTINUOUS
 62
     7
 10
189.4047322543
 20
-55.963380041
 30
0.0
  0
VERTEX
  5
813
  8
0
  6
CONTINUOUS
 62
     7
 10
189.1185182006
 20
-55.752680602
 30
0.0
  0
VERTEX
  5
814
  8
0
  6
CONTINUOUS
 62
     7
 10
188.7455197842
 20
-55.5184373283
 30
0.0
  0
VERTEX
  5
815
  8
0
  6
CONTINUOUS
 62
     7
 10
188.2656994135
 20
-55.2611896419
 30
0.0
  0
VERTEX
  5
816
  8
0
  6
CONTINUOUS
 62
     7
 10
187.7343731792
 20
-55.0135949277
 30
0.0
  0
VERTEX
  5
817
  8
0
  6
CONTINUOUS
 62
     7
 10
187.1972369821
 20
-54.7899508499
 30
0.0
  0
VERTEX
  5
818
  8
0
  6
CONTINUOUS
 62
     7
 10
186.5790742309
 20
-54.5562171959
 30
0.0
  0
VERTEX
  5
819
  8
0
  6
CONTINUOUS
 62
     7
 10
185.9409036906
 20
-54.3350601219
 30
0.0
  0
VERTEX
  5
81A
  8
0
  6
CONTINUOUS
 62
     7
 10
185.2780419261
 20
-54.1225889348
 30
0.0
  0
VERTEX
  5
81B
  8
0
  6
CONTINUOUS
 62
     7
 10
184.59090468
 20
-53.9177233004
 30
0.0
  0
VERTEX
  5
81C
  8
0
  6
CONTINUOUS
 62
     7
 10
183.8578182132
 20
-53.7136995815
 30
0.0
  0
VERTEX
  5
81D
  8
0
  6
CONTINUOUS
 62
     7
 10
183.091618386
 20
-53.5143205546
 30
0.0
  0
VERTEX
  5
81E
  8
0
  6
CONTINUOUS
 62
     7
 10
182.2947758109
 20
-53.3202999853
 30
0.0
  0
VERTEX
  5
81F
  8
0
  6
CONTINUOUS
 62
     7
 10
181.4704614551
 20
-53.1325885676
 30
0.0
  0
VERTEX
  5
820
  8
0
  6
CONTINUOUS
 62
     7
 10
180.6223439844
 20
-52.9522711062
 30
0.0
  0
VERTEX
  5
821
  8
0
  6
CONTINUOUS
 62
     7
 10
179.7543602855
 20
-52.7804711484
 30
0.0
  0
VERTEX
  5
822
  8
0
  6
CONTINUOUS
 62
     7
 10
178.8706826837
 20
-52.6183152222
 30
0.0
  0
VERTEX
  5
823
  8
0
  6
CONTINUOUS
 62
     7
 10
177.9808836849
 20
-52.4676361703
 30
0.0
  0
VERTEX
  5
824
  8
0
  6
CONTINUOUS
 62
     7
 10
177.0793395908
 20
-52.3273775004
 30
0.0
  0
VERTEX
  5
825
  8
0
  6
CONTINUOUS
 62
     7
 10
176.1984276445
 20
-52.2022435092
 30
0.0
  0
SEQEND
  5
A97
  8
0
  6
CONTINUOUS
 62
     7
  0
ARC
  5
267
  8
0
  6
CONTINUOUS
 62
     7
 10
150.4931417311
 20
-239.2946139799
 30
0.0
 40
188.8174624601704
 50
90.2489010012
 51
97.7494224801
  0
ARC
  5
268
  8
0
  6
CONTINUOUS
 62
     7
 10
150.8224212491
 20
-238.3860920438
 30
0.0
 40
187.9058610397933
 50
82.2387238277
 51
89.7798292253
  0
POLYLINE
  5
269
  8
0
  6
CONTINUOUS
 62
     7
 66
     1
 10
0.0
 20
0.0
 30
0.0
  0
VERTEX
  5
826
  8
0
  6
CONTINUOUS
 62
     7
 10
115.1516306074
 20
-60.1920539164
 30
0.0
  0
VERTEX
  5
827
  8
0
  6
CONTINUOUS
 62
     7
 10
115.1501583726
 20
-60.1931834244
 30
0.0
  0
VERTEX
  5
828
  8
0
  6
CONTINUOUS
 62
     7
 10
115.1905703218
 20
-60.1685801171
 30
0.0
  0
VERTEX
  5
829
  8
0
  6
CONTINUOUS
 62
     7
 10
115.2820098073
 20
-60.1181054138
 30
0.0
  0
VERTEX
  5
82A
  8
0
  6
CONTINUOUS
 62
     7
 10
115.4312300355
 20
-60.0432091974
 30
0.0
  0
VERTEX
  5
82B
  8
0
  6
CONTINUOUS
 62
     7
 10
115.6432854802
 20
-59.945906105
 30
0.0
  0
VERTEX
  5
82C
  8
0
  6
CONTINUOUS
 62
     7
 10
115.9208225877
 20
-59.8288410925
 30
0.0
  0
VERTEX
  5
82D
  8
0
  6
CONTINUOUS
 62
     7
 10
116.26399633
 20
-59.6951106214
 30
0.0
  0
VERTEX
  5
82E
  8
0
  6
CONTINUOUS
 62
     7
 10
116.6708576352
 20
-59.5479810261
 30
0.0
  0
VERTEX
  5
82F
  8
0
  6
CONTINUOUS
 62
     7
 10
117.137949434
 20
-59.3906664871
 30
0.0
  0
VERTEX
  5
830
  8
0
  6
CONTINUOUS
 62
     7
 10
117.6605808408
 20
-59.226266446
 30
0.0
  0
VERTEX
  5
831
  8
0
  6
CONTINUOUS
 62
     7
 10
118.2358669908
 20
-59.0572172426
 30
0.0
  0
VERTEX
  5
832
  8
0
  6
CONTINUOUS
 62
     7
 10
118.8447820814
 20
-58.8896521949
 30
0.0
  0
VERTEX
  5
833
  8
0
  6
CONTINUOUS
 62
     7
 10
119.5054220826
 20
-58.7190294289
 30
0.0
  0
VERTEX
  5
834
  8
0
  6
CONTINUOUS
 62
     7
 10
120.2108966977
 20
-58.5480758571
 30
0.0
  0
VERTEX
  5
835
  8
0
  6
CONTINUOUS
 62
     7
 10
120.9538685949
 20
-58.379376831
 30
0.0
  0
VERTEX
  5
836
  8
0
  6
CONTINUOUS
 62
     7
 10
121.7263269098
 20
-58.215440216
 30
0.0
  0
VERTEX
  5
837
  8
0
  6
CONTINUOUS
 62
     7
 10
122.518436876
 20
-58.0588975572
 30
0.0
  0
VERTEX
  5
838
  8
0
  6
CONTINUOUS
 62
     7
 10
123.3216869504
 20
-57.9118305468
 30
0.0
  0
VERTEX
  5
839
  8
0
  6
CONTINUOUS
 62
     7
 10
124.1323339612
 20
-57.7749618911
 30
0.0
  0
VERTEX
  5
83A
  8
0
  6
CONTINUOUS
 62
     7
 10
124.9614107282
 20
-57.6463663601
 30
0.0
  0
VERTEX
  5
83B
  8
0
  6
CONTINUOUS
 62
     7
 10
125.7572698266
 20
-57.5336539768
 30
0.0
  0
SEQEND
  5
A96
  8
0
  6
CONTINUOUS
 62
     7
  0
POLYLINE
  5
26A
  8
0
  6
CONTINUOUS
 62
     7
 66
     1
 10
0.0
 20
0.0
 30
0.0
  0
VERTEX
  5
83C
  8
0
  6
CONTINUOUS
 62
     7
 10
175.4739391477
 20
-57.534027996
 30
0.0
  0
VERTEX
  5
83D
  8
0
  6
CONTINUOUS
 62
     7
 10
176.133899656
 20
-57.6261231326
 30
0.0
  0
VERTEX
  5
83E
  8
0
  6
CONTINUOUS
 62
     7
 10
176.971330014
 20
-57.7543431543
 30
0.0
  0
VERTEX
  5
83F
  8
0
  6
CONTINUOUS
 62
     7
 10
177.8005081088
 20
-57.8927674913
 30
0.0
  0
VERTEX
  5
840
  8
0
  6
CONTINUOUS
 62
     7
 10
178.6149638564
 20
-58.0402934574
 30
0.0
  0
VERTEX
  5
841
  8
0
  6
CONTINUOUS
 62
     7
 10
179.4037806661
 20
-58.1944906735
 30
0.0
  0
VERTEX
  5
842
  8
0
  6
CONTINUOUS
 62
     7
 10
180.1719236047
 20
-58.3557510399
 30
0.0
  0
VERTEX
  5
843
  8
0
  6
CONTINUOUS
 62
     7
 10
180.9155660541
 20
-58.5228958749
 30
0.0
  0
VERTEX
  5
844
  8
0
  6
CONTINUOUS
 62
     7
 10
181.628699866
 20
-58.6941683315
 30
0.0
  0
VERTEX
  5
845
  8
0
  6
CONTINUOUS
 62
     7
 10
182.3053049714
 20
-58.8676372193
 30
0.0
  0
VERTEX
  5
846
  8
0
  6
CONTINUOUS
 62
     7
 10
182.9395967395
 20
-59.0412357473
 30
0.0
  0
VERTEX
  5
847
  8
0
  6
CONTINUOUS
 62
     7
 10
183.5259544523
 20
-59.2127227806
 30
0.0
  0
VERTEX
  5
848
  8
0
  6
CONTINUOUS
 62
     7
 10
184.0593474777
 20
-59.3797543668
 30
0.0
  0
VERTEX
  5
849
  8
0
  6
CONTINUOUS
 62
     7
 10
184.5386731298
 20
-59.5407956862
 30
0.0
  0
VERTEX
  5
84A
  8
0
  6
CONTINUOUS
 62
     7
 10
184.9648403795
 20
-59.6948990249
 30
0.0
  0
VERTEX
  5
84B
  8
0
  6
CONTINUOUS
 62
     7
 10
185.3306191833
 20
-59.837984445
 30
0.0
  0
VERTEX
  5
84C
  8
0
  6
CONTINUOUS
 62
     7
 10
185.6292280228
 20
-59.9652165197
 30
0.0
  0
VERTEX
  5
84D
  8
0
  6
CONTINUOUS
 62
     7
 10
185.8334394963
 20
-60.0603246712
 30
0.0
  0
VERTEX
  5
84E
  8
0
  6
CONTINUOUS
 62
     7
 10
185.974812773
 20
-60.1324373507
 30
0.0
  0
VERTEX
  5
84F
  8
0
  6
CONTINUOUS
 62
     7
 10
186.0570016177
 20
-60.1786354207
 30
0.0
  0
VERTEX
  5
850
  8
0
  6
CONTINUOUS
 62
     7
 10
186.0864194901
 20
-60.1968699717
 30
0.0
  0
VERTEX
  5
851
  8
0
  6
CONTINUOUS
 62
     7
 10
186.0842215688
 20
-60.1952680968
 30
0.0
  0
SEQEND
  5
A95
  8
0
  6
CONTINUOUS
 62
     7
  0
LINE
  5
26B
  8
0
  6
CONTINUOUS
 62
     7
 10
149.6155786187
 20
-50.1367726945
 30
0.0
 11
149.6155786187
 21
-50.49474478
 31
0.0
  0
LINE
  5
26C
  8
0
  6
CONTINUOUS
 62
     7
 10
151.6155826719
 20
-50.49474478
 30
0.0
 11
151.6155826719
 21
-50.1367726945
 31
0.0
  0
ARC
  5
26D
  8
0
  6
CONTINUOUS
 62
     7
 10
150.6155791552
 20
-240.543540312
 30
0.0
 40
184.6914990019512
 50
82.2647832727
 51
97.7352167273
  0
LINE
  5
26E
  8
0
  6
CONTINUOUS
 62
     7
 10
190.6743365199
 20
-63.3012728416
 30
0.0
 11
190.6743365199
 21
-58.426498773
 31
0.0
  0
LINE
  5
26F
  8
0
  6
CONTINUOUS
 62
     7
 10
110.5568217904
 20
-58.426498773
 30
0.0
 11
110.5568217904
 21
-63.3012728416
 31
0.0
  0
POLYLINE
  5
270
  8
0
  6
CONTINUOUS
 62
     7
 66
     1
 10
0.0
 20
0.0
 30
0.0
  0
VERTEX
  5
852
  8
0
  6
CONTINUOUS
 62
     7
 10
175.4741179616
 20
-65.4080943786
 30
0.0
  0
VERTEX
  5
853
  8
0
  6
CONTINUOUS
 62
     7
 10
176.2507664831
 20
-65.512299689
 30
0.0
  0
VERTEX
  5
854
  8
0
  6
CONTINUOUS
 62
     7
 10
177.1331953676
 20
-65.6270721578
 30
0.0
  0
VERTEX
  5
855
  8
0
  6
CONTINUOUS
 62
     7
 10
178.0051278741
 20
-65.7368728541
 30
0.0
  0
VERTEX
  5
856
  8
0
  6
CONTINUOUS
 62
     7
 10
178.8626211555
 20
-65.8411295735
 30
0.0
  0
VERTEX
  5
857
  8
0
  6
CONTINUOUS
 62
     7
 10
179.6985017927
 20
-65.9386494779
 30
0.0
  0
VERTEX
  5
858
  8
0
  6
CONTINUOUS
 62
     7
 10
180.5199402244
 20
-66.0299652838
 30
0.0
  0
VERTEX
  5
859
  8
0
  6
CONTINUOUS
 62
     7
 10
181.3261258275
 20
-66.1145308637
 30
0.0
  0
VERTEX
  5
85A
  8
0
  6
CONTINUOUS
 62
     7
 10
182.1106451423
 20
-66.1911354982
 30
0.0
  0
VERTEX
  5
85B
  8
0
  6
CONTINUOUS
 62
     7
 10
182.8674304159
 20
-66.2586087011
 30
0.0
  0
VERTEX
  5
85C
  8
0
  6
CONTINUOUS
 62
     7
 10
183.5911529929
 20
-66.3158388459
 30
0.0
  0
VERTEX
  5
85D
  8
0
  6
CONTINUOUS
 62
     7
 10
184.2777388961
 20
-66.3617657148
 30
0.0
  0
VERTEX
  5
85E
  8
0
  6
CONTINUOUS
 62
     7
 10
184.9259274871
 20
-66.3954006158
 30
0.0
  0
VERTEX
  5
85F
  8
0
  6
CONTINUOUS
 62
     7
 10
185.5439680488
 20
-66.4160305285
 30
0.0
  0
VERTEX
  5
860
  8
0
  6
CONTINUOUS
 62
     7
 10
186.1369567783
 20
-66.4218740188
 30
0.0
  0
VERTEX
  5
861
  8
0
  6
CONTINUOUS
 62
     7
 10
186.7134231002
 20
-66.4094643318
 30
0.0
  0
VERTEX
  5
862
  8
0
  6
CONTINUOUS
 62
     7
 10
187.2953685791
 20
-66.3706766092
 30
0.0
  0
VERTEX
  5
863
  8
0
  6
CONTINUOUS
 62
     7
 10
187.8581094415
 20
-66.2950800382
 30
0.0
  0
VERTEX
  5
864
  8
0
  6
CONTINUOUS
 62
     7
 10
188.2240402372
 20
-66.216490569
 30
0.0
  0
VERTEX
  5
865
  8
0
  6
CONTINUOUS
 62
     7
 10
188.5616886289
 20
-66.1158637725
 30
0.0
  0
VERTEX
  5
866
  8
0
  6
CONTINUOUS
 62
     7
 10
188.8745861919
 20
-65.992060455
 30
0.0
  0
VERTEX
  5
867
  8
0
  6
CONTINUOUS
 62
     7
 10
189.1763436467
 20
-65.8379362547
 30
0.0
  0
VERTEX
  5
868
  8
0
  6
CONTINUOUS
 62
     7
 10
189.4693019659
 20
-65.6471768045
 30
0.0
  0
VERTEX
  5
869
  8
0
  6
CONTINUOUS
 62
     7
 10
189.7498178155
 20
-65.4148319387
 30
0.0
  0
VERTEX
  5
86A
  8
0
  6
CONTINUOUS
 62
     7
 10
190.009312597
 20
-65.1394592249
 30
0.0
  0
VERTEX
  5
86B
  8
0
  6
CONTINUOUS
 62
     7
 10
190.2372854621
 20
-64.8236879729
 30
0.0
  0
VERTEX
  5
86C
  8
0
  6
CONTINUOUS
 62
     7
 10
190.4240491659
 20
-64.4733817898
 30
0.0
  0
VERTEX
  5
86D
  8
0
  6
CONTINUOUS
 62
     7
 10
190.5738222272
 20
-64.0546837472
 30
0.0
  0
VERTEX
  5
86E
  8
0
  6
CONTINUOUS
 62
     7
 10
190.5996429593
 20
-63.920824381
 30
0.0
  0
SEQEND
  5
A94
  8
0
  6
CONTINUOUS
 62
     7
  0
POLYLINE
  5
271
  8
0
  6
CONTINUOUS
 62
     7
 66
     1
 10
0.0
 20
0.0
 30
0.0
  0
VERTEX
  5
86F
  8
0
  6
CONTINUOUS
 62
     7
 10
110.6263804109
 20
-63.9214979135
 30
0.0
  0
VERTEX
  5
870
  8
0
  6
CONTINUOUS
 62
     7
 10
110.6273221643
 20
-63.9280082308
 30
0.0
  0
VERTEX
  5
871
  8
0
  6
CONTINUOUS
 62
     7
 10
110.7501554162
 20
-64.3334248685
 30
0.0
  0
VERTEX
  5
872
  8
0
  6
CONTINUOUS
 62
     7
 10
110.9233188302
 20
-64.7023358964
 30
0.0
  0
VERTEX
  5
873
  8
0
  6
CONTINUOUS
 62
     7
 10
111.1368524701
 20
-65.030396136
 30
0.0
  0
VERTEX
  5
874
  8
0
  6
CONTINUOUS
 62
     7
 10
111.3808023603
 20
-65.315383824
 30
0.0
  0
VERTEX
  5
875
  8
0
  6
CONTINUOUS
 62
     7
 10
111.6454946668
 20
-65.556983056
 30
0.0
  0
VERTEX
  5
876
  8
0
  6
CONTINUOUS
 62
     7
 10
111.9224834115
 20
-65.7570914947
 30
0.0
  0
VERTEX
  5
877
  8
0
  6
CONTINUOUS
 62
     7
 10
112.2062730462
 20
-65.9199179732
 30
0.0
  0
VERTEX
  5
878
  8
0
  6
CONTINUOUS
 62
     7
 10
112.4962198407
 20
-66.0513618611
 30
0.0
  0
VERTEX
  5
879
  8
0
  6
CONTINUOUS
 62
     7
 10
112.7995001943
 20
-66.1582456552
 30
0.0
  0
VERTEX
  5
87A
  8
0
  6
CONTINUOUS
 62
     7
 10
113.1330239446
 20
-66.2464895867
 30
0.0
  0
VERTEX
  5
87B
  8
0
  6
CONTINUOUS
 62
     7
 10
113.490198818
 20
-66.3142570876
 30
0.0
  0
VERTEX
  5
87C
  8
0
  6
CONTINUOUS
 62
     7
 10
113.9557706983
 20
-66.3717383169
 30
0.0
  0
VERTEX
  5
87D
  8
0
  6
CONTINUOUS
 62
     7
 10
114.6222459943
 20
-66.4124408387
 30
0.0
  0
VERTEX
  5
87E
  8
0
  6
CONTINUOUS
 62
     7
 10
115.1956009538
 20
-66.4213524782
 30
0.0
  0
VERTEX
  5
87F
  8
0
  6
CONTINUOUS
 62
     7
 10
115.7762396009
 20
-66.4134958409
 30
0.0
  0
VERTEX
  5
880
  8
0
  6
CONTINUOUS
 62
     7
 10
116.4340483816
 20
-66.3895079517
 30
0.0
  0
VERTEX
  5
881
  8
0
  6
CONTINUOUS
 62
     7
 10
117.1079742582
 20
-66.3522572838
 30
0.0
  0
VERTEX
  5
882
  8
0
  6
CONTINUOUS
 62
     7
 10
117.8113269479
 20
-66.3031303906
 30
0.0
  0
VERTEX
  5
883
  8
0
  6
CONTINUOUS
 62
     7
 10
118.5464071901
 20
-66.2431956851
 30
0.0
  0
VERTEX
  5
884
  8
0
  6
CONTINUOUS
 62
     7
 10
119.3116771848
 20
-66.1733323359
 30
0.0
  0
VERTEX
  5
885
  8
0
  6
CONTINUOUS
 62
     7
 10
120.1047110231
 20
-66.0943733179
 30
0.0
  0
VERTEX
  5
886
  8
0
  6
CONTINUOUS
 62
     7
 10
120.9221887262
 20
-66.0071754479
 30
0.0
  0
VERTEX
  5
887
  8
0
  6
CONTINUOUS
 62
     7
 10
121.7602777154
 20
-65.9126201295
 30
0.0
  0
VERTEX
  5
888
  8
0
  6
CONTINUOUS
 62
     7
 10
122.6148533494
 20
-65.8116073929
 30
0.0
  0
VERTEX
  5
889
  8
0
  6
CONTINUOUS
 62
     7
 10
123.480241266
 20
-65.7052466296
 30
0.0
  0
VERTEX
  5
88A
  8
0
  6
CONTINUOUS
 62
     7
 10
124.3517148168
 20
-65.5944877886
 30
0.0
  0
VERTEX
  5
88B
  8
0
  6
CONTINUOUS
 62
     7
 10
125.2312886388
 20
-65.4790917062
 30
0.0
  0
VERTEX
  5
88C
  8
0
  6
CONTINUOUS
 62
     7
 10
125.7571029336
 20
-65.4079483472
 30
0.0
  0
SEQEND
  5
A93
  8
0
  6
CONTINUOUS
 62
     7
  0
POLYLINE
  5
272
  8
0
  6
CONTINUOUS
 62
     7
 66
     1
 10
0.0
 20
0.0
 30
0.0
  0
VERTEX
  5
88D
  8
0
  6
CONTINUOUS
 62
     7
 10
190.6131344707
 20
-63.8508909964
 30
0.0
  0
VERTEX
  5
88E
  8
0
  6
CONTINUOUS
 62
     7
 10
190.6556296022
 20
-63.6305922293
 30
0.0
  0
VERTEX
  5
88F
  8
0
  6
CONTINUOUS
 62
     7
 10
190.6696456344
 20
-63.3021266781
 30
0.0
  0
SEQEND
  5
A92
  8
0
  6
CONTINUOUS
 62
     7
  0
POLYLINE
  5
273
  8
0
  6
CONTINUOUS
 62
     7
 66
     1
 10
0.0
 20
0.0
 30
0.0
  0
VERTEX
  5
890
  8
0
  6
CONTINUOUS
 62
     7
 10
110.5649757058
 20
-63.2949070655
 30
0.0
  0
VERTEX
  5
891
  8
0
  6
CONTINUOUS
 62
     7
 10
110.5645584733
 20
-63.494755479
 30
0.0
  0
VERTEX
  5
892
  8
0
  6
CONTINUOUS
 62
     7
 10
110.6263804109
 20
-63.9214979135
 30
0.0
  0
SEQEND
  5
A91
  8
0
  6
CONTINUOUS
 62
     7
  0
ARC
  5
274
  8
0
  6
CONTINUOUS
 62
     7
 10
150.6155791552
 20
-248.418669882
 30
0.0
 40
184.6914318082503
 50
82.2647804412
 51
97.7352195588
  0
ARC
  5
275
  8
0
  6
CONTINUOUS
 62
     7
 10
55.7992369266
 20
-140.6818908905
 30
0.0
 40
14.86825785155788
 50
270.8245313927
 51
0.4742368036
  0
ARC
  5
276
  8
0
  6
CONTINUOUS
 62
     7
 10
5.4311363208
 20
-140.6853688328
 30
0.0
 40
14.86657153992472
 50
179.5128792492
 51
269.323454063
  0
ARC
  5
277
  8
0
  6
CONTINUOUS
 62
     7
 10
55.7880318925
 20
-100.4704273007
 30
0.0
 40
14.87766591083154
 50
359.6599374309
 51
32.6990507799
  0
ARC
  5
278
  8
0
  6
CONTINUOUS
 62
     7
 10
5.5353601732
 20
-100.5030471387
 30
0.0
 40
14.97560949673331
 50
147.3884474048
 51
180.2157606048
  0
ARC
  5
279
  8
0
  6
CONTINUOUS
 62
     7
 10
5.3592374114
 20
-100.2657097663
 30
0.0
 40
14.69874476241991
 50
90.6991734444
 51
141.1139575208
  0
ARC
  5
27A
  8
0
  6
CONTINUOUS
 62
     7
 10
55.8749394699
 20
-100.2424458442
 30
0.0
 40
14.67825125822221
 50
38.7742112389
 51
89.7632057327
  0
LINE
  5
27B
  8
0
  6
CONTINUOUS
 62
     7
 10
-9.443171057
 20
-100.558767619
 30
0.0
 11
-9.443171057
 21
-140.5587682151
 31
0.0
  0
LINE
  5
27C
  8
0
  6
CONTINUOUS
 62
     7
 10
70.6743406923
 20
-140.5587682151
 30
0.0
 11
70.6743406923
 21
-100.558767619
 31
0.0
  0
ARC
  5
27D
  8
0
  6
CONTINUOUS
 62
     7
 10
415.7992214844
 20
-140.6818732936
 30
0.0
 40
14.86827553163707
 50
270.8245531713
 51
0.4741684266
  0
ARC
  5
27E
  8
0
  6
CONTINUOUS
 62
     7
 10
365.4311334403
 20
-140.6853623104
 30
0.0
 40
14.86657814047841
 50
179.5129046037
 51
269.3234287085
  0
ARC
  5
27F
  8
0
  6
CONTINUOUS
 62
     7
 10
415.788123719
 20
-100.4704013501
 30
0.0
 40
14.87757662414004
 50
359.6598354482
 51
32.6991527625
  0
ARC
  5
280
  8
0
  6
CONTINUOUS
 62
     7
 10
365.5350127063
 20
-100.5029235465
 30
0.0
 40
14.97524819321731
 50
147.3881243277
 51
180.2162386816
  0
ARC
  5
281
  8
0
  6
CONTINUOUS
 62
     7
 10
365.3592649436
 20
-100.2657868664
 30
0.0
 40
14.69882201824293
 50
90.6992213323
 51
141.113814295
  0
ARC
  5
282
  8
0
  6
CONTINUOUS
 62
     7
 10
415.8749213024
 20
-100.2424884877
 30
0.0
 40
14.67829398635578
 50
38.7742907723
 51
89.7631261993
  0
LINE
  5
283
  8
0
  6
CONTINUOUS
 62
     7
 10
350.5568194063
 20
-100.558767619
 30
0.0
 11
350.5568194063
 21
-140.5587682151
 31
0.0
  0
LINE
  5
284
  8
0
  6
CONTINUOUS
 62
     7
 10
430.6743311555
 20
-140.5587682151
 30
0.0
 11
430.6743311555
 21
-100.558767619
 31
0.0
  0
ARC
  5
285
  8
0
  6
CONTINUOUS
 62
     7
 10
295.7992472096
 20
-140.6819032738
 30
0.0
 40
14.86824528724566
 50
270.8244832704
 51
0.4742849259
  0
ARC
  5
286
  8
0
  6
CONTINUOUS
 62
     7
 10
245.4311336805
 20
-140.6853603228
 30
0.0
 40
14.86658015187281
 50
179.5129123301
 51
269.3234209822
  0
ARC
  5
287
  8
0
  6
CONTINUOUS
 62
     7
 10
295.7881339855
 20
-100.4703878041
 30
0.0
 40
14.87756166995723
 50
359.6597829379
 51
32.6991277419
  0
ARC
  5
288
  8
0
  6
CONTINUOUS
 62
     7
 10
245.5351499049
 20
-100.5029736042
 30
0.0
 40
14.97538848031632
 50
147.3882403755
 51
180.2160451339
  0
ARC
  5
289
  8
0
  6
CONTINUOUS
 62
     7
 10
245.3592590456
 20
-100.2657720737
 30
0.0
 40
14.69880721282065
 50
90.699217633
 51
141.1138418288
  0
ARC
  5
28A
  8
0
  6
CONTINUOUS
 62
     7
 10
295.8749487795
 20
-100.2424090808
 30
0.0
 40
14.67821447142612
 50
38.7741425168
 51
89.7632275192
  0
LINE
  5
28B
  8
0
  6
CONTINUOUS
 62
     7
 10
230.5568235786
 20
-100.558767619
 30
0.0
 11
230.5568235786
 21
-140.5587682151
 31
0.0
  0
LINE
  5
28C
  8
0
  6
CONTINUOUS
 62
     7
 10
310.6743383081
 20
-140.5587682151
 30
0.0
 11
310.6743383081
 21
-100.558767619
 31
0.0
  0
ARC
  5
28D
  8
0
  6
CONTINUOUS
 62
     7
 10
175.7992423097
 20
-140.6818957978
 30
0.0
 40
14.86825280728333
 50
270.8244948462
 51
0.4742558757
  0
ARC
  5
28E
  8
0
  6
CONTINUOUS
 62
     7
 10
125.4311326314
 20
-140.6853655091
 30
0.0
 40
14.8665749747498
 50
179.512892172
 51
269.323417898
  0
ARC
  5
28F
  8
0
  6
CONTINUOUS
 62
     7
 10
175.7880661669
 20
-100.4704132833
 30
0.0
 40
14.8776335084033
 50
359.6598827063
 51
32.6990667389
  0
ARC
  5
290
  8
0
  6
CONTINUOUS
 62
     7
 10
125.5350150904
 20
-100.5029235465
 30
0.0
 40
14.97524819321602
 50
147.3881243277
 51
180.2162386816
  0
ARC
  5
291
  8
0
  6
CONTINUOUS
 62
     7
 10
125.3592528796
 20
-100.2657569248
 30
0.0
 40
14.69879197530869
 50
90.6991896742
 51
141.1138697876
  0
ARC
  5
292
  8
0
  6
CONTINUOUS
 62
     7
 10
175.874945775
 20
-100.2424209298
 30
0.0
 40
14.6782263254069
 50
38.7741646745
 51
89.7632229624
  0
LINE
  5
293
  8
0
  6
CONTINUOUS
 62
     7
 10
110.5568217904
 20
-100.558767619
 30
0.0
 11
110.5568217904
 21
-140.5587682151
 31
0.0
  0
LINE
  5
294
  8
0
  6
CONTINUOUS
 62
     7
 10
190.6743365199
 20
-140.5587682151
 30
0.0
 11
190.6743365199
 21
-100.558767619
 31
0.0
  0
ARC
  5
295
  8
0
  6
CONTINUOUS
 62
     7
 10
30.623196842
 20
-44.2610178338
 30
0.0
 40
6.286138045188483
 50
261.304642316
 51
278.4276822735
  0
LINE
  5
296
  8
0
  6
CONTINUOUS
 62
     7
 10
32.6155829103
 20
-49.8942518257
 30
0.0
 11
28.6155748041
 21
-49.8942518257
 31
0.0
  0
POLYLINE
  5
297
  8
0
  6
CONTINUOUS
 62
     7
 66
     1
 10
0.0
 20
0.0
 30
0.0
  0
VERTEX
  5
893
  8
0
  6
CONTINUOUS
 62
     7
 10
30.6155848176
 20
-50.0149035477
 30
0.0
  0
VERTEX
  5
894
  8
0
  6
CONTINUOUS
 62
     7
 10
30.3457784326
 20
-50.0194230699
 30
0.0
  0
VERTEX
  5
895
  8
0
  6
CONTINUOUS
 62
     7
 10
30.0959992082
 20
-50.0326448702
 30
0.0
  0
VERTEX
  5
896
  8
0
  6
CONTINUOUS
 62
     7
 10
29.8847484262
 20
-50.0535899424
 30
0.0
  0
VERTEX
  5
897
  8
0
  6
CONTINUOUS
 62
     7
 10
29.7276901872
 20
-50.0807040953
 30
0.0
  0
VERTEX
  5
898
  8
0
  6
CONTINUOUS
 62
     7
 10
29.6364950807
 20
-50.1119771623
 30
0.0
  0
VERTEX
  5
899
  8
0
  6
CONTINUOUS
 62
     7
 10
29.6155857713
 20
-50.1367726945
 30
0.0
  0
SEQEND
  5
A90
  8
0
  6
CONTINUOUS
 62
     7
  0
POLYLINE
  5
298
  8
0
  6
CONTINUOUS
 62
     7
 66
     1
 10
0.0
 20
0.0
 30
0.0
  0
VERTEX
  5
89A
  8
0
  6
CONTINUOUS
 62
     7
 10
31.615583864
 20
-50.1367726945
 30
0.0
  0
VERTEX
  5
89B
  8
0
  6
CONTINUOUS
 62
     7
 10
31.5946626336
 20
-50.1119771623
 30
0.0
  0
VERTEX
  5
89C
  8
0
  6
CONTINUOUS
 62
     7
 10
31.5034675271
 20
-50.0807040953
 30
0.0
  0
VERTEX
  5
89D
  8
0
  6
CONTINUOUS
 62
     7
 10
31.3464212091
 20
-50.0535899424
 30
0.0
  0
VERTEX
  5
89E
  8
0
  6
CONTINUOUS
 62
     7
 10
31.1351585061
 20
-50.0326448702
 30
0.0
  0
VERTEX
  5
89F
  8
0
  6
CONTINUOUS
 62
     7
 10
30.8853792817
 20
-50.0194230699
 30
0.0
  0
VERTEX
  5
8A0
  8
0
  6
CONTINUOUS
 62
     7
 10
30.6155848176
 20
-50.0149035477
 30
0.0
  0
SEQEND
  5
A8F
  8
0
  6
CONTINUOUS
 62
     7
  0
ARC
  5
299
  8
0
  6
CONTINUOUS
 62
     7
 10
32.619289603
 20
-48.8979593269
 30
0.0
 40
0.9962993941203437
 50
269.7868328114
 51
359.7845997126
  0
LINE
  5
29A
  8
0
  6
CONTINUOUS
 62
     7
 10
33.6155819566
 20
-48.9017048501
 30
0.0
 11
33.6155819566
 21
-50.496747496
 31
0.0
  0
ARC
  5
29B
  8
0
  6
CONTINUOUS
 62
     7
 10
28.6118730495
 20
-48.8979543516
 30
0.0
 40
0.9963043510305098
 50
180.2156853392
 51
270.2128821369
  0
LINE
  5
29C
  8
0
  6
CONTINUOUS
 62
     7
 10
27.6155757577
 20
-48.9017048501
 30
0.0
 11
27.6155757577
 21
-44.9315229081
 31
0.0
  0
ARC
  5
29D
  8
0
  6
CONTINUOUS
 62
     7
 10
28.6118766543
 20
-44.9352755427
 30
0.0
 40
0.9963079638385112
 50
89.7873259411
 51
179.7841925988
  0
LINE
  5
29E
  8
0
  6
CONTINUOUS
 62
     7
 10
28.6155748041
 20
-43.9389744424
 30
0.0
 11
32.6155829103
 21
-43.9389744424
 31
0.0
  0
ARC
  5
29F
  8
0
  6
CONTINUOUS
 62
     7
 10
32.6192859984
 20
-44.9352705673
 30
0.0
 40
0.9963030067544175
 50
0.2155223422
 51
90.2129591179
  0
LINE
  5
2A0
  8
0
  6
CONTINUOUS
 62
     7
 10
33.6155819566
 20
-44.9315229081
 30
0.0
 11
33.6155819566
 21
-48.9017048501
 31
0.0
  0
LINE
  5
2A1
  8
0
  6
CONTINUOUS
 62
     7
 10
27.6155757577
 20
-50.5012759589
 30
0.0
 11
27.6155757577
 21
-48.9017048501
 31
0.0
  0
POLYLINE
  5
2A2
  8
0
  6
CONTINUOUS
 62
     7
 66
     1
 10
0.0
 20
0.0
 30
0.0
  0
VERTEX
  5
8A1
  8
0
  6
CONTINUOUS
 62
     7
 10
57.3161291749
 20
-64.2726512276
 30
0.0
  0
VERTEX
  5
8A2
  8
0
  6
CONTINUOUS
 62
     7
 10
58.3972859056
 20
-64.4019992673
 30
0.0
  0
VERTEX
  5
8A3
  8
0
  6
CONTINUOUS
 62
     7
 10
59.4460773141
 20
-64.5178990089
 30
0.0
  0
VERTEX
  5
8A4
  8
0
  6
CONTINUOUS
 62
     7
 10
60.4429173143
 20
-64.617481979
 30
0.0
  0
VERTEX
  5
8A5
  8
0
  6
CONTINUOUS
 62
     7
 10
61.3778400094
 20
-64.6987774991
 30
0.0
  0
VERTEX
  5
8A6
  8
0
  6
CONTINUOUS
 62
     7
 10
62.2431564004
 20
-64.7602611803
 30
0.0
  0
VERTEX
  5
8A7
  8
0
  6
CONTINUOUS
 62
     7
 10
63.0231666238
 20
-64.799781295
 30
0.0
  0
VERTEX
  5
8A8
  8
0
  6
CONTINUOUS
 62
     7
 10
63.713448015
 20
-64.8156279348
 30
0.0
  0
VERTEX
  5
8A9
  8
0
  6
CONTINUOUS
 62
     7
 10
64.3046426446
 20
-64.8067036294
 30
0.0
  0
VERTEX
  5
8AA
  8
0
  6
CONTINUOUS
 62
     7
 10
64.7863197
 20
-64.7722528898
 30
0.0
  0
VERTEX
  5
8AB
  8
0
  6
CONTINUOUS
 62
     7
 10
65.1558684976
 20
-64.7106552147
 30
0.0
  0
VERTEX
  5
8AC
  8
0
  6
CONTINUOUS
 62
     7
 10
65.406661001
 20
-64.6224828087
 30
0.0
  0
VERTEX
  5
8AD
  8
0
  6
CONTINUOUS
 62
     7
 10
65.5343103082
 20
-64.5089136087
 30
0.0
  0
VERTEX
  5
8AE
  8
0
  6
CONTINUOUS
 62
     7
 10
65.5511903436
 20
-64.4398452365
 30
0.0
  0
SEQEND
  5
A8E
  8
0
  6
CONTINUOUS
 62
     7
  0
ARC
  5
2A3
  8
0
  6
CONTINUOUS
 62
     7
 10
30.6155728967
 20
-248.1109055233
 30
0.0
 40
185.7671215474726
 50
81.7361795211
 51
98.2638204789
  0
POLYLINE
  5
2A4
  8
0
  6
CONTINUOUS
 62
     7
 66
     1
 10
0.0
 20
0.0
 30
0.0
  0
VERTEX
  5
8AF
  8
0
  6
CONTINUOUS
 62
     7
 10
-4.3200326293
 20
-64.4398452365
 30
0.0
  0
VERTEX
  5
8B0
  8
0
  6
CONTINUOUS
 62
     7
 10
-4.2559457152
 20
-64.5673783146
 30
0.0
  0
VERTEX
  5
8B1
  8
0
  6
CONTINUOUS
 62
     7
 10
-4.0659261077
 20
-64.6696762764
 30
0.0
  0
VERTEX
  5
8B2
  8
0
  6
CONTINUOUS
 62
     7
 10
-3.7533355086
 20
-64.7451677941
 30
0.0
  0
VERTEX
  5
8B3
  8
0
  6
CONTINUOUS
 62
     7
 10
-3.3192706435
 20
-64.7932292544
 30
0.0
  0
VERTEX
  5
8B4
  8
0
  6
CONTINUOUS
 62
     7
 10
-2.7690244048
 20
-64.8146519088
 30
0.0
  0
VERTEX
  5
8B5
  8
0
  6
CONTINUOUS
 62
     7
 10
-2.1125865309
 20
-64.8099394166
 30
0.0
  0
VERTEX
  5
8B6
  8
0
  6
CONTINUOUS
 62
     7
 10
-1.3592315047
 20
-64.7800305509
 30
0.0
  0
VERTEX
  5
8B7
  8
0
  6
CONTINUOUS
 62
     7
 10
-0.5134177535
 20
-64.7267082357
 30
0.0
  0
VERTEX
  5
8B8
  8
0
  6
CONTINUOUS
 62
     7
 10
0.4090714128
 20
-64.6520705544
 30
0.0
  0
VERTEX
  5
8B9
  8
0
  6
CONTINUOUS
 62
     7
 10
1.3908791215
 20
-64.5586268627
 30
0.0
  0
VERTEX
  5
8BA
  8
0
  6
CONTINUOUS
 62
     7
 10
2.4303602846
 20
-64.447795751
 30
0.0
  0
VERTEX
  5
8BB
  8
0
  6
CONTINUOUS
 62
     7
 10
3.5078453691
 20
-64.3224613391
 30
0.0
  0
VERTEX
  5
8BC
  8
0
  6
CONTINUOUS
 62
     7
 10
3.9150166185
 20
-64.2726512276
 30
0.0
  0
SEQEND
  5
A8D
  8
0
  6
CONTINUOUS
 62
     7
  0
LINE
  5
2A5
  8
0
  6
CONTINUOUS
 62
     7
 10
-4.3200326293
 20
-59.9304312491
 30
0.0
 11
-4.3200326293
 21
-64.4398452365
 31
0.0
  0
LINE
  5
2A6
  8
0
  6
CONTINUOUS
 62
     7
 10
65.5511903436
 20
-64.4398452365
 30
0.0
 11
65.5511903436
 21
-59.9319660687
 31
0.0
  0
POLYLINE
  5
2A7
  8
0
  6
CONTINUOUS
 62
     7
 66
     1
 10
0.0
 20
0.0
 30
0.0
  0
VERTEX
  5
8BD
  8
0
  6
CONTINUOUS
 62
     7
 10
70.6743406923
 20
-63.3012728416
 30
0.0
  0
VERTEX
  5
8BE
  8
0
  6
CONTINUOUS
 62
     7
 10
70.6721233995
 20
-63.409661653
 30
0.0
  0
VERTEX
  5
8BF
  8
0
  6
CONTINUOUS
 62
     7
 10
70.6113981874
 20
-63.8754555606
 30
0.0
  0
SEQEND
  5
A8C
  8
0
  6
CONTINUOUS
 62
     7
  0
ARC
  5
2A8
  8
0
  6
CONTINUOUS
 62
     7
 10
270.6231975622
 20
-44.2609448935
 30
0.0
 40
6.286210616522376
 50
261.3047148537
 51
278.4276105882
  0
LINE
  5
2A9
  8
0
  6
CONTINUOUS
 62
     7
 10
272.6155805261
 20
-49.8942518257
 30
0.0
 11
268.6155783803
 21
-49.8942518257
 31
0.0
  0
POLYLINE
  5
2AA
  8
0
  6
CONTINUOUS
 62
     7
 66
     1
 10
0.0
 20
0.0
 30
0.0
  0
VERTEX
  5
8C0
  8
0
  6
CONTINUOUS
 62
     7
 10
270.6155824334
 20
-50.0149035477
 30
0.0
  0
VERTEX
  5
8C1
  8
0
  6
CONTINUOUS
 62
     7
 10
270.3457820089
 20
-50.0194230699
 30
0.0
  0
VERTEX
  5
8C2
  8
0
  6
CONTINUOUS
 62
     7
 10
270.095996824
 20
-50.0326448702
 30
0.0
  0
VERTEX
  5
8C3
  8
0
  6
CONTINUOUS
 62
     7
 10
269.884746042
 20
-50.0535899424
 30
0.0
  0
VERTEX
  5
8C4
  8
0
  6
CONTINUOUS
 62
     7
 10
269.7276937635
 20
-50.0807040953
 30
0.0
  0
VERTEX
  5
8C5
  8
0
  6
CONTINUOUS
 62
     7
 10
269.636498657
 20
-50.1119771623
 30
0.0
  0
VERTEX
  5
8C6
  8
0
  6
CONTINUOUS
 62
     7
 10
269.6155774267
 20
-50.1367726945
 30
0.0
  0
SEQEND
  5
A8B
  8
0
  6
CONTINUOUS
 62
     7
  0
POLYLINE
  5
2AB
  8
0
  6
CONTINUOUS
 62
     7
 66
     1
 10
0.0
 20
0.0
 30
0.0
  0
VERTEX
  5
8C7
  8
0
  6
CONTINUOUS
 62
     7
 10
271.6155814798
 20
-50.1367726945
 30
0.0
  0
VERTEX
  5
8C8
  8
0
  6
CONTINUOUS
 62
     7
 10
271.5946662099
 20
-50.1119771623
 30
0.0
  0
VERTEX
  5
8C9
  8
0
  6
CONTINUOUS
 62
     7
 10
271.503465143
 20
-50.0807040953
 30
0.0
  0
VERTEX
  5
8CA
  8
0
  6
CONTINUOUS
 62
     7
 10
271.3464188249
 20
-50.0535899424
 30
0.0
  0
VERTEX
  5
8CB
  8
0
  6
CONTINUOUS
 62
     7
 10
271.1351620824
 20
-50.0326448702
 30
0.0
  0
VERTEX
  5
8CC
  8
0
  6
CONTINUOUS
 62
     7
 10
270.8853768976
 20
-50.0194230699
 30
0.0
  0
VERTEX
  5
8CD
  8
0
  6
CONTINUOUS
 62
     7
 10
270.6155824334
 20
-50.0149035477
 30
0.0
  0
SEQEND
  5
A8A
  8
0
  6
CONTINUOUS
 62
     7
  0
ARC
  5
2AC
  8
0
  6
CONTINUOUS
 62
     7
 10
272.6192965434
 20
-48.8979687215
 30
0.0
 40
0.9962900343945457
 50
269.7862945601
 51
359.7851379639
  0
LINE
  5
2AD
  8
0
  6
CONTINUOUS
 62
     7
 10
273.6155795724
 20
-48.9017048501
 30
0.0
 11
273.6155795724
 21
-50.496747496
 31
0.0
  0
ARC
  5
2AE
  8
0
  6
CONTINUOUS
 62
     7
 10
268.6118648321
 20
-48.8979662338
 30
0.0
 40
0.9962925127946621
 50
180.2150045634
 51
270.2135629127
  0
LINE
  5
2AF
  8
0
  6
CONTINUOUS
 62
     7
 10
267.615579334
 20
-48.9017048501
 30
0.0
 11
267.615579334
 21
-44.9315229081
 31
0.0
  0
ARC
  5
2B0
  8
0
  6
CONTINUOUS
 62
     7
 10
268.6118684368
 20
-44.9352636604
 30
0.0
 40
0.996296125476161
 50
89.7866451645
 51
179.7848733755
  0
LINE
  5
2B1
  8
0
  6
CONTINUOUS
 62
     7
 10
268.6155783803
 20
-43.9389744424
 30
0.0
 11
272.6155805261
 21
-43.9389744424
 31
0.0
  0
ARC
  5
2B2
  8
0
  6
CONTINUOUS
 62
     7
 10
272.6192929388
 20
-44.9352611727
 30
0.0
 40
0.9962936469891323
 50
0.2149840936
 51
90.2134973664
  0
LINE
  5
2B3
  8
0
  6
CONTINUOUS
 62
     7
 10
273.6155795724
 20
-44.9315229081
 30
0.0
 11
273.6155795724
 21
-48.9017048501
 31
0.0
  0
LINE
  5
2B4
  8
0
  6
CONTINUOUS
 62
     7
 10
267.615579334
 20
-50.5012759589
 30
0.0
 11
267.615579334
 21
-48.9017048501
 31
0.0
  0
POLYLINE
  5
2B5
  8
0
  6
CONTINUOUS
 62
     7
 66
     1
 10
0.0
 20
0.0
 30
0.0
  0
VERTEX
  5
8CE
  8
0
  6
CONTINUOUS
 62
     7
 10
297.3161327512
 20
-64.2726512276
 30
0.0
  0
VERTEX
  5
8CF
  8
0
  6
CONTINUOUS
 62
     7
 10
298.3972894819
 20
-64.4019992673
 30
0.0
  0
VERTEX
  5
8D0
  8
0
  6
CONTINUOUS
 62
     7
 10
299.4460749299
 20
-64.5178990089
 30
0.0
  0
VERTEX
  5
8D1
  8
0
  6
CONTINUOUS
 62
     7
 10
300.4429149301
 20
-64.617481979
 30
0.0
  0
VERTEX
  5
8D2
  8
0
  6
CONTINUOUS
 62
     7
 10
301.3778376252
 20
-64.6987774991
 30
0.0
  0
VERTEX
  5
8D3
  8
0
  6
CONTINUOUS
 62
     7
 10
302.2431540162
 20
-64.7602611803
 30
0.0
  0
VERTEX
  5
8D4
  8
0
  6
CONTINUOUS
 62
     7
 10
303.0231642396
 20
-64.799781295
 30
0.0
  0
VERTEX
  5
8D5
  8
0
  6
CONTINUOUS
 62
     7
 10
303.7134515912
 20
-64.8156279348
 30
0.0
  0
VERTEX
  5
8D6
  8
0
  6
CONTINUOUS
 62
     7
 10
304.3046462209
 20
-64.8067036294
 30
0.0
  0
VERTEX
  5
8D7
  8
0
  6
CONTINUOUS
 62
     7
 10
304.7863232763
 20
-64.7722528898
 30
0.0
  0
VERTEX
  5
8D8
  8
0
  6
CONTINUOUS
 62
     7
 10
305.1558661134
 20
-64.7106552147
 30
0.0
  0
VERTEX
  5
8D9
  8
0
  6
CONTINUOUS
 62
     7
 10
305.4066586168
 20
-64.6224828087
 30
0.0
  0
VERTEX
  5
8DA
  8
0
  6
CONTINUOUS
 62
     7
 10
305.534307924
 20
-64.5089136087
 30
0.0
  0
VERTEX
  5
8DB
  8
0
  6
CONTINUOUS
 62
     7
 10
305.5511879594
 20
-64.4398452365
 30
0.0
  0
SEQEND
  5
A89
  8
0
  6
CONTINUOUS
 62
     7
  0
ARC
  5
2B6
  8
0
  6
CONTINUOUS
 62
     7
 10
270.6155794532
 20
-248.110874315
 30
0.0
 40
185.7670902348644
 50
81.7361790473
 51
98.2638209527
  0
POLYLINE
  5
2B7
  8
0
  6
CONTINUOUS
 62
     7
 66
     1
 10
0.0
 20
0.0
 30
0.0
  0
VERTEX
  5
8DC
  8
0
  6
CONTINUOUS
 62
     7
 10
235.679970947
 20
-64.4398452365
 30
0.0
  0
VERTEX
  5
8DD
  8
0
  6
CONTINUOUS
 62
     7
 10
235.7440578611
 20
-64.5673783146
 30
0.0
  0
VERTEX
  5
8DE
  8
0
  6
CONTINUOUS
 62
     7
 10
235.9340774686
 20
-64.6696762764
 30
0.0
  0
VERTEX
  5
8DF
  8
0
  6
CONTINUOUS
 62
     7
 10
236.2466621072
 20
-64.7451677941
 30
0.0
  0
VERTEX
  5
8E0
  8
0
  6
CONTINUOUS
 62
     7
 10
236.6807299526
 20
-64.7932292544
 30
0.0
  0
VERTEX
  5
8E1
  8
0
  6
CONTINUOUS
 62
     7
 10
237.2309761913
 20
-64.8146519088
 30
0.0
  0
VERTEX
  5
8E2
  8
0
  6
CONTINUOUS
 62
     7
 10
237.8874110849
 20
-64.8099394166
 30
0.0
  0
VERTEX
  5
8E3
  8
0
  6
CONTINUOUS
 62
     7
 10
238.640778032
 20
-64.7800305509
 30
0.0
  0
VERTEX
  5
8E4
  8
0
  6
CONTINUOUS
 62
     7
 10
239.4865917833
 20
-64.7267082357
 30
0.0
  0
VERTEX
  5
8E5
  8
0
  6
CONTINUOUS
 62
     7
 10
240.4090690286
 20
-64.6520705544
 30
0.0
  0
VERTEX
  5
8E6
  8
0
  6
CONTINUOUS
 62
     7
 10
241.390885678
 20
-64.5586268627
 30
0.0
  0
VERTEX
  5
8E7
  8
0
  6
CONTINUOUS
 62
     7
 10
242.4303638608
 20
-64.447795751
 30
0.0
  0
VERTEX
  5
8E8
  8
0
  6
CONTINUOUS
 62
     7
 10
243.5078400047
 20
-64.3224613391
 30
0.0
  0
VERTEX
  5
8E9
  8
0
  6
CONTINUOUS
 62
     7
 10
243.9150261552
 20
-64.2726512276
 30
0.0
  0
SEQEND
  5
A88
  8
0
  6
CONTINUOUS
 62
     7
  0
LINE
  5
2B8
  8
0
  6
CONTINUOUS
 62
     7
 10
235.679970947
 20
-59.9304312491
 30
0.0
 11
235.679970947
 21
-64.4398452365
 31
0.0
  0
LINE
  5
2B9
  8
0
  6
CONTINUOUS
 62
     7
 10
305.5511879594
 20
-64.4398452365
 30
0.0
 11
305.5511879594
 21
-59.9319660687
 31
0.0
  0
POLYLINE
  5
2BA
  8
0
  6
CONTINUOUS
 62
     7
 66
     1
 10
0.0
 20
0.0
 30
0.0
  0
VERTEX
  5
8EA
  8
0
  6
CONTINUOUS
 62
     7
 10
310.6743383081
 20
-63.3012728416
 30
0.0
  0
VERTEX
  5
8EB
  8
0
  6
CONTINUOUS
 62
     7
 10
310.6721210153
 20
-63.409661653
 30
0.0
  0
VERTEX
  5
8EC
  8
0
  6
CONTINUOUS
 62
     7
 10
310.6113958032
 20
-63.8754555606
 30
0.0
  0
SEQEND
  5
A87
  8
0
  6
CONTINUOUS
 62
     7
  0
ARC
  5
2BB
  8
0
  6
CONTINUOUS
 62
     7
 10
390.6231994381
 20
-44.2609271264
 30
0.0
 40
6.286227742112344
 50
261.304765396
 51
278.4275591935
  0
ARC
  5
2BC
  8
0
  6
CONTINUOUS
 62
     7
 10
392.619287049
 20
-48.8979543516
 30
0.0
 40
0.9963043510304602
 50
269.7871178631
 51
359.7843146608
  0
LINE
  5
2BD
  8
0
  6
CONTINUOUS
 62
     7
 10
393.6155843408
 20
-48.9017048501
 30
0.0
 11
393.6155843408
 21
-50.496747496
 31
0.0
  0
LINE
  5
2BE
  8
0
  6
CONTINUOUS
 62
     7
 10
392.6155852945
 20
-49.8942518257
 30
0.0
 11
388.6155771882
 21
-49.8942518257
 31
0.0
  0
POLYLINE
  5
2BF
  8
0
  6
CONTINUOUS
 62
     7
 66
     1
 10
0.0
 20
0.0
 30
0.0
  0
VERTEX
  5
8ED
  8
0
  6
CONTINUOUS
 62
     7
 10
390.6155752809
 20
-50.0149035477
 30
0.0
  0
VERTEX
  5
8EE
  8
0
  6
CONTINUOUS
 62
     7
 10
390.3457808168
 20
-50.0194230699
 30
0.0
  0
VERTEX
  5
8EF
  8
0
  6
CONTINUOUS
 62
     7
 10
390.0960015924
 20
-50.0326448702
 30
0.0
  0
VERTEX
  5
8F0
  8
0
  6
CONTINUOUS
 62
     7
 10
389.8847388894
 20
-50.0535899424
 30
0.0
  0
VERTEX
  5
8F1
  8
0
  6
CONTINUOUS
 62
     7
 10
389.7276925714
 20
-50.0807040953
 30
0.0
  0
VERTEX
  5
8F2
  8
0
  6
CONTINUOUS
 62
     7
 10
389.6364974649
 20
-50.1119771623
 30
0.0
  0
VERTEX
  5
8F3
  8
0
  6
CONTINUOUS
 62
     7
 10
389.6155762346
 20
-50.1367726945
 30
0.0
  0
SEQEND
  5
A86
  8
0
  6
CONTINUOUS
 62
     7
  0
POLYLINE
  5
2C0
  8
0
  6
CONTINUOUS
 62
     7
 66
     1
 10
0.0
 20
0.0
 30
0.0
  0
VERTEX
  5
8F4
  8
0
  6
CONTINUOUS
 62
     7
 10
391.6155743272
 20
-50.1367726945
 30
0.0
  0
VERTEX
  5
8F5
  8
0
  6
CONTINUOUS
 62
     7
 10
391.5946650178
 20
-50.1119771623
 30
0.0
  0
VERTEX
  5
8F6
  8
0
  6
CONTINUOUS
 62
     7
 10
391.5034699113
 20
-50.0807040953
 30
0.0
  0
VERTEX
  5
8F7
  8
0
  6
CONTINUOUS
 62
     7
 10
391.3464116723
 20
-50.0535899424
 30
0.0
  0
VERTEX
  5
8F8
  8
0
  6
CONTINUOUS
 62
     7
 10
391.1351608903
 20
-50.0326448702
 30
0.0
  0
VERTEX
  5
8F9
  8
0
  6
CONTINUOUS
 62
     7
 10
390.8853816659
 20
-50.0194230699
 30
0.0
  0
VERTEX
  5
8FA
  8
0
  6
CONTINUOUS
 62
     7
 10
390.6155752809
 20
-50.0149035477
 30
0.0
  0
SEQEND
  5
A85
  8
0
  6
CONTINUOUS
 62
     7
  0
ARC
  5
2C1
  8
0
  6
CONTINUOUS
 62
     7
 10
388.6118704955
 20
-48.8979593269
 30
0.0
 40
0.9962993941203153
 50
180.2154002874
 51
270.2131671886
  0
LINE
  5
2C2
  8
0
  6
CONTINUOUS
 62
     7
 10
387.6155781419
 20
-48.9017048501
 30
0.0
 11
387.6155781419
 21
-44.9315229081
 31
0.0
  0
ARC
  5
2C3
  8
0
  6
CONTINUOUS
 62
     7
 10
388.6118741001
 20
-44.9352705673
 30
0.0
 40
0.9963030067543961
 50
89.7870408821
 51
179.7844776578
  0
LINE
  5
2C4
  8
0
  6
CONTINUOUS
 62
     7
 10
388.6155771882
 20
-43.9389744424
 30
0.0
 11
392.6155852945
 21
-43.9389744424
 31
0.0
  0
ARC
  5
2C5
  8
0
  6
CONTINUOUS
 62
     7
 10
392.6192834442
 20
-44.9352755427
 30
0.0
 40
0.9963079638384544
 50
0.2158074012
 51
90.2126740589
  0
LINE
  5
2C6
  8
0
  6
CONTINUOUS
 62
     7
 10
393.6155843408
 20
-44.9315229081
 30
0.0
 11
393.6155843408
 21
-48.9017048501
 31
0.0
  0
LINE
  5
2C7
  8
0
  6
CONTINUOUS
 62
     7
 10
387.6155781419
 20
-50.5012759589
 30
0.0
 11
387.6155781419
 21
-48.9017048501
 31
0.0
  0
POLYLINE
  5
2C8
  8
0
  6
CONTINUOUS
 62
     7
 66
     1
 10
0.0
 20
0.0
 30
0.0
  0
VERTEX
  5
8FB
  8
0
  6
CONTINUOUS
 62
     7
 10
417.31614348
 20
-64.2726512276
 30
0.0
  0
VERTEX
  5
8FC
  8
0
  6
CONTINUOUS
 62
     7
 10
418.3972763688
 20
-64.4019992673
 30
0.0
  0
VERTEX
  5
8FD
  8
0
  6
CONTINUOUS
 62
     7
 10
419.4460796983
 20
-64.5178990089
 30
0.0
  0
VERTEX
  5
8FE
  8
0
  6
CONTINUOUS
 62
     7
 10
420.4429077775
 20
-64.617481979
 30
0.0
  0
VERTEX
  5
8FF
  8
0
  6
CONTINUOUS
 62
     7
 10
421.3778423936
 20
-64.6987774991
 30
0.0
  0
VERTEX
  5
900
  8
0
  6
CONTINUOUS
 62
     7
 10
422.2431587846
 20
-64.7602611803
 30
0.0
  0
VERTEX
  5
901
  8
0
  6
CONTINUOUS
 62
     7
 10
423.023169008
 20
-64.799781295
 30
0.0
  0
VERTEX
  5
902
  8
0
  6
CONTINUOUS
 62
     7
 10
423.7134623201
 20
-64.8156279348
 30
0.0
  0
VERTEX
  5
903
  8
0
  6
CONTINUOUS
 62
     7
 10
424.3046450288
 20
-64.8067036294
 30
0.0
  0
VERTEX
  5
904
  8
0
  6
CONTINUOUS
 62
     7
 10
424.7863220842
 20
-64.7722528898
 30
0.0
  0
VERTEX
  5
905
  8
0
  6
CONTINUOUS
 62
     7
 10
425.1558708818
 20
-64.7106552147
 30
0.0
  0
VERTEX
  5
906
  8
0
  6
CONTINUOUS
 62
     7
 10
425.4066633851
 20
-64.6224828087
 30
0.0
  0
VERTEX
  5
907
  8
0
  6
CONTINUOUS
 62
     7
 10
425.5343126924
 20
-64.5089136087
 30
0.0
  0
VERTEX
  5
908
  8
0
  6
CONTINUOUS
 62
     7
 10
425.5511927278
 20
-64.4398452365
 30
0.0
  0
SEQEND
  5
A84
  8
0
  6
CONTINUOUS
 62
     7
  0
ARC
  5
2C9
  8
0
  6
CONTINUOUS
 62
     7
 10
390.6155872018
 20
-248.1109055233
 30
0.0
 40
185.7671215474728
 50
81.7361795211
 51
98.2638204789
  0
POLYLINE
  5
2CA
  8
0
  6
CONTINUOUS
 62
     7
 66
     1
 10
0.0
 20
0.0
 30
0.0
  0
VERTEX
  5
909
  8
0
  6
CONTINUOUS
 62
     7
 10
355.6799697549
 20
-64.4398452365
 30
0.0
  0
VERTEX
  5
90A
  8
0
  6
CONTINUOUS
 62
     7
 10
355.744056669
 20
-64.5673783146
 30
0.0
  0
VERTEX
  5
90B
  8
0
  6
CONTINUOUS
 62
     7
 10
355.9340762765
 20
-64.6696762764
 30
0.0
  0
VERTEX
  5
90C
  8
0
  6
CONTINUOUS
 62
     7
 10
356.2466668756
 20
-64.7451677941
 30
0.0
  0
VERTEX
  5
90D
  8
0
  6
CONTINUOUS
 62
     7
 10
356.6807317407
 20
-64.7932292544
 30
0.0
  0
VERTEX
  5
90E
  8
0
  6
CONTINUOUS
 62
     7
 10
357.2309779794
 20
-64.8146519088
 30
0.0
  0
VERTEX
  5
90F
  8
0
  6
CONTINUOUS
 62
     7
 10
357.8874158532
 20
-64.8099394166
 30
0.0
  0
VERTEX
  5
910
  8
0
  6
CONTINUOUS
 62
     7
 10
358.6407828004
 20
-64.7800305509
 30
0.0
  0
VERTEX
  5
911
  8
0
  6
CONTINUOUS
 62
     7
 10
359.4865965516
 20
-64.7267082357
 30
0.0
  0
VERTEX
  5
912
  8
0
  6
CONTINUOUS
 62
     7
 10
360.409061876
 20
-64.6520705544
 30
0.0
  0
VERTEX
  5
913
  8
0
  6
CONTINUOUS
 62
     7
 10
361.3908815057
 20
-64.5586268627
 30
0.0
  0
VERTEX
  5
914
  8
0
  6
CONTINUOUS
 62
     7
 10
362.4303626687
 20
-64.447795751
 30
0.0
  0
VERTEX
  5
915
  8
0
  6
CONTINUOUS
 62
     7
 10
363.5078358323
 20
-64.3224613391
 30
0.0
  0
VERTEX
  5
916
  8
0
  6
CONTINUOUS
 62
     7
 10
363.9150309236
 20
-64.2726512276
 30
0.0
  0
SEQEND
  5
A83
  8
0
  6
CONTINUOUS
 62
     7
  0
LINE
  5
2CB
  8
0
  6
CONTINUOUS
 62
     7
 10
355.6799697549
 20
-59.9304312491
 30
0.0
 11
355.6799697549
 21
-64.4398452365
 31
0.0
  0
LINE
  5
2CC
  8
0
  6
CONTINUOUS
 62
     7
 10
425.5511927278
 20
-64.4398452365
 30
0.0
 11
425.5511927278
 21
-59.9319660687
 31
0.0
  0
POLYLINE
  5
2CD
  8
0
  6
CONTINUOUS
 62
     7
 66
     1
 10
0.0
 20
0.0
 30
0.0
  0
VERTEX
  5
917
  8
0
  6
CONTINUOUS
 62
     7
 10
430.6743311555
 20
-63.3012728416
 30
0.0
  0
VERTEX
  5
918
  8
0
  6
CONTINUOUS
 62
     7
 10
430.6721138627
 20
-63.409661653
 30
0.0
  0
VERTEX
  5
919
  8
0
  6
CONTINUOUS
 62
     7
 10
430.6113886506
 20
-63.8754555606
 30
0.0
  0
SEQEND
  5
A82
  8
0
  6
CONTINUOUS
 62
     7
  0
ARC
  5
2CE
  8
0
  6
CONTINUOUS
 62
     7
 10
150.6231987588
 20
-44.260942963
 30
0.0
 40
6.28621252547684
 50
261.3047174731
 51
278.4276079687
  0
LINE
  5
2CF
  8
0
  6
CONTINUOUS
 62
     7
 10
152.6155817182
 20
-49.8942518257
 30
0.0
 11
148.6155795724
 21
-49.8942518257
 31
0.0
  0
POLYLINE
  5
2D0
  8
0
  6
CONTINUOUS
 62
     7
 66
     1
 10
0.0
 20
0.0
 30
0.0
  0
VERTEX
  5
91A
  8
0
  6
CONTINUOUS
 62
     7
 10
150.6155776651
 20
-50.0149035477
 30
0.0
  0
VERTEX
  5
91B
  8
0
  6
CONTINUOUS
 62
     7
 10
150.345783201
 20
-50.0194230699
 30
0.0
  0
VERTEX
  5
91C
  8
0
  6
CONTINUOUS
 62
     7
 10
150.0959980161
 20
-50.0326448702
 30
0.0
  0
VERTEX
  5
91D
  8
0
  6
CONTINUOUS
 62
     7
 10
149.8847412736
 20
-50.0535899424
 30
0.0
  0
VERTEX
  5
91E
  8
0
  6
CONTINUOUS
 62
     7
 10
149.7276949556
 20
-50.0807040953
 30
0.0
  0
VERTEX
  5
91F
  8
0
  6
CONTINUOUS
 62
     7
 10
149.6364938886
 20
-50.1119771623
 30
0.0
  0
VERTEX
  5
920
  8
0
  6
CONTINUOUS
 62
     7
 10
149.6155786187
 20
-50.1367726945
 30
0.0
  0
SEQEND
  5
A81
  8
0
  6
CONTINUOUS
 62
     7
  0
POLYLINE
  5
2D1
  8
0
  6
CONTINUOUS
 62
     7
 66
     1
 10
0.0
 20
0.0
 30
0.0
  0
VERTEX
  5
921
  8
0
  6
CONTINUOUS
 62
     7
 10
151.6155826719
 20
-50.1367726945
 30
0.0
  0
VERTEX
  5
922
  8
0
  6
CONTINUOUS
 62
     7
 10
151.5946614415
 20
-50.1119771623
 30
0.0
  0
VERTEX
  5
923
  8
0
  6
CONTINUOUS
 62
     7
 10
151.503466335
 20
-50.0807040953
 30
0.0
  0
VERTEX
  5
924
  8
0
  6
CONTINUOUS
 62
     7
 10
151.3464140565
 20
-50.0535899424
 30
0.0
  0
VERTEX
  5
925
  8
0
  6
CONTINUOUS
 62
     7
 10
151.1351632745
 20
-50.0326448702
 30
0.0
  0
VERTEX
  5
926
  8
0
  6
CONTINUOUS
 62
     7
 10
150.8853780897
 20
-50.0194230699
 30
0.0
  0
VERTEX
  5
927
  8
0
  6
CONTINUOUS
 62
     7
 10
150.6155776651
 20
-50.0149035477
 30
0.0
  0
SEQEND
  5
A80
  8
0
  6
CONTINUOUS
 62
     7
  0
ARC
  5
2D2
  8
0
  6
CONTINUOUS
 62
     7
 10
152.6192952664
 20
-48.8979662338
 30
0.0
 40
0.9962925127945481
 50
269.7864370873
 51
359.7849954366
  0
LINE
  5
2D3
  8
0
  6
CONTINUOUS
 62
     7
 10
153.6155807645
 20
-48.9017048501
 30
0.0
 11
153.6155807645
 21
-50.496747496
 31
0.0
  0
ARC
  5
2D4
  8
0
  6
CONTINUOUS
 62
     7
 10
148.6118635551
 20
-48.8979687215
 30
0.0
 40
0.9962900343945741
 50
180.2148620362
 51
270.2137054399
  0
LINE
  5
2D5
  8
0
  6
CONTINUOUS
 62
     7
 10
147.6155805261
 20
-48.9017048501
 30
0.0
 11
147.6155805261
 21
-44.9315229081
 31
0.0
  0
ARC
  5
2D6
  8
0
  6
CONTINUOUS
 62
     7
 10
148.6118671598
 20
-44.9352611727
 30
0.0
 40
0.9962936469891466
 50
89.7865026336
 51
179.7850159064
  0
LINE
  5
2D7
  8
0
  6
CONTINUOUS
 62
     7
 10
148.6155795724
 20
-43.9389744424
 30
0.0
 11
152.6155817182
 21
-43.9389744424
 31
0.0
  0
ARC
  5
2D8
  8
0
  6
CONTINUOUS
 62
     7
 10
152.6192916617
 20
-44.9352636604
 30
0.0
 40
0.9962961254761036
 50
0.2151266245
 51
90.2133548355
  0
LINE
  5
2D9
  8
0
  6
CONTINUOUS
 62
     7
 10
153.6155807645
 20
-44.9315229081
 30
0.0
 11
153.6155807645
 21
-48.9017048501
 31
0.0
  0
LINE
  5
2DA
  8
0
  6
CONTINUOUS
 62
     7
 10
147.6155805261
 20
-50.5012759589
 30
0.0
 11
147.6155805261
 21
-48.9017048501
 31
0.0
  0
POLYLINE
  5
2DB
  8
0
  6
CONTINUOUS
 62
     7
 66
     1
 10
0.0
 20
0.0
 30
0.0
  0
VERTEX
  5
928
  8
0
  6
CONTINUOUS
 62
     7
 10
177.3161339433
 20
-64.2726512276
 30
0.0
  0
VERTEX
  5
929
  8
0
  6
CONTINUOUS
 62
     7
 10
178.3972876937
 20
-64.4019992673
 30
0.0
  0
VERTEX
  5
92A
  8
0
  6
CONTINUOUS
 62
     7
 10
179.446076122
 20
-64.5178990089
 30
0.0
  0
VERTEX
  5
92B
  8
0
  6
CONTINUOUS
 62
     7
 10
180.4429161222
 20
-64.617481979
 30
0.0
  0
VERTEX
  5
92C
  8
0
  6
CONTINUOUS
 62
     7
 10
181.3778388173
 20
-64.6987774991
 30
0.0
  0
VERTEX
  5
92D
  8
0
  6
CONTINUOUS
 62
     7
 10
182.2431522281
 20
-64.7602611803
 30
0.0
  0
VERTEX
  5
92E
  8
0
  6
CONTINUOUS
 62
     7
 10
183.0231654317
 20
-64.799781295
 30
0.0
  0
VERTEX
  5
92F
  8
0
  6
CONTINUOUS
 62
     7
 10
183.7134527833
 20
-64.8156279348
 30
0.0
  0
VERTEX
  5
930
  8
0
  6
CONTINUOUS
 62
     7
 10
184.3046444328
 20
-64.8067036294
 30
0.0
  0
VERTEX
  5
931
  8
0
  6
CONTINUOUS
 62
     7
 10
184.7863214881
 20
-64.7722528898
 30
0.0
  0
VERTEX
  5
932
  8
0
  6
CONTINUOUS
 62
     7
 10
185.1558702857
 20
-64.7106552147
 30
0.0
  0
VERTEX
  5
933
  8
0
  6
CONTINUOUS
 62
     7
 10
185.4066568286
 20
-64.6224828087
 30
0.0
  0
VERTEX
  5
934
  8
0
  6
CONTINUOUS
 62
     7
 10
185.5343061359
 20
-64.5089136087
 30
0.0
  0
VERTEX
  5
935
  8
0
  6
CONTINUOUS
 62
     7
 10
185.5511891515
 20
-64.4398452365
 30
0.0
  0
SEQEND
  5
A7F
  8
0
  6
CONTINUOUS
 62
     7
  0
ARC
  5
2DC
  8
0
  6
CONTINUOUS
 62
     7
 10
150.6155806453
 20
-248.110874315
 30
0.0
 40
185.7670902348639
 50
81.7361790473
 51
98.2638209527
  0
POLYLINE
  5
2DD
  8
0
  6
CONTINUOUS
 62
     7
 66
     1
 10
0.0
 20
0.0
 30
0.0
  0
VERTEX
  5
936
  8
0
  6
CONTINUOUS
 62
     7
 10
115.6799721391
 20
-64.4398452365
 30
0.0
  0
VERTEX
  5
937
  8
0
  6
CONTINUOUS
 62
     7
 10
115.7440590532
 20
-64.5673783146
 30
0.0
  0
VERTEX
  5
938
  8
0
  6
CONTINUOUS
 62
     7
 10
115.9340786607
 20
-64.6696762764
 30
0.0
  0
VERTEX
  5
939
  8
0
  6
CONTINUOUS
 62
     7
 10
116.2466632993
 20
-64.7451677941
 30
0.0
  0
VERTEX
  5
93A
  8
0
  6
CONTINUOUS
 62
     7
 10
116.6807281644
 20
-64.7932292544
 30
0.0
  0
VERTEX
  5
93B
  8
0
  6
CONTINUOUS
 62
     7
 10
117.2309744031
 20
-64.8146519088
 30
0.0
  0
VERTEX
  5
93C
  8
0
  6
CONTINUOUS
 62
     7
 10
117.887412277
 20
-64.8099394166
 30
0.0
  0
VERTEX
  5
93D
  8
0
  6
CONTINUOUS
 62
     7
 10
118.6407792241
 20
-64.7800305509
 30
0.0
  0
VERTEX
  5
93E
  8
0
  6
CONTINUOUS
 62
     7
 10
119.4865929754
 20
-64.7267082357
 30
0.0
  0
VERTEX
  5
93F
  8
0
  6
CONTINUOUS
 62
     7
 10
120.4090702207
 20
-64.6520705544
 30
0.0
  0
VERTEX
  5
940
  8
0
  6
CONTINUOUS
 62
     7
 10
121.3908838899
 20
-64.5586268627
 30
0.0
  0
VERTEX
  5
941
  8
0
  6
CONTINUOUS
 62
     7
 10
122.4303650529
 20
-64.447795751
 30
0.0
  0
VERTEX
  5
942
  8
0
  6
CONTINUOUS
 62
     7
 10
123.5078382165
 20
-64.3224613391
 30
0.0
  0
VERTEX
  5
943
  8
0
  6
CONTINUOUS
 62
     7
 10
123.9150273473
 20
-64.2726512276
 30
0.0
  0
SEQEND
  5
A7E
  8
0
  6
CONTINUOUS
 62
     7
  0
LINE
  5
2DE
  8
0
  6
CONTINUOUS
 62
     7
 10
115.6799721391
 20
-59.9304312491
 30
0.0
 11
115.6799721391
 21
-64.4398452365
 31
0.0
  0
LINE
  5
2DF
  8
0
  6
CONTINUOUS
 62
     7
 10
185.5511891515
 20
-64.4398452365
 30
0.0
 11
185.5511891515
 21
-59.9319660687
 31
0.0
  0
POLYLINE
  5
2E0
  8
0
  6
CONTINUOUS
 62
     7
 66
     1
 10
0.0
 20
0.0
 30
0.0
  0
VERTEX
  5
944
  8
0
  6
CONTINUOUS
 62
     7
 10
190.6743365199
 20
-63.3012728416
 30
0.0
  0
VERTEX
  5
945
  8
0
  6
CONTINUOUS
 62
     7
 10
190.6721192272
 20
-63.409661653
 30
0.0
  0
VERTEX
  5
946
  8
0
  6
CONTINUOUS
 62
     7
 10
190.6113969953
 20
-63.8754555606
 30
0.0
  0
SEQEND
  5
A7D
  8
0
  6
CONTINUOUS
 62
     7
  0
LINE
  5
2E1
  8
0
  6
CONTINUOUS
 62
     7
 10
267.615579334
 20
-63.7538404786
 30
0.0
 11
267.615579334
 21
-66.4278545999
 31
0.0
  0
LINE
  5
2E2
  8
0
  6
CONTINUOUS
 62
     7
 10
273.6155795724
 20
-63.7583689415
 30
0.0
 11
273.6155795724
 21
-66.4278545999
 31
0.0
  0
LINE
  5
2E3
  8
0
  6
CONTINUOUS
 62
     7
 10
272.6155805261
 20
-68.8587667071
 30
0.0
 11
268.6155783803
 21
-68.8587667071
 31
0.0
  0
ARC
  5
2E4
  8
0
  6
CONTINUOUS
 62
     7
 10
272.6155800493
 20
-67.8587668799
 30
0.0
 40
1.0
 50
270.0
 51
0.0
  0
LINE
  5
2E5
  8
0
  6
CONTINUOUS
 62
     7
 10
273.6155795724
 20
-66.4278545999
 30
0.0
 11
273.6155795724
 21
-67.8587669157
 31
0.0
  0
ARC
  5
2E6
  8
0
  6
CONTINUOUS
 62
     7
 10
268.6155800493
 20
-67.8587668799
 30
0.0
 40
1.0
 50
180.0
 51
270.0
  0
LINE
  5
2E7
  8
0
  6
CONTINUOUS
 62
     7
 10
267.615579334
 20
-66.4278545999
 30
0.0
 11
267.615579334
 21
-67.8587669157
 31
0.0
  0
LINE
  5
2E8
  8
0
  6
CONTINUOUS
 62
     7
 10
288.6155771882
 20
-69.858766871
 30
0.0
 11
288.6155771882
 21
-79.4587669545
 31
0.0
  0
LINE
  5
2E9
  8
0
  6
CONTINUOUS
 62
     7
 10
252.615578738
 20
-69.858766871
 30
0.0
 11
252.615578738
 21
-79.4587669545
 31
0.0
  0
LINE
  5
2EA
  8
0
  6
CONTINUOUS
 62
     7
 10
288.6155771882
 20
-80.4587667458
 30
0.0
 11
252.615578738
 21
-80.4587667458
 31
0.0
  0
LINE
  5
2EB
  8
0
  6
CONTINUOUS
 62
     7
 10
288.6155771882
 20
-79.4587669545
 30
0.0
 11
288.6155771882
 21
-80.4587667458
 31
0.0
  0
LINE
  5
2EC
  8
0
  6
CONTINUOUS
 62
     7
 10
252.615578738
 20
-79.4587669545
 30
0.0
 11
252.615578738
 21
-80.4587667458
 31
0.0
  0
LINE
  5
2ED
  8
0
  6
CONTINUOUS
 62
     7
 10
268.6155783803
 20
-68.8587667071
 30
0.0
 11
252.615578738
 21
-68.8587667071
 31
0.0
  0
LINE
  5
2EE
  8
0
  6
CONTINUOUS
 62
     7
 10
288.6155771882
 20
-68.8587667071
 30
0.0
 11
272.6155805261
 21
-68.8587667071
 31
0.0
  0
LINE
  5
2EF
  8
0
  6
CONTINUOUS
 62
     7
 10
288.6155771882
 20
-68.8587667071
 30
0.0
 11
288.6155771882
 21
-69.858766871
 31
0.0
  0
LINE
  5
2F0
  8
0
  6
CONTINUOUS
 62
     7
 10
252.615578738
 20
-68.8587667071
 30
0.0
 11
252.615578738
 21
-69.858766871
 31
0.0
  0
LINE
  5
2F1
  8
0
  6
CONTINUOUS
 62
     7
 10
147.6155805261
 20
-63.7538404786
 30
0.0
 11
147.6155805261
 21
-66.4278545999
 31
0.0
  0
LINE
  5
2F2
  8
0
  6
CONTINUOUS
 62
     7
 10
153.6155807645
 20
-63.7583689415
 30
0.0
 11
153.6155807645
 21
-66.4278545999
 31
0.0
  0
ARC
  5
2F3
  8
0
  6
CONTINUOUS
 62
     7
 10
152.6155800493
 20
-67.8587668799
 30
0.0
 40
1.0
 50
270.0
 51
0.0
  0
LINE
  5
2F4
  8
0
  6
CONTINUOUS
 62
     7
 10
153.6155807645
 20
-66.4278545999
 30
0.0
 11
153.6155807645
 21
-67.8587669157
 31
0.0
  0
LINE
  5
2F5
  8
0
  6
CONTINUOUS
 62
     7
 10
152.6155817182
 20
-68.8587667071
 30
0.0
 11
148.6155795724
 21
-68.8587667071
 31
0.0
  0
ARC
  5
2F6
  8
0
  6
CONTINUOUS
 62
     7
 10
148.6155800493
 20
-67.8587668799
 30
0.0
 40
1.0
 50
180.0
 51
270.0
  0
LINE
  5
2F7
  8
0
  6
CONTINUOUS
 62
     7
 10
147.6155805261
 20
-66.4278545999
 30
0.0
 11
147.6155805261
 21
-67.8587669157
 31
0.0
  0
LINE
  5
2F8
  8
0
  6
CONTINUOUS
 62
     7
 10
168.6155813606
 20
-69.858766871
 30
0.0
 11
168.6155813606
 21
-79.4587669545
 31
0.0
  0
LINE
  5
2F9
  8
0
  6
CONTINUOUS
 62
     7
 10
132.6155829103
 20
-69.858766871
 30
0.0
 11
132.6155829103
 21
-79.4587669545
 31
0.0
  0
LINE
  5
2FA
  8
0
  6
CONTINUOUS
 62
     7
 10
168.6155813606
 20
-80.4587667458
 30
0.0
 11
132.6155829103
 21
-80.4587667458
 31
0.0
  0
LINE
  5
2FB
  8
0
  6
CONTINUOUS
 62
     7
 10
168.6155813606
 20
-79.4587669545
 30
0.0
 11
168.6155813606
 21
-80.4587667458
 31
0.0
  0
LINE
  5
2FC
  8
0
  6
CONTINUOUS
 62
     7
 10
132.6155829103
 20
-79.4587669545
 30
0.0
 11
132.6155829103
 21
-80.4587667458
 31
0.0
  0
LINE
  5
2FD
  8
0
  6
CONTINUOUS
 62
     7
 10
148.6155795724
 20
-68.8587667071
 30
0.0
 11
132.6155829103
 21
-68.8587667071
 31
0.0
  0
LINE
  5
2FE
  8
0
  6
CONTINUOUS
 62
     7
 10
168.6155813606
 20
-68.8587667071
 30
0.0
 11
152.6155817182
 21
-68.8587667071
 31
0.0
  0
LINE
  5
2FF
  8
0
  6
CONTINUOUS
 62
     7
 10
168.6155813606
 20
-68.8587667071
 30
0.0
 11
168.6155813606
 21
-69.858766871
 31
0.0
  0
LINE
  5
300
  8
0
  6
CONTINUOUS
 62
     7
 10
132.6155829103
 20
-68.8587667071
 30
0.0
 11
132.6155829103
 21
-69.858766871
 31
0.0
  0
LINE
  5
301
  8
0
  6
CONTINUOUS
 62
     7
 10
393.6155843408
 20
-63.7583689415
 30
0.0
 11
393.6155843408
 21
-66.4278545999
 31
0.0
  0
LINE
  5
302
  8
0
  6
CONTINUOUS
 62
     7
 10
387.6155781419
 20
-63.7538404786
 30
0.0
 11
387.6155781419
 21
-66.4278545999
 31
0.0
  0
ARC
  5
303
  8
0
  6
CONTINUOUS
 62
     7
 10
392.6155800493
 20
-67.8587668799
 30
0.0
 40
1.0
 50
270.0
 51
0.0
  0
LINE
  5
304
  8
0
  6
CONTINUOUS
 62
     7
 10
393.6155843408
 20
-66.4278545999
 30
0.0
 11
393.6155843408
 21
-67.8587669157
 31
0.0
  0
ARC
  5
305
  8
0
  6
CONTINUOUS
 62
     7
 10
388.6155800493
 20
-67.8587668799
 30
0.0
 40
1.0
 50
180.0
 51
270.0
  0
LINE
  5
306
  8
0
  6
CONTINUOUS
 62
     7
 10
387.6155781419
 20
-66.4278545999
 30
0.0
 11
387.6155781419
 21
-67.8587669157
 31
0.0
  0
LINE
  5
307
  8
0
  6
CONTINUOUS
 62
     7
 10
392.6155852945
 20
-68.8587667071
 30
0.0
 11
388.6155771882
 21
-68.8587667071
 31
0.0
  0
LINE
  5
308
  8
0
  6
CONTINUOUS
 62
     7
 10
408.6155819566
 20
-69.858766871
 30
0.0
 11
408.6155819566
 21
-79.4587669545
 31
0.0
  0
LINE
  5
309
  8
0
  6
CONTINUOUS
 62
     7
 10
372.6155805261
 20
-69.858766871
 30
0.0
 11
372.6155805261
 21
-79.4587669545
 31
0.0
  0
LINE
  5
30A
  8
0
  6
CONTINUOUS
 62
     7
 10
408.6155819566
 20
-80.4587667458
 30
0.0
 11
372.6155805261
 21
-80.4587667458
 31
0.0
  0
LINE
  5
30B
  8
0
  6
CONTINUOUS
 62
     7
 10
408.6155819566
 20
-79.4587669545
 30
0.0
 11
408.6155819566
 21
-80.4587667458
 31
0.0
  0
LINE
  5
30C
  8
0
  6
CONTINUOUS
 62
     7
 10
372.6155805261
 20
-79.4587669545
 30
0.0
 11
372.6155805261
 21
-80.4587667458
 31
0.0
  0
LINE
  5
30D
  8
0
  6
CONTINUOUS
 62
     7
 10
388.6155771882
 20
-68.8587667071
 30
0.0
 11
372.6155805261
 21
-68.8587667071
 31
0.0
  0
LINE
  5
30E
  8
0
  6
CONTINUOUS
 62
     7
 10
408.6155819566
 20
-68.8587667071
 30
0.0
 11
392.6155852945
 21
-68.8587667071
 31
0.0
  0
LINE
  5
30F
  8
0
  6
CONTINUOUS
 62
     7
 10
408.6155819566
 20
-68.8587667071
 30
0.0
 11
408.6155819566
 21
-69.858766871
 31
0.0
  0
LINE
  5
310
  8
0
  6
CONTINUOUS
 62
     7
 10
372.6155805261
 20
-68.8587667071
 30
0.0
 11
372.6155805261
 21
-69.858766871
 31
0.0
  0
LINE
  5
311
  8
0
  6
CONTINUOUS
 62
     7
 10
27.6155757577
 20
-63.7538404786
 30
0.0
 11
27.6155757577
 21
-66.4278545999
 31
0.0
  0
LINE
  5
312
  8
0
  6
CONTINUOUS
 62
     7
 10
33.6155819566
 20
-63.7583689415
 30
0.0
 11
33.6155819566
 21
-66.4278545999
 31
0.0
  0
ARC
  5
313
  8
0
  6
CONTINUOUS
 62
     7
 10
32.6155800493
 20
-67.8587668799
 30
0.0
 40
1.0
 50
270.0
 51
0.0
  0
LINE
  5
314
  8
0
  6
CONTINUOUS
 62
     7
 10
33.6155819566
 20
-66.4278545999
 30
0.0
 11
33.6155819566
 21
-67.8587669157
 31
0.0
  0
LINE
  5
315
  8
0
  6
CONTINUOUS
 62
     7
 10
32.6155829103
 20
-68.8587667071
 30
0.0
 11
28.6155748041
 21
-68.8587667071
 31
0.0
  0
ARC
  5
316
  8
0
  6
CONTINUOUS
 62
     7
 10
28.6155800493
 20
-67.8587668799
 30
0.0
 40
1.0
 50
180.0
 51
270.0
  0
LINE
  5
317
  8
0
  6
CONTINUOUS
 62
     7
 10
27.6155757577
 20
-66.4278545999
 30
0.0
 11
27.6155757577
 21
-67.8587669157
 31
0.0
  0
LINE
  5
318
  8
0
  6
CONTINUOUS
 62
     7
 10
12.6155781419
 20
-69.858766871
 30
0.0
 11
12.6155781419
 21
-79.4587669545
 31
0.0
  0
LINE
  5
319
  8
0
  6
CONTINUOUS
 62
     7
 10
48.6155795724
 20
-69.858766871
 30
0.0
 11
48.6155795724
 21
-79.4587669545
 31
0.0
  0
LINE
  5
31A
  8
0
  6
CONTINUOUS
 62
     7
 10
48.6155795724
 20
-80.4587667458
 30
0.0
 11
12.6155781419
 21
-80.4587667458
 31
0.0
  0
LINE
  5
31B
  8
0
  6
CONTINUOUS
 62
     7
 10
12.6155781419
 20
-79.4587669545
 30
0.0
 11
12.6155781419
 21
-80.4587667458
 31
0.0
  0
LINE
  5
31C
  8
0
  6
CONTINUOUS
 62
     7
 10
48.6155795724
 20
-79.4587669545
 30
0.0
 11
48.6155795724
 21
-80.4587667458
 31
0.0
  0
LINE
  5
31D
  8
0
  6
CONTINUOUS
 62
     7
 10
28.6155748041
 20
-68.8587667071
 30
0.0
 11
12.6155781419
 21
-68.8587667071
 31
0.0
  0
LINE
  5
31E
  8
0
  6
CONTINUOUS
 62
     7
 10
48.6155795724
 20
-68.8587667071
 30
0.0
 11
32.6155829103
 21
-68.8587667071
 31
0.0
  0
LINE
  5
31F
  8
0
  6
CONTINUOUS
 62
     7
 10
12.6155781419
 20
-68.8587667071
 30
0.0
 11
12.6155781419
 21
-69.858766871
 31
0.0
  0
LINE
  5
320
  8
0
  6
CONTINUOUS
 62
     7
 10
48.6155795724
 20
-68.8587667071
 30
0.0
 11
48.6155795724
 21
-69.858766871
 31
0.0
  0
POLYLINE
  5
321
  8
0
  6
CONTINUOUS
 62
     7
 66
     1
 10
0.0
 20
0.0
 30
0.0
  0
VERTEX
  5
947
  8
0
  6
CONTINUOUS
 62
     7
 10
-6.084425482
 20
-93.9155349158
 30
0.0
  0
VERTEX
  5
948
  8
0
  6
CONTINUOUS
 62
     7
 10
-6.62003282
 20
-94.6197682642
 30
0.0
  0
VERTEX
  5
949
  8
0
  6
CONTINUOUS
 62
     7
 10
-7.0844245284
 20
-95.3849577927
 30
0.0
  0
SEQEND
  5
A7C
  8
0
  6
CONTINUOUS
 62
     7
  0
LINE
  5
322
  8
0
  6
CONTINUOUS
 62
     7
 10
5.2713560731
 20
-85.5641061091
 30
0.0
 11
5.3949045808
 21
-85.558767023
 31
0.0
  0
ARC
  5
323
  8
0
  6
CONTINUOUS
 62
     7
 10
5.7551664967
 20
-100.464941026
 30
0.0
 40
10.07563600262013
 50
100.5231984591
 51
180.5335589222
  0
ARC
  5
324
  8
0
  6
CONTINUOUS
 62
     7
 10
55.4760004826
 20
-140.6525958158
 30
0.0
 40
10.07562674746245
 50
280.5230856997
 51
0.533565143
  0
LINE
  5
325
  8
0
  6
CONTINUOUS
 62
     7
 10
55.9475111635
 20
-155.5523821735
 30
0.0
 11
55.8362650544
 21
-155.5587658309
 31
0.0
  0
POLYLINE
  5
326
  8
0
  6
CONTINUOUS
 62
     7
 66
     1
 10
0.0
 20
0.0
 30
0.0
  0
VERTEX
  5
94A
  8
0
  6
CONTINUOUS
 62
     7
 10
67.3155831964
 20
-93.9155349158
 30
0.0
  0
VERTEX
  5
94B
  8
0
  6
CONTINUOUS
 62
     7
 10
67.8511905343
 20
-94.6197682642
 30
0.0
  0
VERTEX
  5
94C
  8
0
  6
CONTINUOUS
 62
     7
 10
68.3155822427
 20
-95.3849577927
 30
0.0
  0
SEQEND
  5
A7B
  8
0
  6
CONTINUOUS
 62
     7
  0
ARC
  5
327
  8
0
  6
CONTINUOUS
 62
     7
 10
55.4937324917
 20
-100.4503331733
 30
0.0
 40
10.05804237770571
 50
359.3822896921
 51
79.5610343275
  0
LINE
  5
328
  8
0
  6
CONTINUOUS
 62
     7
 10
5.3949045808
 20
-155.5587658309
 30
0.0
 11
5.301754442
 21
-155.5535146617
 31
0.0
  0
ARC
  5
329
  8
0
  6
CONTINUOUS
 62
     7
 10
5.7374153811
 20
-140.667208516
 30
0.0
 40
10.0580325999157
 50
179.3822557359
 51
259.5610120207
  0
LINE
  5
32A
  8
0
  6
CONTINUOUS
 62
     7
 10
-4.3200326293
 20
-100.558767619
 30
0.0
 11
-4.3200326293
 21
-140.5587682151
 31
0.0
  0
LINE
  5
32B
  8
0
  6
CONTINUOUS
 62
     7
 10
65.5511903436
 20
-140.5587682151
 30
0.0
 11
65.5511903436
 21
-100.558767619
 31
0.0
  0
LINE
  5
32C
  8
0
  6
CONTINUOUS
 62
     7
 10
-6.084425482
 20
-91.5466794395
 30
0.0
 11
-7.0844245284
 21
-91.5466794395
 31
0.0
  0
LINE
  5
32D
  8
0
  6
CONTINUOUS
 62
     7
 10
-7.0844245284
 20
-67.6982501172
 30
0.0
 11
-7.0844245284
 21
-91.5466794395
 31
0.0
  0
LINE
  5
32E
  8
0
  6
CONTINUOUS
 62
     7
 10
-6.084425482
 20
-67.6982501172
 30
0.0
 11
-6.084425482
 21
-91.5466794395
 31
0.0
  0
LINE
  5
32F
  8
0
  6
CONTINUOUS
 62
     7
 10
67.3155831964
 20
-91.5466794395
 30
0.0
 11
68.3155822427
 21
-91.5466794395
 31
0.0
  0
LINE
  5
330
  8
0
  6
CONTINUOUS
 62
     7
 10
67.3155831964
 20
-67.6982501172
 30
0.0
 11
67.3155831964
 21
-91.5466794395
 31
0.0
  0
LINE
  5
331
  8
0
  6
CONTINUOUS
 62
     7
 10
68.3155822427
 20
-67.6982501172
 30
0.0
 11
68.3155822427
 21
-91.5466794395
 31
0.0
  0
LINE
  5
332
  8
0
  6
CONTINUOUS
 62
     7
 10
67.3155831964
 20
-91.5466794395
 30
0.0
 11
67.3155831964
 21
-93.9155349158
 31
0.0
  0
LINE
  5
333
  8
0
  6
CONTINUOUS
 62
     7
 10
68.3155822427
 20
-91.5466794395
 30
0.0
 11
68.3155822427
 21
-95.3849577927
 31
0.0
  0
LINE
  5
334
  8
0
  6
CONTINUOUS
 62
     7
 10
-7.0844245284
 20
-91.5466794395
 30
0.0
 11
-7.0844245284
 21
-95.3849577927
 31
0.0
  0
LINE
  5
335
  8
0
  6
CONTINUOUS
 62
     7
 10
-6.084425482
 20
-91.5466794395
 30
0.0
 11
-6.084425482
 21
-93.9155349158
 31
0.0
  0
LINE
  5
336
  8
0
  6
CONTINUOUS
 62
     7
 10
3.9150166185
 20
-150.5587646388
 30
0.0
 11
57.3161291749
 21
-150.5587646388
 31
0.0
  0
LINE
  5
337
  8
0
  6
CONTINUOUS
 62
     7
 10
3.9150166185
 20
-90.558766725
 30
0.0
 11
57.3161291749
 21
-90.558766725
 31
0.0
  0
LINE
  5
338
  8
0
  6
CONTINUOUS
 62
     7
 10
5.3949045808
 20
-85.558767023
 30
0.0
 11
55.8362650544
 21
-85.558767023
 31
0.0
  0
LINE
  5
339
  8
0
  6
CONTINUOUS
 62
     7
 10
55.8362650544
 20
-155.5587658309
 30
0.0
 11
5.3949045808
 21
-155.5587658309
 31
0.0
  0
LINE
  5
33A
  8
0
  6
CONTINUOUS
 62
     7
 10
-7.0844245284
 20
-66.1555202328
 30
0.0
 11
-7.0844245284
 21
-67.6982501172
 31
0.0
  0
LINE
  5
33B
  8
0
  6
CONTINUOUS
 62
     7
 10
-6.084425482
 20
-66.3536229753
 30
0.0
 11
-6.084425482
 21
-67.6982501172
 31
0.0
  0
LINE
  5
33C
  8
0
  6
CONTINUOUS
 62
     7
 10
67.3155831964
 20
-66.3551071309
 30
0.0
 11
67.3155831964
 21
-67.6982501172
 31
0.0
  0
LINE
  5
33D
  8
0
  6
CONTINUOUS
 62
     7
 10
68.3155822427
 20
-66.155766102
 30
0.0
 11
68.3155822427
 21
-67.6982501172
 31
0.0
  0
LINE
  5
33E
  8
0
  6
CONTINUOUS
 62
     7
 10
63.1155776651
 20
-79.4587669545
 30
0.0
 11
63.1155776651
 21
-69.6587668382
 31
0.0
  0
LINE
  5
33F
  8
0
  6
CONTINUOUS
 62
     7
 10
-1.8844199507
 20
-79.4587669545
 30
0.0
 11
-1.8844199507
 21
-69.6587668382
 31
0.0
  0
LINE
  5
340
  8
0
  6
CONTINUOUS
 62
     7
 10
-1.8844199507
 20
-68.6587670468
 30
0.0
 11
-6.084425482
 21
-68.6587670468
 31
0.0
  0
LINE
  5
341
  8
0
  6
CONTINUOUS
 62
     7
 10
-1.8844199507
 20
-68.6587670468
 30
0.0
 11
-1.8844199507
 21
-69.6587668382
 31
0.0
  0
LINE
  5
342
  8
0
  6
CONTINUOUS
 62
     7
 10
67.3155831964
 20
-68.6587670468
 30
0.0
 11
63.1155776651
 21
-68.6587670468
 31
0.0
  0
LINE
  5
343
  8
0
  6
CONTINUOUS
 62
     7
 10
63.1155776651
 20
-69.6587668382
 30
0.0
 11
63.1155776651
 21
-68.6587670468
 31
0.0
  0
LINE
  5
344
  8
0
  6
CONTINUOUS
 62
     7
 10
-1.8844199507
 20
-80.4587667458
 30
0.0
 11
-6.084425482
 21
-80.4587667458
 31
0.0
  0
LINE
  5
345
  8
0
  6
CONTINUOUS
 62
     7
 10
-1.8844199507
 20
-79.4587669545
 30
0.0
 11
-1.8844199507
 21
-80.4587667458
 31
0.0
  0
LINE
  5
346
  8
0
  6
CONTINUOUS
 62
     7
 10
67.3155831964
 20
-80.4587667458
 30
0.0
 11
63.1155776651
 21
-80.4587667458
 31
0.0
  0
LINE
  5
347
  8
0
  6
CONTINUOUS
 62
     7
 10
63.1155776651
 20
-80.4587667458
 30
0.0
 11
63.1155776651
 21
-79.4587669545
 31
0.0
  0
LINE
  5
348
  8
0
  6
CONTINUOUS
 62
     7
 10
-11.884410414
 20
-69.6587668382
 30
0.0
 11
-11.884410414
 21
-68.6587670468
 31
0.0
  0
LINE
  5
349
  8
0
  6
CONTINUOUS
 62
     7
 10
-7.0844245284
 20
-68.6587670468
 30
0.0
 11
-11.884410414
 21
-68.6587670468
 31
0.0
  0
LINE
  5
34A
  8
0
  6
CONTINUOUS
 62
     7
 10
73.1155800493
 20
-69.6587668382
 30
0.0
 11
73.1155800493
 21
-68.6587670468
 31
0.0
  0
LINE
  5
34B
  8
0
  6
CONTINUOUS
 62
     7
 10
73.1155800493
 20
-68.6587670468
 30
0.0
 11
68.3155822427
 21
-68.6587670468
 31
0.0
  0
LINE
  5
34C
  8
0
  6
CONTINUOUS
 62
     7
 10
73.1155800493
 20
-79.4587669545
 30
0.0
 11
73.1155800493
 21
-69.6587668382
 31
0.0
  0
LINE
  5
34D
  8
0
  6
CONTINUOUS
 62
     7
 10
-11.884410414
 20
-79.4587669545
 30
0.0
 11
-11.884410414
 21
-69.6587668382
 31
0.0
  0
LINE
  5
34E
  8
0
  6
CONTINUOUS
 62
     7
 10
-7.0844245284
 20
-80.4587667458
 30
0.0
 11
-11.884410414
 21
-80.4587667458
 31
0.0
  0
LINE
  5
34F
  8
0
  6
CONTINUOUS
 62
     7
 10
-11.884410414
 20
-80.4587667458
 30
0.0
 11
-11.884410414
 21
-79.4587669545
 31
0.0
  0
LINE
  5
350
  8
0
  6
CONTINUOUS
 62
     7
 10
73.1155800493
 20
-80.4587667458
 30
0.0
 11
68.3155822427
 21
-80.4587667458
 31
0.0
  0
LINE
  5
351
  8
0
  6
CONTINUOUS
 62
     7
 10
73.1155800493
 20
-80.4587667458
 30
0.0
 11
73.1155800493
 21
-79.4587669545
 31
0.0
  0
POLYLINE
  5
352
  8
0
  6
CONTINUOUS
 62
     7
 66
     1
 10
0.0
 20
0.0
 30
0.0
  0
VERTEX
  5
94D
  8
0
  6
CONTINUOUS
 62
     7
 10
353.9155769021
 20
-93.9155349158
 30
0.0
  0
VERTEX
  5
94E
  8
0
  6
CONTINUOUS
 62
     7
 10
353.3799695642
 20
-94.6197682642
 30
0.0
  0
VERTEX
  5
94F
  8
0
  6
CONTINUOUS
 62
     7
 10
352.9155778558
 20
-95.3849577927
 30
0.0
  0
SEQEND
  5
A7A
  8
0
  6
CONTINUOUS
 62
     7
  0
LINE
  5
353
  8
0
  6
CONTINUOUS
 62
     7
 10
365.2713584573
 20
-85.5641061091
 30
0.0
 11
365.3948950441
 21
-85.558767023
 31
0.0
  0
ARC
  5
354
  8
0
  6
CONTINUOUS
 62
     7
 10
365.7551655623
 20
-100.4649404868
 30
0.0
 40
10.07563268922889
 50
100.5231138163
 51
180.5335621641
  0
LINE
  5
355
  8
0
  6
CONTINUOUS
 62
     7
 10
415.9475016267
 20
-155.5523821735
 30
0.0
 11
415.8362555177
 21
-155.5587658309
 31
0.0
  0
ARC
  5
356
  8
0
  6
CONTINUOUS
 62
     7
 10
415.4759995483
 20
-140.6525952766
 30
0.0
 40
10.07563006077308
 50
280.5231703422
 51
0.5335619013
  0
POLYLINE
  5
357
  8
0
  6
CONTINUOUS
 62
     7
 66
     1
 10
0.0
 20
0.0
 30
0.0
  0
VERTEX
  5
950
  8
0
  6
CONTINUOUS
 62
     7
 10
427.3155855806
 20
-93.9155349158
 30
0.0
  0
VERTEX
  5
951
  8
0
  6
CONTINUOUS
 62
     7
 10
427.8511929185
 20
-94.6197682642
 30
0.0
  0
VERTEX
  5
952
  8
0
  6
CONTINUOUS
 62
     7
 10
428.3155846269
 20
-95.3849577927
 30
0.0
  0
SEQEND
  5
A79
  8
0
  6
CONTINUOUS
 62
     7
  0
ARC
  5
358
  8
0
  6
CONTINUOUS
 62
     7
 10
415.4937379188
 20
-100.4503284949
 30
0.0
 40
10.05803938536329
 50
359.3822628564
 51
79.5609797623
  0
ARC
  5
359
  8
0
  6
CONTINUOUS
 62
     7
 10
365.7374208083
 20
-140.6672038376
 30
0.0
 40
10.05803559228855
 50
179.3822825717
 51
259.5610665857
  0
LINE
  5
35A
  8
0
  6
CONTINUOUS
 62
     7
 10
365.3948950441
 20
-155.5587658309
 30
0.0
 11
365.3017568261
 21
-155.5535146617
 31
0.0
  0
LINE
  5
35B
  8
0
  6
CONTINUOUS
 62
     7
 10
355.6799697549
 20
-100.558767619
 30
0.0
 11
355.6799697549
 21
-140.5587682151
 31
0.0
  0
LINE
  5
35C
  8
0
  6
CONTINUOUS
 62
     7
 10
425.5511927278
 20
-140.5587682151
 30
0.0
 11
425.5511927278
 21
-100.558767619
 31
0.0
  0
LINE
  5
35D
  8
0
  6
CONTINUOUS
 62
     7
 10
427.3155855806
 20
-91.5466794395
 30
0.0
 11
428.3155846269
 21
-91.5466794395
 31
0.0
  0
LINE
  5
35E
  8
0
  6
CONTINUOUS
 62
     7
 10
427.3155855806
 20
-67.6982501172
 30
0.0
 11
427.3155855806
 21
-91.5466794395
 31
0.0
  0
LINE
  5
35F
  8
0
  6
CONTINUOUS
 62
     7
 10
428.3155846269
 20
-67.6982501172
 30
0.0
 11
428.3155846269
 21
-91.5466794395
 31
0.0
  0
LINE
  5
360
  8
0
  6
CONTINUOUS
 62
     7
 10
353.9155769021
 20
-91.5466794395
 30
0.0
 11
352.9155778558
 21
-91.5466794395
 31
0.0
  0
LINE
  5
361
  8
0
  6
CONTINUOUS
 62
     7
 10
352.9155778558
 20
-67.6982501172
 30
0.0
 11
352.9155778558
 21
-91.5466794395
 31
0.0
  0
LINE
  5
362
  8
0
  6
CONTINUOUS
 62
     7
 10
353.9155769021
 20
-67.6982501172
 30
0.0
 11
353.9155769021
 21
-91.5466794395
 31
0.0
  0
LINE
  5
363
  8
0
  6
CONTINUOUS
 62
     7
 10
427.3155855806
 20
-91.5466794395
 30
0.0
 11
427.3155855806
 21
-93.9155349158
 31
0.0
  0
LINE
  5
364
  8
0
  6
CONTINUOUS
 62
     7
 10
428.3155846269
 20
-91.5466794395
 30
0.0
 11
428.3155846269
 21
-95.3849577927
 31
0.0
  0
LINE
  5
365
  8
0
  6
CONTINUOUS
 62
     7
 10
352.9155778558
 20
-91.5466794395
 30
0.0
 11
352.9155778558
 21
-95.3849577927
 31
0.0
  0
LINE
  5
366
  8
0
  6
CONTINUOUS
 62
     7
 10
353.9155769021
 20
-91.5466794395
 30
0.0
 11
353.9155769021
 21
-93.9155349158
 31
0.0
  0
LINE
  5
367
  8
0
  6
CONTINUOUS
 62
     7
 10
363.9150309236
 20
-150.5587646388
 30
0.0
 11
417.31614348
 21
-150.5587646388
 31
0.0
  0
LINE
  5
368
  8
0
  6
CONTINUOUS
 62
     7
 10
363.9150309236
 20
-90.558766725
 30
0.0
 11
417.31614348
 21
-90.558766725
 31
0.0
  0
LINE
  5
369
  8
0
  6
CONTINUOUS
 62
     7
 10
365.3948950441
 20
-85.558767023
 30
0.0
 11
415.8362555177
 21
-85.558767023
 31
0.0
  0
LINE
  5
36A
  8
0
  6
CONTINUOUS
 62
     7
 10
415.8362555177
 20
-155.5587658309
 30
0.0
 11
365.3948950441
 21
-155.5587658309
 31
0.0
  0
LINE
  5
36B
  8
0
  6
CONTINUOUS
 62
     7
 10
352.9155778558
 20
-66.1555202328
 30
0.0
 11
352.9155778558
 21
-67.6982501172
 31
0.0
  0
LINE
  5
36C
  8
0
  6
CONTINUOUS
 62
     7
 10
353.9155769021
 20
-66.3536229753
 30
0.0
 11
353.9155769021
 21
-67.6982501172
 31
0.0
  0
LINE
  5
36D
  8
0
  6
CONTINUOUS
 62
     7
 10
427.3155855806
 20
-66.3551071309
 30
0.0
 11
427.3155855806
 21
-67.6982501172
 31
0.0
  0
LINE
  5
36E
  8
0
  6
CONTINUOUS
 62
     7
 10
428.3155846269
 20
-66.155766102
 30
0.0
 11
428.3155846269
 21
-67.6982501172
 31
0.0
  0
LINE
  5
36F
  8
0
  6
CONTINUOUS
 62
     7
 10
423.1155800493
 20
-79.4587669545
 30
0.0
 11
423.1155800493
 21
-69.6587668382
 31
0.0
  0
LINE
  5
370
  8
0
  6
CONTINUOUS
 62
     7
 10
358.1155824334
 20
-79.4587669545
 30
0.0
 11
358.1155824334
 21
-69.6587668382
 31
0.0
  0
LINE
  5
371
  8
0
  6
CONTINUOUS
 62
     7
 10
427.3155855806
 20
-68.6587670468
 30
0.0
 11
423.1155800493
 21
-68.6587670468
 31
0.0
  0
LINE
  5
372
  8
0
  6
CONTINUOUS
 62
     7
 10
423.1155800493
 20
-69.6587668382
 30
0.0
 11
423.1155800493
 21
-68.6587670468
 31
0.0
  0
LINE
  5
373
  8
0
  6
CONTINUOUS
 62
     7
 10
358.1155824334
 20
-68.6587670468
 30
0.0
 11
353.9155769021
 21
-68.6587670468
 31
0.0
  0
LINE
  5
374
  8
0
  6
CONTINUOUS
 62
     7
 10
358.1155824334
 20
-68.6587670468
 30
0.0
 11
358.1155824334
 21
-69.6587668382
 31
0.0
  0
LINE
  5
375
  8
0
  6
CONTINUOUS
 62
     7
 10
427.3155855806
 20
-80.4587667458
 30
0.0
 11
423.1155800493
 21
-80.4587667458
 31
0.0
  0
LINE
  5
376
  8
0
  6
CONTINUOUS
 62
     7
 10
423.1155800493
 20
-80.4587667458
 30
0.0
 11
423.1155800493
 21
-79.4587669545
 31
0.0
  0
LINE
  5
377
  8
0
  6
CONTINUOUS
 62
     7
 10
358.1155824334
 20
-80.4587667458
 30
0.0
 11
353.9155769021
 21
-80.4587667458
 31
0.0
  0
LINE
  5
378
  8
0
  6
CONTINUOUS
 62
     7
 10
358.1155824334
 20
-79.4587669545
 30
0.0
 11
358.1155824334
 21
-80.4587667458
 31
0.0
  0
LINE
  5
379
  8
0
  6
CONTINUOUS
 62
     7
 10
433.1155705125
 20
-79.4587669545
 30
0.0
 11
433.1155705125
 21
-69.6587668382
 31
0.0
  0
LINE
  5
37A
  8
0
  6
CONTINUOUS
 62
     7
 10
348.1155800493
 20
-79.4587669545
 30
0.0
 11
348.1155800493
 21
-69.6587668382
 31
0.0
  0
LINE
  5
37B
  8
0
  6
CONTINUOUS
 62
     7
 10
433.1155705125
 20
-69.6587668382
 30
0.0
 11
433.1155705125
 21
-68.6587670468
 31
0.0
  0
LINE
  5
37C
  8
0
  6
CONTINUOUS
 62
     7
 10
433.1155705125
 20
-68.6587670468
 30
0.0
 11
428.3155846269
 21
-68.6587670468
 31
0.0
  0
LINE
  5
37D
  8
0
  6
CONTINUOUS
 62
     7
 10
352.9155778558
 20
-68.6587670468
 30
0.0
 11
348.1155800493
 21
-68.6587670468
 31
0.0
  0
LINE
  5
37E
  8
0
  6
CONTINUOUS
 62
     7
 10
348.1155800493
 20
-69.6587668382
 30
0.0
 11
348.1155800493
 21
-68.6587670468
 31
0.0
  0
LINE
  5
37F
  8
0
  6
CONTINUOUS
 62
     7
 10
352.9155778558
 20
-80.4587667458
 30
0.0
 11
348.1155800493
 21
-80.4587667458
 31
0.0
  0
LINE
  5
380
  8
0
  6
CONTINUOUS
 62
     7
 10
348.1155800493
 20
-80.4587667458
 30
0.0
 11
348.1155800493
 21
-79.4587669545
 31
0.0
  0
LINE
  5
381
  8
0
  6
CONTINUOUS
 62
     7
 10
433.1155705125
 20
-80.4587667458
 30
0.0
 11
428.3155846269
 21
-80.4587667458
 31
0.0
  0
LINE
  5
382
  8
0
  6
CONTINUOUS
 62
     7
 10
433.1155705125
 20
-80.4587667458
 30
0.0
 11
433.1155705125
 21
-79.4587669545
 31
0.0
  0
POLYLINE
  5
383
  8
0
  6
CONTINUOUS
 62
     7
 66
     1
 10
0.0
 20
0.0
 30
0.0
  0
VERTEX
  5
953
  8
0
  6
CONTINUOUS
 62
     7
 10
233.9155795843
 20
-93.9155349158
 30
0.0
  0
VERTEX
  5
954
  8
0
  6
CONTINUOUS
 62
     7
 10
233.3799722464
 20
-94.6197682642
 30
0.0
  0
VERTEX
  5
955
  8
0
  6
CONTINUOUS
 62
     7
 10
232.915580538
 20
-95.3849577927
 30
0.0
  0
SEQEND
  5
A78
  8
0
  6
CONTINUOUS
 62
     7
  0
LINE
  5
384
  8
0
  6
CONTINUOUS
 62
     7
 10
245.2713596494
 20
-85.5641061091
 30
0.0
 11
245.3948992164
 21
-85.558767023
 31
0.0
  0
ARC
  5
385
  8
0
  6
CONTINUOUS
 62
     7
 10
245.7551590212
 20
-100.4649330216
 30
0.0
 40
10.07562502582504
 50
100.5231116577
 51
180.5336050231
  0
LINE
  5
386
  8
0
  6
CONTINUOUS
 62
     7
 10
295.9475087793
 20
-155.5523821735
 30
0.0
 11
295.8362626703
 21
-155.5587658309
 31
0.0
  0
ARC
  5
387
  8
0
  6
CONTINUOUS
 62
     7
 10
295.4760008473
 20
-140.6525991764
 30
0.0
 40
10.07562402994043
 50
280.5231071452
 51
0.5335843978
  0
POLYLINE
  5
388
  8
0
  6
CONTINUOUS
 62
     7
 66
     1
 10
0.0
 20
0.0
 30
0.0
  0
VERTEX
  5
956
  8
0
  6
CONTINUOUS
 62
     7
 10
307.3155808122
 20
-93.9155349158
 30
0.0
  0
VERTEX
  5
957
  8
0
  6
CONTINUOUS
 62
     7
 10
307.8511881502
 20
-94.6197682642
 30
0.0
  0
VERTEX
  5
958
  8
0
  6
CONTINUOUS
 62
     7
 10
308.3155798585
 20
-95.3849577927
 30
0.0
  0
SEQEND
  5
A77
  8
0
  6
CONTINUOUS
 62
     7
  0
ARC
  5
389
  8
0
  6
CONTINUOUS
 62
     7
 10
295.4937401756
 20
-100.4503237959
 30
0.0
 40
10.05803241131276
 50
359.3822356586
 51
79.5610476606
  0
LINE
  5
38A
  8
0
  6
CONTINUOUS
 62
     7
 10
245.3948992164
 20
-155.5587658309
 30
0.0
 11
245.3017609985
 21
-155.5535146617
 31
0.0
  0
ARC
  5
38B
  8
0
  6
CONTINUOUS
 62
     7
 10
245.7374142205
 20
-140.6672113306
 30
0.0
 40
10.05802789364269
 50
179.3822394123
 51
259.5610690447
  0
LINE
  5
38C
  8
0
  6
CONTINUOUS
 62
     7
 10
235.679970947
 20
-100.558767619
 30
0.0
 11
235.679970947
 21
-140.5587682151
 31
0.0
  0
LINE
  5
38D
  8
0
  6
CONTINUOUS
 62
     7
 10
305.5511879594
 20
-140.5587682151
 30
0.0
 11
305.5511879594
 21
-100.558767619
 31
0.0
  0
LINE
  5
38E
  8
0
  6
CONTINUOUS
 62
     7
 10
307.3155808122
 20
-91.5466794395
 30
0.0
 11
308.3155798585
 21
-91.5466794395
 31
0.0
  0
LINE
  5
38F
  8
0
  6
CONTINUOUS
 62
     7
 10
308.3155798585
 20
-67.6982501172
 30
0.0
 11
308.3155798585
 21
-91.5466794395
 31
0.0
  0
LINE
  5
390
  8
0
  6
CONTINUOUS
 62
     7
 10
307.3155808122
 20
-67.6982501172
 30
0.0
 11
307.3155808122
 21
-91.5466794395
 31
0.0
  0
LINE
  5
391
  8
0
  6
CONTINUOUS
 62
     7
 10
233.9155795843
 20
-91.5466794395
 30
0.0
 11
232.915580538
 21
-91.5466794395
 31
0.0
  0
LINE
  5
392
  8
0
  6
CONTINUOUS
 62
     7
 10
232.915580538
 20
-67.6982501172
 30
0.0
 11
232.915580538
 21
-91.5466794395
 31
0.0
  0
LINE
  5
393
  8
0
  6
CONTINUOUS
 62
     7
 10
233.9155795843
 20
-67.6982501172
 30
0.0
 11
233.9155795843
 21
-91.5466794395
 31
0.0
  0
LINE
  5
394
  8
0
  6
CONTINUOUS
 62
     7
 10
232.915580538
 20
-91.5466794395
 30
0.0
 11
232.915580538
 21
-95.3849577927
 31
0.0
  0
LINE
  5
395
  8
0
  6
CONTINUOUS
 62
     7
 10
233.9155795843
 20
-91.5466794395
 30
0.0
 11
233.9155795843
 21
-93.9155349158
 31
0.0
  0
LINE
  5
396
  8
0
  6
CONTINUOUS
 62
     7
 10
308.3155798585
 20
-91.5466794395
 30
0.0
 11
308.3155798585
 21
-95.3849577927
 31
0.0
  0
LINE
  5
397
  8
0
  6
CONTINUOUS
 62
     7
 10
307.3155808122
 20
-91.5466794395
 30
0.0
 11
307.3155808122
 21
-93.9155349158
 31
0.0
  0
LINE
  5
398
  8
0
  6
CONTINUOUS
 62
     7
 10
243.9150261552
 20
-150.5587646388
 30
0.0
 11
297.3161327512
 21
-150.5587646388
 31
0.0
  0
LINE
  5
399
  8
0
  6
CONTINUOUS
 62
     7
 10
243.9150261552
 20
-90.558766725
 30
0.0
 11
297.3161327512
 21
-90.558766725
 31
0.0
  0
LINE
  5
39A
  8
0
  6
CONTINUOUS
 62
     7
 10
245.3948992164
 20
-85.558767023
 30
0.0
 11
295.8362626703
 21
-85.558767023
 31
0.0
  0
LINE
  5
39B
  8
0
  6
CONTINUOUS
 62
     7
 10
295.8362626703
 20
-155.5587658309
 30
0.0
 11
245.3948992164
 21
-155.5587658309
 31
0.0
  0
LINE
  5
39C
  8
0
  6
CONTINUOUS
 62
     7
 10
232.915580538
 20
-66.1555202328
 30
0.0
 11
232.915580538
 21
-67.6982501172
 31
0.0
  0
LINE
  5
39D
  8
0
  6
CONTINUOUS
 62
     7
 10
233.9155795843
 20
-66.3536229753
 30
0.0
 11
233.9155795843
 21
-67.6982501172
 31
0.0
  0
LINE
  5
39E
  8
0
  6
CONTINUOUS
 62
     7
 10
308.3155798585
 20
-66.155766102
 30
0.0
 11
308.3155798585
 21
-67.6982501172
 31
0.0
  0
LINE
  5
39F
  8
0
  6
CONTINUOUS
 62
     7
 10
307.3155808122
 20
-66.3551071309
 30
0.0
 11
307.3155808122
 21
-67.6982501172
 31
0.0
  0
LINE
  5
3A0
  8
0
  6
CONTINUOUS
 62
     7
 10
238.1155806453
 20
-79.4587669545
 30
0.0
 11
238.1155806453
 21
-69.6587668382
 31
0.0
  0
LINE
  5
3A1
  8
0
  6
CONTINUOUS
 62
     7
 10
303.1155812414
 20
-79.4587669545
 30
0.0
 11
303.1155812414
 21
-69.6587668382
 31
0.0
  0
LINE
  5
3A2
  8
0
  6
CONTINUOUS
 62
     7
 10
238.1155806453
 20
-68.6587670468
 30
0.0
 11
233.9155795843
 21
-68.6587670468
 31
0.0
  0
LINE
  5
3A3
  8
0
  6
CONTINUOUS
 62
     7
 10
238.1155806453
 20
-68.6587670468
 30
0.0
 11
238.1155806453
 21
-69.6587668382
 31
0.0
  0
LINE
  5
3A4
  8
0
  6
CONTINUOUS
 62
     7
 10
307.3155808122
 20
-68.6587670468
 30
0.0
 11
303.1155812414
 21
-68.6587670468
 31
0.0
  0
LINE
  5
3A5
  8
0
  6
CONTINUOUS
 62
     7
 10
303.1155812414
 20
-69.6587668382
 30
0.0
 11
303.1155812414
 21
-68.6587670468
 31
0.0
  0
LINE
  5
3A6
  8
0
  6
CONTINUOUS
 62
     7
 10
307.3155808122
 20
-80.4587667458
 30
0.0
 11
303.1155812414
 21
-80.4587667458
 31
0.0
  0
LINE
  5
3A7
  8
0
  6
CONTINUOUS
 62
     7
 10
303.1155812414
 20
-80.4587667458
 30
0.0
 11
303.1155812414
 21
-79.4587669545
 31
0.0
  0
LINE
  5
3A8
  8
0
  6
CONTINUOUS
 62
     7
 10
238.1155806453
 20
-80.4587667458
 30
0.0
 11
233.9155795843
 21
-80.4587667458
 31
0.0
  0
LINE
  5
3A9
  8
0
  6
CONTINUOUS
 62
     7
 10
238.1155806453
 20
-79.4587669545
 30
0.0
 11
238.1155806453
 21
-80.4587667458
 31
0.0
  0
LINE
  5
3AA
  8
0
  6
CONTINUOUS
 62
     7
 10
228.1155797512
 20
-69.6587668382
 30
0.0
 11
228.1155797512
 21
-68.6587670468
 31
0.0
  0
LINE
  5
3AB
  8
0
  6
CONTINUOUS
 62
     7
 10
232.915580538
 20
-68.6587670468
 30
0.0
 11
228.1155797512
 21
-68.6587670468
 31
0.0
  0
LINE
  5
3AC
  8
0
  6
CONTINUOUS
 62
     7
 10
313.1155776651
 20
-79.4587669545
 30
0.0
 11
313.1155776651
 21
-69.6587668382
 31
0.0
  0
LINE
  5
3AD
  8
0
  6
CONTINUOUS
 62
     7
 10
313.1155776651
 20
-68.6587670468
 30
0.0
 11
308.3155798585
 21
-68.6587670468
 31
0.0
  0
LINE
  5
3AE
  8
0
  6
CONTINUOUS
 62
     7
 10
313.1155776651
 20
-69.6587668382
 30
0.0
 11
313.1155776651
 21
-68.6587670468
 31
0.0
  0
LINE
  5
3AF
  8
0
  6
CONTINUOUS
 62
     7
 10
228.1155797512
 20
-79.4587669545
 30
0.0
 11
228.1155797512
 21
-69.6587668382
 31
0.0
  0
LINE
  5
3B0
  8
0
  6
CONTINUOUS
 62
     7
 10
232.915580538
 20
-80.4587667458
 30
0.0
 11
228.1155797512
 21
-80.4587667458
 31
0.0
  0
LINE
  5
3B1
  8
0
  6
CONTINUOUS
 62
     7
 10
228.1155797512
 20
-80.4587667458
 30
0.0
 11
228.1155797512
 21
-79.4587669545
 31
0.0
  0
LINE
  5
3B2
  8
0
  6
CONTINUOUS
 62
     7
 10
313.1155776651
 20
-80.4587667458
 30
0.0
 11
308.3155798585
 21
-80.4587667458
 31
0.0
  0
LINE
  5
3B3
  8
0
  6
CONTINUOUS
 62
     7
 10
313.1155776651
 20
-80.4587667458
 30
0.0
 11
313.1155776651
 21
-79.4587669545
 31
0.0
  0
POLYLINE
  5
3B4
  8
0
  6
CONTINUOUS
 62
     7
 66
     1
 10
0.0
 20
0.0
 30
0.0
  0
VERTEX
  5
959
  8
0
  6
CONTINUOUS
 62
     7
 10
113.9155792863
 20
-93.9155349158
 30
0.0
  0
VERTEX
  5
95A
  8
0
  6
CONTINUOUS
 62
     7
 10
113.3799719484
 20
-94.6197682642
 30
0.0
  0
VERTEX
  5
95B
  8
0
  6
CONTINUOUS
 62
     7
 10
112.91558024
 20
-95.3849577927
 30
0.0
  0
SEQEND
  5
A76
  8
0
  6
CONTINUOUS
 62
     7
  0
LINE
  5
3B5
  8
0
  6
CONTINUOUS
 62
     7
 10
125.2713608415
 20
-85.5641061091
 30
0.0
 11
125.3948974283
 21
-85.558767023
 31
0.0
  0
ARC
  5
3B6
  8
0
  6
CONTINUOUS
 62
     7
 10
125.7551651976
 20
-100.4649371263
 30
0.0
 40
10.07562997172433
 50
100.5231352619
 51
180.5335814189
  0
LINE
  5
3B7
  8
0
  6
CONTINUOUS
 62
     7
 10
175.9475069911
 20
-155.5523821735
 30
0.0
 11
175.8362608821
 21
-155.5587658309
 31
0.0
  0
ARC
  5
3B8
  8
0
  6
CONTINUOUS
 62
     7
 10
175.4760070238
 20
-140.652603281
 30
0.0
 40
10.07561908403446
 50
280.5230835409
 51
0.5336080021
  0
POLYLINE
  5
3B9
  8
0
  6
CONTINUOUS
 62
     7
 66
     1
 10
0.0
 20
0.0
 30
0.0
  0
VERTEX
  5
95C
  8
0
  6
CONTINUOUS
 62
     7
 10
187.3155805142
 20
-93.9155349158
 30
0.0
  0
VERTEX
  5
95D
  8
0
  6
CONTINUOUS
 62
     7
 10
187.8511878521
 20
-94.6197682642
 30
0.0
  0
VERTEX
  5
95E
  8
0
  6
CONTINUOUS
 62
     7
 10
188.3155795605
 20
-95.3849577927
 30
0.0
  0
SEQEND
  5
A75
  8
0
  6
CONTINUOUS
 62
     7
  0
ARC
  5
3BA
  8
0
  6
CONTINUOUS
 62
     7
 10
175.4937390795
 20
-100.4503256803
 30
0.0
 40
10.0580346790873
 50
359.3822465328
 51
79.5610367863
  0
LINE
  5
3BB
  8
0
  6
CONTINUOUS
 62
     7
 10
125.3948974283
 20
-155.5587658309
 30
0.0
 11
125.3017592103
 21
-155.5535146617
 31
0.0
  0
ARC
  5
3BC
  8
0
  6
CONTINUOUS
 62
     7
 10
125.7374131244
 20
-140.667213215
 30
0.0
 40
10.05802562587863
 50
179.3822285381
 51
259.5610799189
  0
LINE
  5
3BD
  8
0
  6
CONTINUOUS
 62
     7
 10
115.6799721391
 20
-100.558767619
 30
0.0
 11
115.6799721391
 21
-140.5587682151
 31
0.0
  0
LINE
  5
3BE
  8
0
  6
CONTINUOUS
 62
     7
 10
185.5511891515
 20
-140.5587682151
 30
0.0
 11
185.5511891515
 21
-100.558767619
 31
0.0
  0
LINE
  5
3BF
  8
0
  6
CONTINUOUS
 62
     7
 10
187.3155805142
 20
-91.5466794395
 30
0.0
 11
188.3155795605
 21
-91.5466794395
 31
0.0
  0
LINE
  5
3C0
  8
0
  6
CONTINUOUS
 62
     7
 10
188.3155795605
 20
-67.6982501172
 30
0.0
 11
188.3155795605
 21
-91.5466794395
 31
0.0
  0
LINE
  5
3C1
  8
0
  6
CONTINUOUS
 62
     7
 10
187.3155805142
 20
-67.6982501172
 30
0.0
 11
187.3155805142
 21
-91.5466794395
 31
0.0
  0
LINE
  5
3C2
  8
0
  6
CONTINUOUS
 62
     7
 10
113.9155792863
 20
-91.5466794395
 30
0.0
 11
112.91558024
 21
-91.5466794395
 31
0.0
  0
LINE
  5
3C3
  8
0
  6
CONTINUOUS
 62
     7
 10
112.91558024
 20
-67.6982501172
 30
0.0
 11
112.91558024
 21
-91.5466794395
 31
0.0
  0
LINE
  5
3C4
  8
0
  6
CONTINUOUS
 62
     7
 10
113.9155792863
 20
-67.6982501172
 30
0.0
 11
113.9155792863
 21
-91.5466794395
 31
0.0
  0
LINE
  5
3C5
  8
0
  6
CONTINUOUS
 62
     7
 10
188.3155795605
 20
-91.5466794395
 30
0.0
 11
188.3155795605
 21
-95.3849577927
 31
0.0
  0
LINE
  5
3C6
  8
0
  6
CONTINUOUS
 62
     7
 10
187.3155805142
 20
-91.5466794395
 30
0.0
 11
187.3155805142
 21
-93.9155349158
 31
0.0
  0
LINE
  5
3C7
  8
0
  6
CONTINUOUS
 62
     7
 10
112.91558024
 20
-91.5466794395
 30
0.0
 11
112.91558024
 21
-95.3849577927
 31
0.0
  0
LINE
  5
3C8
  8
0
  6
CONTINUOUS
 62
     7
 10
113.9155792863
 20
-91.5466794395
 30
0.0
 11
113.9155792863
 21
-93.9155349158
 31
0.0
  0
LINE
  5
3C9
  8
0
  6
CONTINUOUS
 62
     7
 10
123.9150273473
 20
-150.5587646388
 30
0.0
 11
177.3161339433
 21
-150.5587646388
 31
0.0
  0
LINE
  5
3CA
  8
0
  6
CONTINUOUS
 62
     7
 10
123.9150273473
 20
-90.558766725
 30
0.0
 11
177.3161339433
 21
-90.558766725
 31
0.0
  0
LINE
  5
3CB
  8
0
  6
CONTINUOUS
 62
     7
 10
125.3948974283
 20
-85.558767023
 30
0.0
 11
175.8362608821
 21
-85.558767023
 31
0.0
  0
LINE
  5
3CC
  8
0
  6
CONTINUOUS
 62
     7
 10
175.8362608821
 20
-155.5587658309
 30
0.0
 11
125.3948974283
 21
-155.5587658309
 31
0.0
  0
LINE
  5
3CD
  8
0
  6
CONTINUOUS
 62
     7
 10
112.91558024
 20
-66.1555202328
 30
0.0
 11
112.91558024
 21
-67.6982501172
 31
0.0
  0
LINE
  5
3CE
  8
0
  6
CONTINUOUS
 62
     7
 10
113.9155792863
 20
-66.3536229753
 30
0.0
 11
113.9155792863
 21
-67.6982501172
 31
0.0
  0
LINE
  5
3CF
  8
0
  6
CONTINUOUS
 62
     7
 10
188.3155795605
 20
-66.155766102
 30
0.0
 11
188.3155795605
 21
-67.6982501172
 31
0.0
  0
LINE
  5
3D0
  8
0
  6
CONTINUOUS
 62
     7
 10
187.3155805142
 20
-66.3551071309
 30
0.0
 11
187.3155805142
 21
-67.6982501172
 31
0.0
  0
LINE
  5
3D1
  8
0
  6
CONTINUOUS
 62
     7
 10
183.1155794532
 20
-79.4587669545
 30
0.0
 11
183.1155794532
 21
-69.6587668382
 31
0.0
  0
LINE
  5
3D2
  8
0
  6
CONTINUOUS
 62
     7
 10
118.1155788572
 20
-79.4587669545
 30
0.0
 11
118.1155788572
 21
-69.6587668382
 31
0.0
  0
LINE
  5
3D3
  8
0
  6
CONTINUOUS
 62
     7
 10
118.1155788572
 20
-68.6587670468
 30
0.0
 11
113.9155792863
 21
-68.6587670468
 31
0.0
  0
LINE
  5
3D4
  8
0
  6
CONTINUOUS
 62
     7
 10
118.1155788572
 20
-68.6587670468
 30
0.0
 11
118.1155788572
 21
-69.6587668382
 31
0.0
  0
LINE
  5
3D5
  8
0
  6
CONTINUOUS
 62
     7
 10
187.3155805142
 20
-68.6587670468
 30
0.0
 11
183.1155794532
 21
-68.6587670468
 31
0.0
  0
LINE
  5
3D6
  8
0
  6
CONTINUOUS
 62
     7
 10
183.1155794532
 20
-69.6587668382
 30
0.0
 11
183.1155794532
 21
-68.6587670468
 31
0.0
  0
LINE
  5
3D7
  8
0
  6
CONTINUOUS
 62
     7
 10
187.3155805142
 20
-80.4587667458
 30
0.0
 11
183.1155794532
 21
-80.4587667458
 31
0.0
  0
LINE
  5
3D8
  8
0
  6
CONTINUOUS
 62
     7
 10
183.1155794532
 20
-80.4587667458
 30
0.0
 11
183.1155794532
 21
-79.4587669545
 31
0.0
  0
LINE
  5
3D9
  8
0
  6
CONTINUOUS
 62
     7
 10
118.1155788572
 20
-80.4587667458
 30
0.0
 11
113.9155792863
 21
-80.4587667458
 31
0.0
  0
LINE
  5
3DA
  8
0
  6
CONTINUOUS
 62
     7
 10
118.1155788572
 20
-79.4587669545
 30
0.0
 11
118.1155788572
 21
-80.4587667458
 31
0.0
  0
LINE
  5
3DB
  8
0
  6
CONTINUOUS
 62
     7
 10
193.1155803473
 20
-79.4587669545
 30
0.0
 11
193.1155803473
 21
-69.6587668382
 31
0.0
  0
LINE
  5
3DC
  8
0
  6
CONTINUOUS
 62
     7
 10
112.91558024
 20
-68.6587670468
 30
0.0
 11
108.1155824334
 21
-68.6587670468
 31
0.0
  0
LINE
  5
3DD
  8
0
  6
CONTINUOUS
 62
     7
 10
108.1155824334
 20
-69.6587668382
 30
0.0
 11
108.1155824334
 21
-68.6587670468
 31
0.0
  0
LINE
  5
3DE
  8
0
  6
CONTINUOUS
 62
     7
 10
108.1155824334
 20
-79.4587669545
 30
0.0
 11
108.1155824334
 21
-69.6587668382
 31
0.0
  0
LINE
  5
3DF
  8
0
  6
CONTINUOUS
 62
     7
 10
193.1155803473
 20
-69.6587668382
 30
0.0
 11
193.1155803473
 21
-68.6587670468
 31
0.0
  0
LINE
  5
3E0
  8
0
  6
CONTINUOUS
 62
     7
 10
193.1155803473
 20
-68.6587670468
 30
0.0
 11
188.3155795605
 21
-68.6587670468
 31
0.0
  0
LINE
  5
3E1
  8
0
  6
CONTINUOUS
 62
     7
 10
112.91558024
 20
-80.4587667458
 30
0.0
 11
108.1155824334
 21
-80.4587667458
 31
0.0
  0
LINE
  5
3E2
  8
0
  6
CONTINUOUS
 62
     7
 10
108.1155824334
 20
-80.4587667458
 30
0.0
 11
108.1155824334
 21
-79.4587669545
 31
0.0
  0
LINE
  5
3E3
  8
0
  6
CONTINUOUS
 62
     7
 10
193.1155803473
 20
-80.4587667458
 30
0.0
 11
188.3155795605
 21
-80.4587667458
 31
0.0
  0
LINE
  5
3E4
  8
0
  6
CONTINUOUS
 62
     7
 10
193.1155803473
 20
-80.4587667458
 30
0.0
 11
193.1155803473
 21
-79.4587669545
 31
0.0
  0
LINE
  5
3E5
  8
0
  6
CONTINUOUS
 62
     7
 10
434.2155861528
 20
-69.858766871
 30
0.0
 11
434.2155861528
 21
-70.4587669694
 31
0.0
  0
ARC
  5
3E6
  8
0
  6
CONTINUOUS
 62
     7
 10
433.8155800493
 20
-69.8587668799
 30
0.0
 40
0.3999999999999915
 50
0.0
 51
90.0
  0
LINE
  5
3E7
  8
0
  6
CONTINUOUS
 62
     7
 10
-12.9844260543
 20
-70.4587669694
 30
0.0
 11
-12.9844260543
 21
-69.858766871
 31
0.0
  0
ARC
  5
3E8
  8
0
  6
CONTINUOUS
 62
     7
 10
-12.5844199507
 20
-69.8587668799
 30
0.0
 40
0.3999999999999915
 50
90.0
 51
180.0
  0
LINE
  5
3E9
  8
0
  6
CONTINUOUS
 62
     7
 10
-12.5844312041
 20
-69.4587668054
 30
0.0
 11
-11.884410414
 21
-69.4587668054
 31
0.0
  0
LINE
  5
3EA
  8
0
  6
CONTINUOUS
 62
     7
 10
-1.8844199507
 20
-69.4587668054
 30
0.0
 11
12.6155781419
 21
-69.4587668054
 31
0.0
  0
LINE
  5
3EB
  8
0
  6
CONTINUOUS
 62
     7
 10
48.6155795724
 20
-69.4587668054
 30
0.0
 11
63.1155776651
 21
-69.4587668054
 31
0.0
  0
LINE
  5
3EC
  8
0
  6
CONTINUOUS
 62
     7
 10
73.1155800493
 20
-69.4587668054
 30
0.0
 11
108.1155824334
 21
-69.4587668054
 31
0.0
  0
LINE
  5
3ED
  8
0
  6
CONTINUOUS
 62
     7
 10
118.1155788572
 20
-69.4587668054
 30
0.0
 11
132.6155829103
 21
-69.4587668054
 31
0.0
  0
LINE
  5
3EE
  8
0
  6
CONTINUOUS
 62
     7
 10
168.6155813606
 20
-69.4587668054
 30
0.0
 11
183.1155794532
 21
-69.4587668054
 31
0.0
  0
LINE
  5
3EF
  8
0
  6
CONTINUOUS
 62
     7
 10
193.1155803473
 20
-69.4587668054
 30
0.0
 11
228.1155797512
 21
-69.4587668054
 31
0.0
  0
LINE
  5
3F0
  8
0
  6
CONTINUOUS
 62
     7
 10
238.1155806453
 20
-69.4587668054
 30
0.0
 11
252.615578738
 21
-69.4587668054
 31
0.0
  0
LINE
  5
3F1
  8
0
  6
CONTINUOUS
 62
     7
 10
288.6155771882
 20
-69.4587668054
 30
0.0
 11
303.1155812414
 21
-69.4587668054
 31
0.0
  0
LINE
  5
3F2
  8
0
  6
CONTINUOUS
 62
     7
 10
313.1155776651
 20
-69.4587668054
 30
0.0
 11
348.1155800493
 21
-69.4587668054
 31
0.0
  0
LINE
  5
3F3
  8
0
  6
CONTINUOUS
 62
     7
 10
358.1155824334
 20
-69.4587668054
 30
0.0
 11
372.6155805261
 21
-69.4587668054
 31
0.0
  0
LINE
  5
3F4
  8
0
  6
CONTINUOUS
 62
     7
 10
408.6155819566
 20
-69.4587668054
 30
0.0
 11
423.1155800493
 21
-69.4587668054
 31
0.0
  0
LINE
  5
3F5
  8
0
  6
CONTINUOUS
 62
     7
 10
433.1155705125
 20
-69.4587668054
 30
0.0
 11
433.8155913026
 21
-69.4587668054
 31
0.0
  0
LINE
  5
3F6
  8
0
  6
CONTINUOUS
 62
     7
 10
-12.9844260543
 20
-78.4587667905
 30
0.0
 11
-12.9844260543
 21
-70.4587669694
 31
0.0
  0
LINE
  5
3F7
  8
0
  6
CONTINUOUS
 62
     7
 10
434.2155861528
 20
-70.4587669694
 30
0.0
 11
434.2155861528
 21
-78.4587667905
 31
0.0
  0
LINE
  5
3F8
  8
0
  6
CONTINUOUS
 62
     7
 10
433.8155913026
 20
-79.4587669545
 30
0.0
 11
433.1155705125
 21
-79.4587669545
 31
0.0
  0
LINE
  5
3F9
  8
0
  6
CONTINUOUS
 62
     7
 10
423.1155800493
 20
-79.4587669545
 30
0.0
 11
408.6155819566
 21
-79.4587669545
 31
0.0
  0
LINE
  5
3FA
  8
0
  6
CONTINUOUS
 62
     7
 10
372.6155805261
 20
-79.4587669545
 30
0.0
 11
358.1155824334
 21
-79.4587669545
 31
0.0
  0
LINE
  5
3FB
  8
0
  6
CONTINUOUS
 62
     7
 10
348.1155800493
 20
-79.4587669545
 30
0.0
 11
313.1155776651
 21
-79.4587669545
 31
0.0
  0
LINE
  5
3FC
  8
0
  6
CONTINUOUS
 62
     7
 10
303.1155812414
 20
-79.4587669545
 30
0.0
 11
288.6155771882
 21
-79.4587669545
 31
0.0
  0
LINE
  5
3FD
  8
0
  6
CONTINUOUS
 62
     7
 10
252.615578738
 20
-79.4587669545
 30
0.0
 11
238.1155806453
 21
-79.4587669545
 31
0.0
  0
LINE
  5
3FE
  8
0
  6
CONTINUOUS
 62
     7
 10
228.1155797512
 20
-79.4587669545
 30
0.0
 11
193.1155803473
 21
-79.4587669545
 31
0.0
  0
LINE
  5
3FF
  8
0
  6
CONTINUOUS
 62
     7
 10
183.1155794532
 20
-79.4587669545
 30
0.0
 11
168.6155813606
 21
-79.4587669545
 31
0.0
  0
LINE
  5
400
  8
0
  6
CONTINUOUS
 62
     7
 10
132.6155829103
 20
-79.4587669545
 30
0.0
 11
118.1155788572
 21
-79.4587669545
 31
0.0
  0
LINE
  5
401
  8
0
  6
CONTINUOUS
 62
     7
 10
108.1155824334
 20
-79.4587669545
 30
0.0
 11
73.1155800493
 21
-79.4587669545
 31
0.0
  0
LINE
  5
402
  8
0
  6
CONTINUOUS
 62
     7
 10
63.1155776651
 20
-79.4587669545
 30
0.0
 11
48.6155795724
 21
-79.4587669545
 31
0.0
  0
LINE
  5
403
  8
0
  6
CONTINUOUS
 62
     7
 10
12.6155781419
 20
-79.4587669545
 30
0.0
 11
-1.8844199507
 21
-79.4587669545
 31
0.0
  0
LINE
  5
404
  8
0
  6
CONTINUOUS
 62
     7
 10
-11.884410414
 20
-79.4587669545
 30
0.0
 11
-12.5844312041
 21
-79.4587669545
 31
0.0
  0
LINE
  5
405
  8
0
  6
CONTINUOUS
 62
     7
 10
434.2155861528
 20
-78.4587667905
 30
0.0
 11
434.2155861528
 21
-79.0587668889
 31
0.0
  0
ARC
  5
406
  8
0
  6
CONTINUOUS
 62
     7
 10
433.8155800493
 20
-79.0587668799
 30
0.0
 40
0.3999999999999915
 50
270.0
 51
0.0
  0
ARC
  5
407
  8
0
  6
CONTINUOUS
 62
     7
 10
-12.5844199507
 20
-79.0587668799
 30
0.0
 40
0.3999999999999915
 50
180.0
 51
270.0
  0
LINE
  5
408
  8
0
  6
CONTINUOUS
 62
     7
 10
-12.9844260543
 20
-79.0587668889
 30
0.0
 11
-12.9844260543
 21
-78.4587667905
 31
0.0
  0
ARC
  5
409
  8
0
  6
CONTINUOUS
 62
     7
 10
398.6155800493
 20
-66.4587668799
 30
0.0
 40
4.000000000000012
 50
0.0
 51
37.0933047126
  0
LINE
  5
40A
  8
0
  6
CONTINUOUS
 62
     7
 10
402.6155757577
 20
-68.4587670141
 30
0.0
 11
402.6155757577
 21
-66.4587670588
 31
0.0
  0
LINE
  5
40B
  8
0
  6
CONTINUOUS
 62
     7
 10
402.6155757577
 20
-68.4587670141
 30
0.0
 11
402.6145743997
 21
-68.8587667071
 31
0.0
  0
ARC
  5
40C
  8
0
  6
CONTINUOUS
 62
     7
 10
322.6155800493
 20
-68.4587668799
 30
0.0
 40
80.00000000000006
 50
347.6577971128
 51
351.3730734413
  0
ARC
  5
40D
  8
0
  6
CONTINUOUS
 62
     7
 10
458.6155800493
 20
-68.4587668799
 30
0.0
 40
80.0
 50
188.6269265587
 51
192.3422028872
  0
LINE
  5
40E
  8
0
  6
CONTINUOUS
 62
     7
 10
378.6165761621
 20
-68.8587667071
 30
0.0
 11
378.6155748041
 21
-68.4587670141
 31
0.0
  0
LINE
  5
40F
  8
0
  6
CONTINUOUS
 62
     7
 10
378.6155748041
 20
-66.4587670588
 30
0.0
 11
378.6155748041
 21
-68.4587670141
 31
0.0
  0
ARC
  5
410
  8
0
  6
CONTINUOUS
 62
     7
 10
382.6155800493
 20
-66.4587668799
 30
0.0
 40
4.00000000000005
 50
143.0078465574
 51
180.0
  0
CIRCLE
  5
411
  8
0
  6
CONTINUOUS
 62
     7
 10
398.6155800493
 20
-66.4587668799
 30
0.0
 40
1.500000000000014
  0
CIRCLE
  5
412
  8
0
  6
CONTINUOUS
 62
     7
 10
382.6155800493
 20
-66.4587668799
 30
0.0
 40
1.500000000000014
  0
ARC
  5
413
  8
0
  6
CONTINUOUS
 62
     7
 10
98.6155800493
 20
-68.4587668799
 30
0.0
 40
80.00000000000001
 50
188.6269265587
 51
192.3422028872
  0
LINE
  5
414
  8
0
  6
CONTINUOUS
 62
     7
 10
18.6165856988
 20
-68.8587667071
 30
0.0
 11
18.6155843408
 21
-68.4587670141
 31
0.0
  0
LINE
  5
415
  8
0
  6
CONTINUOUS
 62
     7
 10
18.6155843408
 20
-66.4587670588
 30
0.0
 11
18.6155843408
 21
-68.4587670141
 31
0.0
  0
ARC
  5
416
  8
0
  6
CONTINUOUS
 62
     7
 10
22.6155800493
 20
-66.4587668799
 30
0.0
 40
4.000000000000004
 50
143.0078465574
 51
180.0
  0
ARC
  5
417
  8
0
  6
CONTINUOUS
 62
     7
 10
38.6155800493
 20
-66.4587668799
 30
0.0
 40
4.000000000000018
 50
0.0
 51
37.0933047126
  0
LINE
  5
418
  8
0
  6
CONTINUOUS
 62
     7
 10
42.6155852945
 20
-68.4587670141
 30
0.0
 11
42.6155852945
 21
-66.4587670588
 31
0.0
  0
LINE
  5
419
  8
0
  6
CONTINUOUS
 62
     7
 10
42.6155852945
 20
-68.4587670141
 30
0.0
 11
42.6145839364
 21
-68.8587667071
 31
0.0
  0
ARC
  5
41A
  8
0
  6
CONTINUOUS
 62
     7
 10
-37.3844199507
 20
-68.4587668799
 30
0.0
 40
80.00000000000001
 50
347.6577971128
 51
351.3730734413
  0
CIRCLE
  5
41B
  8
0
  6
CONTINUOUS
 62
     7
 10
22.6155800493
 20
-66.4587668799
 30
0.0
 40
1.500000000000014
  0
CIRCLE
  5
41C
  8
0
  6
CONTINUOUS
 62
     7
 10
38.6155800493
 20
-66.4587668799
 30
0.0
 40
1.500000000000014
  0
POLYLINE
  5
41D
  8
0
  6
CONTINUOUS
 62
     7
 66
     1
 10
0.0
 20
0.0
 30
0.0
  0
VERTEX
  5
95F
  8
0
  6
CONTINUOUS
 62
     7
 10
515.6364177434
 20
230.5788174664
 30
0.0
  0
VERTEX
  5
960
  8
0
  6
CONTINUOUS
 62
     7
 10
515.5423169105
 20
231.3187733685
 30
0.0
  0
VERTEX
  5
961
  8
0
  6
CONTINUOUS
 62
     7
 10
515.4135068028
 20
232.2273627316
 30
0.0
  0
VERTEX
  5
962
  8
0
  6
CONTINUOUS
 62
     7
 10
515.2722825377
 20
233.1286445653
 30
0.0
  0
VERTEX
  5
963
  8
0
  6
CONTINUOUS
 62
     7
 10
515.1194636791
 20
234.0167895352
 30
0.0
  0
VERTEX
  5
964
  8
0
  6
CONTINUOUS
 62
     7
 10
514.9579172103
 20
234.877611736
 30
0.0
  0
VERTEX
  5
965
  8
0
  6
CONTINUOUS
 62
     7
 10
514.7868205874
 20
235.7185140645
 30
0.0
  0
VERTEX
  5
966
  8
0
  6
CONTINUOUS
 62
     7
 10
514.60668343
 20
236.5380779302
 30
0.0
  0
VERTEX
  5
967
  8
0
  6
CONTINUOUS
 62
     7
 10
514.4184698431
 20
237.3324886357
 30
0.0
  0
VERTEX
  5
968
  8
0
  6
CONTINUOUS
 62
     7
 10
514.2231022089
 20
238.0981341397
 30
0.0
  0
VERTEX
  5
969
  8
0
  6
CONTINUOUS
 62
     7
 10
514.021374759
 20
238.8317838704
 30
0.0
  0
VERTEX
  5
96A
  8
0
  6
CONTINUOUS
 62
     7
 10
513.8138149946
 20
239.5308629071
 30
0.0
  0
VERTEX
  5
96B
  8
0
  6
CONTINUOUS
 62
     7
 10
513.6006732552
 20
240.1931897199
 30
0.0
  0
VERTEX
  5
96C
  8
0
  6
CONTINUOUS
 62
     7
 10
513.3848522871
 20
240.8095732724
 30
0.0
  0
VERTEX
  5
96D
  8
0
  6
CONTINUOUS
 62
     7
 10
513.1613348691
 20
241.3928643262
 30
0.0
  0
VERTEX
  5
96E
  8
0
  6
CONTINUOUS
 62
     7
 10
512.9243155091
 20
241.9516817128
 30
0.0
  0
VERTEX
  5
96F
  8
0
  6
CONTINUOUS
 62
     7
 10
512.6645599573
 20
242.4942747151
 30
0.0
  0
VERTEX
  5
970
  8
0
  6
CONTINUOUS
 62
     7
 10
512.3574380844
 20
243.0426851308
 30
0.0
  0
VERTEX
  5
971
  8
0
  6
CONTINUOUS
 62
     7
 10
512.1056755154
 20
243.4196964299
 30
0.0
  0
VERTEX
  5
972
  8
0
  6
CONTINUOUS
 62
     7
 10
511.8521665304
 20
243.7387839352
 30
0.0
  0
VERTEX
  5
973
  8
0
  6
CONTINUOUS
 62
     7
 10
511.6035540669
 20
244.0001026189
 30
0.0
  0
VERTEX
  5
974
  8
0
  6
CONTINUOUS
 62
     7
 10
511.3348414271
 20
244.2337647473
 30
0.0
  0
VERTEX
  5
975
  8
0
  6
CONTINUOUS
 62
     7
 10
511.0403155057
 20
244.4405690228
 30
0.0
  0
VERTEX
  5
976
  8
0
  6
CONTINUOUS
 62
     7
 10
510.7155551283
 20
244.617892841
 30
0.0
  0
VERTEX
  5
977
  8
0
  6
CONTINUOUS
 62
     7
 10
510.3608106344
 20
244.7591558492
 30
0.0
  0
VERTEX
  5
978
  8
0
  6
CONTINUOUS
 62
     7
 10
509.9808950989
 20
244.8565498387
 30
0.0
  0
VERTEX
  5
979
  8
0
  6
CONTINUOUS
 62
     7
 10
509.583855149
 20
244.9034467732
 30
0.0
  0
VERTEX
  5
97A
  8
0
  6
CONTINUOUS
 62
     7
 10
509.135380861
 20
244.8913351094
 30
0.0
  0
VERTEX
  5
97B
  8
0
  6
CONTINUOUS
 62
     7
 10
509.0824221342
 20
244.8817626035
 30
0.0
  0
SEQEND
  5
A74
  8
0
  6
CONTINUOUS
 62
     7
  0
POLYLINE
  5
41E
  8
0
  6
CONTINUOUS
 62
     7
 66
     1
 10
0.0
 20
0.0
 30
0.0
  0
VERTEX
  5
97C
  8
0
  6
CONTINUOUS
 62
     7
 10
517.6136669784
 20
175.4154101407
 30
0.0
  0
VERTEX
  5
97D
  8
0
  6
CONTINUOUS
 62
     7
 10
517.8803538053
 20
175.4535451924
 30
0.0
  0
VERTEX
  5
97E
  8
0
  6
CONTINUOUS
 62
     7
 10
518.2760355144
 20
175.5698338544
 30
0.0
  0
VERTEX
  5
97F
  8
0
  6
CONTINUOUS
 62
     7
 10
518.6376919119
 20
175.7326975858
 30
0.0
  0
VERTEX
  5
980
  8
0
  6
CONTINUOUS
 62
     7
 10
518.9617206423
 20
175.9327903783
 30
0.0
  0
VERTEX
  5
981
  8
0
  6
CONTINUOUS
 62
     7
 10
519.2466628819
 20
176.1609688794
 30
0.0
  0
VERTEX
  5
982
  8
0
  6
CONTINUOUS
 62
     7
 10
519.493564692
 20
176.409377197
 30
0.0
  0
VERTEX
  5
983
  8
0
  6
CONTINUOUS
 62
     7
 10
519.7061617939
 20
176.6731635129
 30
0.0
  0
VERTEX
  5
984
  8
0
  6
CONTINUOUS
 62
     7
 10
519.8904146521
 20
176.9522682225
 30
0.0
  0
VERTEX
  5
985
  8
0
  6
CONTINUOUS
 62
     7
 10
520.0537820427
 20
177.2535697019
 30
0.0
  0
VERTEX
  5
986
  8
0
  6
CONTINUOUS
 62
     7
 10
520.2054363756
 20
177.5965348279
 30
0.0
  0
VERTEX
  5
987
  8
0
  6
CONTINUOUS
 62
     7
 10
520.349526134
 20
178.0025497472
 30
0.0
  0
VERTEX
  5
988
  8
0
  6
CONTINUOUS
 62
     7
 10
520.4969544976
 20
178.5361424481
 30
0.0
  0
VERTEX
  5
989
  8
0
  6
CONTINUOUS
 62
     7
 10
520.6220363348
 20
179.1303053891
 30
0.0
  0
VERTEX
  5
98A
  8
0
  6
CONTINUOUS
 62
     7
 10
520.7176593213
 20
179.7213212048
 30
0.0
  0
VERTEX
  5
98B
  8
0
  6
CONTINUOUS
 62
     7
 10
520.8006103604
 20
180.3919569051
 30
0.0
  0
VERTEX
  5
98C
  8
0
  6
CONTINUOUS
 62
     7
 10
520.8638359873
 20
181.0789481198
 30
0.0
  0
VERTEX
  5
98D
  8
0
  6
CONTINUOUS
 62
     7
 10
520.910658416
 20
181.7902461087
 30
0.0
  0
VERTEX
  5
98E
  8
0
  6
CONTINUOUS
 62
     7
 10
520.9416237741
 20
182.5117364919
 30
0.0
  0
VERTEX
  5
98F
  8
0
  6
CONTINUOUS
 62
     7
 10
520.9590678184
 20
183.2830444371
 30
0.0
  0
VERTEX
  5
990
  8
0
  6
CONTINUOUS
 62
     7
 10
520.9623579948
 20
184.0860620534
 30
0.0
  0
VERTEX
  5
991
  8
0
  6
CONTINUOUS
 62
     7
 10
520.9515084593
 20
184.9171653783
 30
0.0
  0
VERTEX
  5
992
  8
0
  6
CONTINUOUS
 62
     7
 10
520.9264715283
 20
185.7714072263
 30
0.0
  0
VERTEX
  5
993
  8
0
  6
CONTINUOUS
 62
     7
 10
520.8872360258
 20
186.6430417096
 30
0.0
  0
VERTEX
  5
994
  8
0
  6
CONTINUOUS
 62
     7
 10
520.8338719873
 20
187.5258461034
 30
0.0
  0
VERTEX
  5
995
  8
0
  6
CONTINUOUS
 62
     7
 10
520.766611871
 20
188.4131923711
 30
0.0
  0
VERTEX
  5
996
  8
0
  6
CONTINUOUS
 62
     7
 10
520.6855346529
 20
189.306546787
 30
0.0
  0
VERTEX
  5
997
  8
0
  6
CONTINUOUS
 62
     7
 10
520.5896419554
 20
190.2169123685
 30
0.0
  0
VERTEX
  5
998
  8
0
  6
CONTINUOUS
 62
     7
 10
520.510613647
 20
190.8767119443
 30
0.0
  0
SEQEND
  5
A73
  8
0
  6
CONTINUOUS
 62
     7
  0
LINE
  5
41F
  8
0
  6
CONTINUOUS
 62
     7
 10
520.5127288668
 20
190.8770457303
 30
0.0
 11
515.6379555433
 21
230.5789009129
 31
0.0
  0
POLYLINE
  5
420
  8
0
  6
CONTINUOUS
 62
     7
 66
     1
 10
0.0
 20
0.0
 30
0.0
  0
VERTEX
  5
999
  8
0
  6
CONTINUOUS
 62
     7
 10
515.1712765067
 20
190.2213350331
 30
0.0
  0
VERTEX
  5
99A
  8
0
  6
CONTINUOUS
 62
     7
 10
515.2564277022
 20
189.4984022176
 30
0.0
  0
VERTEX
  5
99B
  8
0
  6
CONTINUOUS
 62
     7
 10
515.3428037732
 20
188.6620298421
 30
0.0
  0
VERTEX
  5
99C
  8
0
  6
CONTINUOUS
 62
     7
 10
515.4159520833
 20
187.835492233
 30
0.0
  0
VERTEX
  5
99D
  8
0
  6
CONTINUOUS
 62
     7
 10
515.475363013
 20
187.0247736966
 30
0.0
  0
VERTEX
  5
99E
  8
0
  6
CONTINUOUS
 62
     7
 10
515.5211065977
 20
186.2354293858
 30
0.0
  0
VERTEX
  5
99F
  8
0
  6
CONTINUOUS
 62
     7
 10
515.5541946261
 20
185.4604378735
 30
0.0
  0
VERTEX
  5
9A0
  8
0
  6
CONTINUOUS
 62
     7
 10
515.574700114
 20
184.7049966847
 30
0.0
  0
VERTEX
  5
9A1
  8
0
  6
CONTINUOUS
 62
     7
 10
515.5827169387
 20
183.9781180417
 30
0.0
  0
VERTEX
  5
9A2
  8
0
  6
CONTINUOUS
 62
     7
 10
515.578639981
 20
183.2900777852
 30
0.0
  0
VERTEX
  5
9A3
  8
0
  6
CONTINUOUS
 62
     7
 10
515.5632351606
 20
182.6494470631
 30
0.0
  0
VERTEX
  5
9A4
  8
0
  6
CONTINUOUS
 62
     7
 10
515.5376126139
 20
182.0642605817
 30
0.0
  0
VERTEX
  5
9A5
  8
0
  6
CONTINUOUS
 62
     7
 10
515.5032386153
 20
181.5374866521
 30
0.0
  0
VERTEX
  5
9A6
  8
0
  6
CONTINUOUS
 62
     7
 10
515.4601876705
 20
181.0512081181
 30
0.0
  0
VERTEX
  5
9A7
  8
0
  6
CONTINUOUS
 62
     7
 10
515.4114057391
 20
180.6271210706
 30
0.0
  0
VERTEX
  5
9A8
  8
0
  6
CONTINUOUS
 62
     7
 10
515.3592814772
 20
180.2685991322
 30
0.0
  0
VERTEX
  5
9A9
  8
0
  6
CONTINUOUS
 62
     7
 10
515.3073524206
 20
179.9814954793
 30
0.0
  0
VERTEX
  5
9AA
  8
0
  6
CONTINUOUS
 62
     7
 10
515.2653192251
 20
179.790927509
 30
0.0
  0
VERTEX
  5
9AB
  8
0
  6
CONTINUOUS
 62
     7
 10
515.2319048612
 20
179.6643630063
 30
0.0
  0
VERTEX
  5
9AC
  8
0
  6
CONTINUOUS
 62
     7
 10
515.2111833065
 20
179.5982614552
 30
0.0
  0
VERTEX
  5
9AD
  8
0
  6
CONTINUOUS
 62
     7
 10
515.2082626789
 20
179.5900002515
 30
0.0
  0
SEQEND
  5
A72
  8
0
  6
CONTINUOUS
 62
     7
  0
POLYLINE
  5
421
  8
0
  6
CONTINUOUS
 62
     7
 66
     1
 10
0.0
 20
0.0
 30
0.0
  0
VERTEX
  5
9AE
  8
0
  6
CONTINUOUS
 62
     7
 10
507.7584971755
 20
240.25004063
 30
0.0
  0
VERTEX
  5
9AF
  8
0
  6
CONTINUOUS
 62
     7
 10
507.7572216361
 20
240.2516380345
 30
0.0
  0
VERTEX
  5
9B0
  8
0
  6
CONTINUOUS
 62
     7
 10
507.7825685112
 20
240.2114764249
 30
0.0
  0
VERTEX
  5
9B1
  8
0
  6
CONTINUOUS
 62
     7
 10
507.8345124691
 20
240.1204124486
 30
0.0
  0
VERTEX
  5
9B2
  8
0
  6
CONTINUOUS
 62
     7
 10
507.9114665358
 20
239.9714842831
 30
0.0
  0
VERTEX
  5
9B3
  8
0
  6
CONTINUOUS
 62
     7
 10
508.0112491815
 20
239.7593394315
 30
0.0
  0
VERTEX
  5
9B4
  8
0
  6
CONTINUOUS
 62
     7
 10
508.1309099762
 20
239.4811407124
 30
0.0
  0
VERTEX
  5
9B5
  8
0
  6
CONTINUOUS
 62
     7
 10
508.2668890326
 20
239.1369238889
 30
0.0
  0
VERTEX
  5
9B6
  8
0
  6
CONTINUOUS
 62
     7
 10
508.4153150289
 20
238.7292877232
 30
0.0
  0
VERTEX
  5
9B7
  8
0
  6
CONTINUOUS
 62
     7
 10
508.5723062127
 20
238.2628694569
 30
0.0
  0
VERTEX
  5
9B8
  8
0
  6
CONTINUOUS
 62
     7
 10
508.7343131273
 20
237.7432719266
 30
0.0
  0
VERTEX
  5
9B9
  8
0
  6
CONTINUOUS
 62
     7
 10
508.8982482522
 20
237.1772423779
 30
0.0
  0
VERTEX
  5
9BA
  8
0
  6
CONTINUOUS
 62
     7
 10
509.0647031634
 20
236.5595952069
 30
0.0
  0
VERTEX
  5
9BB
  8
0
  6
CONTINUOUS
 62
     7
 10
509.2312206595
 20
235.895623306
 30
0.0
  0
VERTEX
  5
9BC
  8
0
  6
CONTINUOUS
 62
     7
 10
509.395587918
 20
235.190714935
 30
0.0
  0
VERTEX
  5
9BD
  8
0
  6
CONTINUOUS
 62
     7
 10
509.555738148
 20
234.4505206143
 30
0.0
  0
VERTEX
  5
9BE
  8
0
  6
CONTINUOUS
 62
     7
 10
509.7097565501
 20
233.6808935201
 30
0.0
  0
VERTEX
  5
9BF
  8
0
  6
CONTINUOUS
 62
     7
 10
509.8558669059
 20
232.8879729306
 30
0.0
  0
VERTEX
  5
9C0
  8
0
  6
CONTINUOUS
 62
     7
 10
509.9923362105
 20
232.0788637196
 30
0.0
  0
VERTEX
  5
9C1
  8
0
  6
CONTINUOUS
 62
     7
 10
510.1178680627
 20
231.260980705
 30
0.0
  0
VERTEX
  5
9C2
  8
0
  6
CONTINUOUS
 62
     7
 10
510.2329825132
 20
230.431224445
 30
0.0
  0
VERTEX
  5
9C3
  8
0
  6
CONTINUOUS
 62
     7
 10
510.2961157529
 20
229.9229637181
 30
0.0
  0
SEQEND
  5
A71
  8
0
  6
CONTINUOUS
 62
     7
  0
LINE
  5
422
  8
0
  6
CONTINUOUS
 62
     7
 10
510.2980573742
 20
229.9232378995
 30
0.0
 11
515.1728306978
 21
190.2213946378
 31
0.0
  0
LINE
  5
423
  8
0
  6
CONTINUOUS
 62
     7
 10
509.7806547849
 20
233.296145538
 30
0.0
 11
515.4872481792
 21
186.819662193
 31
0.0
  0
ARC
  5
424
  8
0
  6
CONTINUOUS
 62
     7
 10
507.7035712836
 20
242.0071230138
 30
0.0
 40
2.690000000000031
 50
97.0
 51
165.4352045702
  0
ARC
  5
425
  8
0
  6
CONTINUOUS
 62
     7
 10
507.7035712836
 20
242.0071230138
 30
0.0
 40
2.69000000000001
 50
208.5742842993
 51
277.0
  0
ARC
  5
426
  8
0
  6
CONTINUOUS
 62
     7
 10
515.5787682545
 20
177.8687906948
 30
0.0
 40
2.690000000000105
 50
97.0
 51
165.4352045702
  0
ARC
  5
427
  8
0
  6
CONTINUOUS
 62
     7
 10
515.5787682545
 20
177.8687906948
 30
0.0
 40
2.689999999999996
 50
208.5742842993
 51
277.0
  0
LINE
  5
428
  8
0
  6
CONTINUOUS
 62
     7
 10
504.800148782
 20
240.6431213414
 30
0.0
 11
505.3427179425
 21
240.7097354924
 31
0.0
  0
LINE
  5
429
  8
0
  6
CONTINUOUS
 62
     7
 10
505.0989796488
 20
242.6948324239
 30
0.0
 11
504.5564104884
 21
242.6282063519
 31
0.0
  0
LINE
  5
42A
  8
0
  6
CONTINUOUS
 62
     7
 10
512.6753454177
 20
176.5047803914
 30
0.0
 11
513.2179160683
 21
176.5714064633
 31
0.0
  0
LINE
  5
42B
  8
0
  6
CONTINUOUS
 62
     7
 10
512.9741762846
 20
178.5564914739
 30
0.0
 11
512.4316071241
 21
178.4898773229
 31
0.0
  0
POLYLINE
  5
42C
  8
0
  6
CONTINUOUS
 62
     7
 66
     1
 10
0.0
 20
0.0
 30
0.0
  0
VERTEX
  5
9C4
  8
0
  6
CONTINUOUS
 62
     7
 10
610.0933586328
 20
148.3690932786
 30
0.0
  0
VERTEX
  5
9C5
  8
0
  6
CONTINUOUS
 62
     7
 10
610.0880061357
 20
148.6384407079
 30
0.0
  0
VERTEX
  5
9C6
  8
0
  6
CONTINUOUS
 62
     7
 10
610.0208078592
 20
149.0453437364
 30
0.0
  0
VERTEX
  5
9C7
  8
0
  6
CONTINUOUS
 62
     7
 10
609.9032257764
 20
149.4241491353
 30
0.0
  0
VERTEX
  5
9C8
  8
0
  6
CONTINUOUS
 62
     7
 10
609.7441230981
 20
149.7701481377
 30
0.0
  0
VERTEX
  5
9C9
  8
0
  6
CONTINUOUS
 62
     7
 10
609.5523689954
 20
150.080777744
 30
0.0
  0
VERTEX
  5
9CA
  8
0
  6
CONTINUOUS
 62
     7
 10
609.3358968465
 20
150.3561094796
 30
0.0
  0
VERTEX
  5
9CB
  8
0
  6
CONTINUOUS
 62
     7
 10
609.0999935834
 20
150.5992725884
 30
0.0
  0
VERTEX
  5
9CC
  8
0
  6
CONTINUOUS
 62
     7
 10
608.8454221456
 20
150.8161619698
 30
0.0
  0
VERTEX
  5
9CD
  8
0
  6
CONTINUOUS
 62
     7
 10
608.5662816732
 20
151.0150328671
 30
0.0
  0
VERTEX
  5
9CE
  8
0
  6
CONTINUOUS
 62
     7
 10
608.2443510263
 20
151.207353214
 30
0.0
  0
VERTEX
  5
9CF
  8
0
  6
CONTINUOUS
 62
     7
 10
607.8589175909
 20
151.3998523747
 30
0.0
  0
VERTEX
  5
9D0
  8
0
  6
CONTINUOUS
 62
     7
 10
607.3472713201
 20
151.6112104451
 30
0.0
  0
VERTEX
  5
9D1
  8
0
  6
CONTINUOUS
 62
     7
 10
606.7727838724
 20
151.8077686822
 30
0.0
  0
VERTEX
  5
9D2
  8
0
  6
CONTINUOUS
 62
     7
 10
606.1978315084
 20
151.9747034108
 30
0.0
  0
VERTEX
  5
9D3
  8
0
  6
CONTINUOUS
 62
     7
 10
605.5422936647
 20
152.138771156
 30
0.0
  0
VERTEX
  5
9D4
  8
0
  6
CONTINUOUS
 62
     7
 10
604.86813533
 20
152.2852436101
 30
0.0
  0
VERTEX
  5
9D5
  8
0
  6
CONTINUOUS
 62
     7
 10
604.1678403585
 20
152.418406347
 30
0.0
  0
VERTEX
  5
9D6
  8
0
  6
CONTINUOUS
 62
     7
 10
603.4555052488
 20
152.5370672738
 30
0.0
  0
VERTEX
  5
9D7
  8
0
  6
CONTINUOUS
 62
     7
 10
602.6920710771
 20
152.6483789479
 30
0.0
  0
VERTEX
  5
9D8
  8
0
  6
CONTINUOUS
 62
     7
 10
601.8954430788
 20
152.7495101487
 30
0.0
  0
VERTEX
  5
9D9
  8
0
  6
CONTINUOUS
 62
     7
 10
601.0692154138
 20
152.8400257623
 30
0.0
  0
VERTEX
  5
9DA
  8
0
  6
CONTINUOUS
 62
     7
 10
600.2182756631
 20
152.9192820584
 30
0.0
  0
VERTEX
  5
9DB
  8
0
  6
CONTINUOUS
 62
     7
 10
599.3483697145
 20
152.9865637814
 30
0.0
  0
VERTEX
  5
9DC
  8
0
  6
CONTINUOUS
 62
     7
 10
598.4656308858
 20
153.0411854779
 30
0.0
  0
VERTEX
  5
9DD
  8
0
  6
CONTINUOUS
 62
     7
 10
597.5767110555
 20
153.0825630223
 30
0.0
  0
VERTEX
  5
9DE
  8
0
  6
CONTINUOUS
 62
     7
 10
596.6801320283
 20
153.1109646356
 30
0.0
  0
VERTEX
  5
9DF
  8
0
  6
CONTINUOUS
 62
     7
 10
595.7648609846
 20
153.1267360246
 30
0.0
  0
VERTEX
  5
9E0
  8
0
  6
CONTINUOUS
 62
     7
 10
595.1003466814
 20
153.1287029778
 30
0.0
  0
SEQEND
  5
A70
  8
0
  6
CONTINUOUS
 62
     7
  0
ARC
  5
42D
  8
0
  6
CONTINUOUS
 62
     7
 10
554.8016764361
 20
97.9758612174
 30
0.0
 40
55.15425742299042
 50
89.689920985
 51
97.9477118465
  0
LINE
  5
42E
  8
0
  6
CONTINUOUS
 62
     7
 10
595.1002751558
 20
153.1308427846
 30
0.0
 11
555.1002745597
 21
153.1308427846
 31
0.0
  0
POLYLINE
  5
42F
  8
0
  6
CONTINUOUS
 62
     7
 66
     1
 10
0.0
 20
0.0
 30
0.0
  0
VERTEX
  5
9E1
  8
0
  6
CONTINUOUS
 62
     7
 10
595.1001440256
 20
147.7492943799
 30
0.0
  0
VERTEX
  5
9E2
  8
0
  6
CONTINUOUS
 62
     7
 10
595.8280657499
 20
147.7457061803
 30
0.0
  0
VERTEX
  5
9E3
  8
0
  6
CONTINUOUS
 62
     7
 10
596.6687356203
 20
147.7295115983
 30
0.0
  0
VERTEX
  5
9E4
  8
0
  6
CONTINUOUS
 62
     7
 10
597.4980210035
 20
147.7013841664
 30
0.0
  0
VERTEX
  5
9E5
  8
0
  6
CONTINUOUS
 62
     7
 10
598.3099375932
 20
147.6615503823
 30
0.0
  0
VERTEX
  5
9E6
  8
0
  6
CONTINUOUS
 62
     7
 10
599.0989719598
 20
147.610755304
 30
0.0
  0
VERTEX
  5
9E7
  8
0
  6
CONTINUOUS
 62
     7
 10
599.872217056
 20
147.5491539037
 30
0.0
  0
VERTEX
  5
9E8
  8
0
  6
CONTINUOUS
 62
     7
 10
600.624529001
 20
147.4774375951
 30
0.0
  0
VERTEX
  5
9E9
  8
0
  6
CONTINUOUS
 62
     7
 10
601.346967098
 20
147.3968103921
 30
0.0
  0
VERTEX
  5
9EA
  8
0
  6
CONTINUOUS
 62
     7
 10
602.0293866365
 20
147.3089114224
 30
0.0
  0
VERTEX
  5
9EB
  8
0
  6
CONTINUOUS
 62
     7
 10
602.6633535593
 20
147.2155526673
 30
0.0
  0
VERTEX
  5
9EC
  8
0
  6
CONTINUOUS
 62
     7
 10
603.2410596578
 20
147.1188024079
 30
0.0
  0
VERTEX
  5
9ED
  8
0
  6
CONTINUOUS
 62
     7
 10
603.7597213953
 20
147.0204845464
 30
0.0
  0
VERTEX
  5
9EE
  8
0
  6
CONTINUOUS
 62
     7
 10
604.2371188371
 20
146.9184950387
 30
0.0
  0
VERTEX
  5
9EF
  8
0
  6
CONTINUOUS
 62
     7
 10
604.6521042554
 20
146.8183949983
 30
0.0
  0
VERTEX
  5
9F0
  8
0
  6
CONTINUOUS
 62
     7
 10
605.0016020505
 20
146.7229620015
 30
0.0
  0
VERTEX
  5
9F1
  8
0
  6
CONTINUOUS
 62
     7
 10
605.2802418439
 20
146.6364339387
 30
0.0
  0
VERTEX
  5
9F2
  8
0
  6
CONTINUOUS
 62
     7
 10
605.4642652242
 20
146.5714887177
 30
0.0
  0
VERTEX
  5
9F3
  8
0
  6
CONTINUOUS
 62
     7
 10
605.5858110158
 20
146.5228990113
 30
0.0
  0
VERTEX
  5
9F4
  8
0
  6
CONTINUOUS
 62
     7
 10
605.6488906114
 20
146.4942768609
 30
0.0
  0
VERTEX
  5
9F5
  8
0
  6
CONTINUOUS
 62
     7
 10
605.6567405431
 20
146.4903727567
 30
0.0
  0
SEQEND
  5
A6F
  8
0
  6
CONTINUOUS
 62
     7
  0
LINE
  5
430
  8
0
  6
CONTINUOUS
 62
     7
 10
566.10027301
 20
147.7508441007
 30
0.0
 11
595.1002751558
 21
147.7508441007
 31
0.0
  0
LINE
  5
431
  8
0
  6
CONTINUOUS
 62
     7
 10
566.10027301
 20
147.648353914
 30
0.0
 11
598.5149656503
 21
147.648353914
 31
0.0
  0
ARC
  5
432
  8
0
  6
CONTINUOUS
 62
     7
 10
607.4102738206
 20
146.6483526363
 30
0.0
 40
2.689999999999998
 50
270.0
 51
0.0
  0
ARC
  5
433
  8
0
  6
CONTINUOUS
 62
     7
 10
607.4102738206
 20
146.6483526363
 30
0.0
 40
2.689999999999998
 50
180.0
 51
270.0
  0
POLYLINE
  5
434
  8
0
  6
CONTINUOUS
 62
     7
 66
     1
 10
0.0
 20
0.0
 30
0.0
  0
VERTEX
  5
9F6
  8
0
  6
CONTINUOUS
 62
     7
 10
509.0807710855
 20
244.8864236867
 30
0.0
  0
VERTEX
  5
9F7
  8
0
  6
CONTINUOUS
 62
     7
 10
508.6289291351
 20
244.8309436833
 30
0.0
  0
VERTEX
  5
9F8
  8
0
  6
CONTINUOUS
 62
     7
 10
508.2463120191
 20
244.7839633023
 30
0.0
  0
VERTEX
  5
9F9
  8
0
  6
CONTINUOUS
 62
     7
 10
507.933065769
 20
244.7455063855
 30
0.0
  0
VERTEX
  5
9FA
  8
0
  6
CONTINUOUS
 62
     7
 10
507.6893051236
 20
244.7155729329
 30
0.0
  0
VERTEX
  5
9FB
  8
0
  6
CONTINUOUS
 62
     7
 10
507.5151254504
 20
244.6941867864
 30
0.0
  0
VERTEX
  5
9FC
  8
0
  6
CONTINUOUS
 62
     7
 10
507.4105923145
 20
244.6813479459
 30
0.0
  0
VERTEX
  5
9FD
  8
0
  6
CONTINUOUS
 62
     7
 10
507.3757429688
 20
244.6770683324
 30
0.0
  0
SEQEND
  5
A6E
  8
0
  6
CONTINUOUS
 62
     7
  0
ARC
  5
435
  8
0
  6
CONTINUOUS
 62
     7
 10
507.727626803
 20
242.0124609998
 30
0.0
 40
2.711877846183108
 50
165.6589414935
 51
187.0498969926
  0
POLYLINE
  5
436
  8
0
  6
CONTINUOUS
 62
     7
 66
     1
 10
0.0
 20
0.0
 30
0.0
  0
VERTEX
  5
9FE
  8
0
  6
CONTINUOUS
 62
     7
 10
508.0314000218
 20
239.3371716534
 30
0.0
  0
VERTEX
  5
9FF
  8
0
  6
CONTINUOUS
 62
     7
 10
508.0662493675
 20
239.3414512669
 30
0.0
  0
VERTEX
  5
A00
  8
0
  6
CONTINUOUS
 62
     7
 10
508.146793124
 20
239.351345638
 30
0.0
  0
SEQEND
  5
A6D
  8
0
  6
CONTINUOUS
 62
     7
  0
POLYLINE
  5
437
  8
0
  6
CONTINUOUS
 62
     7
 66
     1
 10
0.0
 20
0.0
 30
0.0
  0
VERTEX
  5
A01
  8
0
  6
CONTINUOUS
 62
     7
 10
505.3413827984
 20
240.720368961
 30
0.0
  0
VERTEX
  5
A02
  8
0
  6
CONTINUOUS
 62
     7
 10
505.3449307649
 20
240.7137528455
 30
0.0
  0
VERTEX
  5
A03
  8
0
  6
CONTINUOUS
 62
     7
 10
505.3075407712
 20
240.7851949727
 30
0.0
  0
VERTEX
  5
A04
  8
0
  6
CONTINUOUS
 62
     7
 10
505.233377692
 20
240.9448996579
 30
0.0
  0
VERTEX
  5
A05
  8
0
  6
CONTINUOUS
 62
     7
 10
505.1410262554
 20
241.1954179799
 30
0.0
  0
VERTEX
  5
A06
  8
0
  6
CONTINUOUS
 62
     7
 10
505.0622497766
 20
241.5114298856
 30
0.0
  0
VERTEX
  5
A07
  8
0
  6
CONTINUOUS
 62
     7
 10
505.0362517207
 20
241.6796222722
 30
0.0
  0
SEQEND
  5
A6C
  8
0
  6
CONTINUOUS
 62
     7
  0
POLYLINE
  5
438
  8
0
  6
CONTINUOUS
 62
     7
 66
     1
 10
0.0
 20
0.0
 30
0.0
  0
VERTEX
  5
A08
  8
0
  6
CONTINUOUS
 62
     7
 10
515.3676276176
 20
180.5530682599
 30
0.0
  0
VERTEX
  5
A09
  8
0
  6
CONTINUOUS
 62
     7
 10
515.2857889502
 20
180.5430189168
 30
0.0
  0
VERTEX
  5
A0A
  8
0
  6
CONTINUOUS
 62
     7
 10
515.2509396045
 20
180.5387393033
 30
0.0
  0
SEQEND
  5
A6B
  8
0
  6
CONTINUOUS
 62
     7
  0
ARC
  5
439
  8
0
  6
CONTINUOUS
 62
     7
 10
515.6038884979
 20
177.8740641571
 30
0.0
 40
2.71292652072894
 50
165.6631254354
 51
187.0459686315
  0
POLYLINE
  5
43A
  8
0
  6
CONTINUOUS
 62
     7
 66
     1
 10
0.0
 20
0.0
 30
0.0
  0
VERTEX
  5
A0B
  8
0
  6
CONTINUOUS
 62
     7
 10
515.9065966575
 20
175.1988426244
 30
0.0
  0
VERTEX
  5
A0C
  8
0
  6
CONTINUOUS
 62
     7
 10
515.9414460032
 20
175.2031222379
 30
0.0
  0
VERTEX
  5
A0D
  8
0
  6
CONTINUOUS
 62
     7
 10
516.0459806292
 20
175.2159610783
 30
0.0
  0
VERTEX
  5
A0E
  8
0
  6
CONTINUOUS
 62
     7
 10
516.2201603024
 20
175.2373472249
 30
0.0
  0
VERTEX
  5
A0F
  8
0
  6
CONTINUOUS
 62
     7
 10
516.4639194577
 20
175.2672687566
 30
0.0
  0
VERTEX
  5
A10
  8
0
  6
CONTINUOUS
 62
     7
 10
516.7771664529
 20
175.3057375943
 30
0.0
  0
VERTEX
  5
A11
  8
0
  6
CONTINUOUS
 62
     7
 10
517.1597828238
 20
175.3527179753
 30
0.0
  0
VERTEX
  5
A12
  8
0
  6
CONTINUOUS
 62
     7
 10
517.6116247742
 20
175.4081979787
 30
0.0
  0
SEQEND
  5
A6A
  8
0
  6
CONTINUOUS
 62
     7
  0
POLYLINE
  5
43B
  8
0
  6
CONTINUOUS
 62
     7
 66
     1
 10
0.0
 20
0.0
 30
0.0
  0
VERTEX
  5
A13
  8
0
  6
CONTINUOUS
 62
     7
 10
513.2165809243
 20
176.582039932
 30
0.0
  0
VERTEX
  5
A14
  8
0
  6
CONTINUOUS
 62
     7
 10
513.2201274006
 20
176.5754118955
 30
0.0
  0
VERTEX
  5
A15
  8
0
  6
CONTINUOUS
 62
     7
 10
513.182737407
 20
176.6468659436
 30
0.0
  0
VERTEX
  5
A16
  8
0
  6
CONTINUOUS
 62
     7
 10
513.1085758178
 20
176.8065706288
 30
0.0
  0
VERTEX
  5
A17
  8
0
  6
CONTINUOUS
 62
     7
 10
513.0162228911
 20
177.0570889508
 30
0.0
  0
VERTEX
  5
A18
  8
0
  6
CONTINUOUS
 62
     7
 10
512.9374464123
 20
177.3731008565
 30
0.0
  0
VERTEX
  5
A19
  8
0
  6
CONTINUOUS
 62
     7
 10
512.9114498465
 20
177.5412813222
 30
0.0
  0
SEQEND
  5
A69
  8
0
  6
CONTINUOUS
 62
     7
  0
LINE
  5
43C
  8
0
  6
CONTINUOUS
 62
     7
 10
517.6116247742
 20
175.4081979787
 30
0.0
 11
517.6594694226
 21
175.414516071
 31
0.0
  0
LINE
  5
43D
  8
0
  6
CONTINUOUS
 62
     7
 10
506.8407197564
 20
174.7909441983
 30
0.0
 11
498.4804813831
 21
242.8796187436
 31
0.0
  0
POLYLINE
  5
43E
  8
0
  6
CONTINUOUS
 62
     7
 66
     1
 10
0.0
 20
0.0
 30
0.0
  0
VERTEX
  5
A1A
  8
0
  6
CONTINUOUS
 62
     7
 10
498.4804813831
 20
242.8796187436
 30
0.0
  0
VERTEX
  5
A1B
  8
0
  6
CONTINUOUS
 62
     7
 10
498.4995548694
 20
242.8819552457
 30
0.0
  0
VERTEX
  5
A1C
  8
0
  6
CONTINUOUS
 62
     7
 10
498.5560362308
 20
242.8888932263
 30
0.0
  0
VERTEX
  5
A1D
  8
0
  6
CONTINUOUS
 62
     7
 10
498.6477558582
 20
242.9001585042
 30
0.0
  0
VERTEX
  5
A1E
  8
0
  6
CONTINUOUS
 62
     7
 10
498.771191117
 20
242.9153100049
 30
0.0
  0
VERTEX
  5
A1F
  8
0
  6
CONTINUOUS
 62
     7
 10
498.9216004579
 20
242.9337755238
 30
0.0
  0
VERTEX
  5
A20
  8
0
  6
CONTINUOUS
 62
     7
 10
499.0931962698
 20
242.9548517262
 30
0.0
  0
VERTEX
  5
A21
  8
0
  6
CONTINUOUS
 62
     7
 10
499.2793922393
 20
242.977704147
 30
0.0
  0
VERTEX
  5
A22
  8
0
  6
CONTINUOUS
 62
     7
 10
499.4730298488
 20
243.0014864003
 30
0.0
  0
SEQEND
  5
A68
  8
0
  6
CONTINUOUS
 62
     7
  0
POLYLINE
  5
43F
  8
0
  6
CONTINUOUS
 62
     7
 66
     1
 10
0.0
 20
0.0
 30
0.0
  0
VERTEX
  5
A23
  8
0
  6
CONTINUOUS
 62
     7
 10
507.8332652419
 20
174.9128237759
 30
0.0
  0
VERTEX
  5
A24
  8
0
  6
CONTINUOUS
 62
     7
 10
507.6396291225
 20
174.8890415227
 30
0.0
  0
VERTEX
  5
A25
  8
0
  6
CONTINUOUS
 62
     7
 10
507.453434643
 20
174.8661771809
 30
0.0
  0
VERTEX
  5
A26
  8
0
  6
CONTINUOUS
 62
     7
 10
507.281835851
 20
174.8451128995
 30
0.0
  0
VERTEX
  5
A27
  8
0
  6
CONTINUOUS
 62
     7
 10
507.1314294903
 20
174.8266473805
 30
0.0
  0
VERTEX
  5
A28
  8
0
  6
CONTINUOUS
 62
     7
 10
507.0079942315
 20
174.8114839589
 30
0.0
  0
VERTEX
  5
A29
  8
0
  6
CONTINUOUS
 62
     7
 10
506.916273114
 20
174.800230602
 30
0.0
  0
VERTEX
  5
A2A
  8
0
  6
CONTINUOUS
 62
     7
 10
506.8597902625
 20
174.7932926213
 30
0.0
  0
VERTEX
  5
A2B
  8
0
  6
CONTINUOUS
 62
     7
 10
506.8407197564
 20
174.7909441983
 30
0.0
  0
SEQEND
  5
A67
  8
0
  6
CONTINUOUS
 62
     7
  0
LINE
  5
440
  8
0
  6
CONTINUOUS
 62
     7
 10
511.8034501641
 20
175.4002944028
 30
0.0
 11
507.8332652419
 21
174.9128237759
 31
0.0
  0
LINE
  5
441
  8
0
  6
CONTINUOUS
 62
     7
 10
503.4432117908
 20
243.4889570271
 30
0.0
 11
499.4730298488
 21
243.0014864003
 31
0.0
  0
LINE
  5
442
  8
0
  6
CONTINUOUS
 62
     7
 10
504.4357587664
 20
243.6108366048
 30
0.0
 11
512.7959956496
 21
175.5221620595
 31
0.0
  0
POLYLINE
  5
443
  8
0
  6
CONTINUOUS
 62
     7
 66
     1
 10
0.0
 20
0.0
 30
0.0
  0
VERTEX
  5
A2C
  8
0
  6
CONTINUOUS
 62
     7
 10
512.7959956496
 20
175.5221620595
 30
0.0
  0
VERTEX
  5
A2D
  8
0
  6
CONTINUOUS
 62
     7
 10
512.7769251435
 20
175.5198255574
 30
0.0
  0
VERTEX
  5
A2E
  8
0
  6
CONTINUOUS
 62
     7
 10
512.7204437821
 20
175.5128875768
 30
0.0
  0
VERTEX
  5
A2F
  8
0
  6
CONTINUOUS
 62
     7
 10
512.6287226646
 20
175.5016222989
 30
0.0
  0
VERTEX
  5
A30
  8
0
  6
CONTINUOUS
 62
     7
 10
512.5052859156
 20
175.4864707982
 30
0.0
  0
VERTEX
  5
A31
  8
0
  6
CONTINUOUS
 62
     7
 10
512.354879555
 20
175.4680052792
 30
0.0
  0
VERTEX
  5
A32
  8
0
  6
CONTINUOUS
 62
     7
 10
512.1832807629
 20
175.4469290769
 30
0.0
  0
VERTEX
  5
A33
  8
0
  6
CONTINUOUS
 62
     7
 10
511.9970862834
 20
175.424076656
 30
0.0
  0
VERTEX
  5
A34
  8
0
  6
CONTINUOUS
 62
     7
 10
511.8034501641
 20
175.4002944028
 30
0.0
  0
SEQEND
  5
A66
  8
0
  6
CONTINUOUS
 62
     7
  0
POLYLINE
  5
444
  8
0
  6
CONTINUOUS
 62
     7
 66
     1
 10
0.0
 20
0.0
 30
0.0
  0
VERTEX
  5
A35
  8
0
  6
CONTINUOUS
 62
     7
 10
503.4432117908
 20
243.4889570271
 30
0.0
  0
VERTEX
  5
A36
  8
0
  6
CONTINUOUS
 62
     7
 10
503.6368494003
 20
243.5127392804
 30
0.0
  0
VERTEX
  5
A37
  8
0
  6
CONTINUOUS
 62
     7
 10
503.8230453699
 20
243.5356036221
 30
0.0
  0
VERTEX
  5
A38
  8
0
  6
CONTINUOUS
 62
     7
 10
503.9946411817
 20
243.5566679036
 30
0.0
  0
VERTEX
  5
A39
  8
0
  6
CONTINUOUS
 62
     7
 10
504.1450490325
 20
243.5751334226
 30
0.0
  0
VERTEX
  5
A3A
  8
0
  6
CONTINUOUS
 62
     7
 10
504.2684857814
 20
243.5902968442
 30
0.0
  0
VERTEX
  5
A3B
  8
0
  6
CONTINUOUS
 62
     7
 10
504.3602068989
 20
243.6015502011
 30
0.0
  0
VERTEX
  5
A3C
  8
0
  6
CONTINUOUS
 62
     7
 10
504.4166882603
 20
243.6084881818
 30
0.0
  0
VERTEX
  5
A3D
  8
0
  6
CONTINUOUS
 62
     7
 10
504.4357587664
 20
243.6108366048
 30
0.0
  0
SEQEND
  5
A65
  8
0
  6
CONTINUOUS
 62
     7
  0
ARC
  5
445
  8
0
  6
CONTINUOUS
 62
     7
 10
524.4002738206
 20
133.9603413617
 30
0.0
 40
0.4000000000000341
 50
90.0
 51
180.0
  0
LINE
  5
446
  8
0
  6
CONTINUOUS
 62
     7
 10
524.0002737461
 20
124.1603389775
 30
0.0
 11
523.4002736478
 21
124.1603389775
 31
0.0
  0
LINE
  5
447
  8
0
  6
CONTINUOUS
 62
     7
 10
523.4002736478
 20
124.1603389775
 30
0.0
 11
523.4002736478
 21
125.1603439843
 31
0.0
  0
LINE
  5
448
  8
0
  6
CONTINUOUS
 62
     7
 10
524.0002737461
 20
125.1603439843
 30
0.0
 11
524.0002737461
 21
124.1603389775
 31
0.0
  0
LINE
  5
449
  8
0
  6
CONTINUOUS
 62
     7
 10
535.0002736865
 20
124.1603389775
 30
0.0
 11
534.4002739607
 21
124.1603389775
 31
0.0
  0
LINE
  5
44A
  8
0
  6
CONTINUOUS
 62
     7
 10
534.4002739607
 20
124.1603389775
 30
0.0
 11
534.4002739607
 21
125.1603439843
 31
0.0
  0
LINE
  5
44B
  8
0
  6
CONTINUOUS
 62
     7
 10
535.0002736865
 20
125.1603439843
 30
0.0
 11
535.0002736865
 21
124.1603389775
 31
0.0
  0
LINE
  5
44C
  8
0
  6
CONTINUOUS
 62
     7
 10
508.9835380285
 20
163.3785739934
 30
0.0
 11
516.3668369024
 21
145.9846094643
 31
0.0
  0
ARC
  5
44D
  8
0
  6
CONTINUOUS
 62
     7
 10
526.4731308038
 20
170.8024615145
 30
0.0
 40
19.00000000000003
 50
187.0
 51
203.0
  0
LINE
  5
44E
  8
0
  6
CONTINUOUS
 62
     7
 10
513.5700305073
 20
169.2181602513
 30
0.0
 11
512.7959956496
 21
175.5221620595
 31
0.0
  0
POLYLINE
  5
44F
  8
0
  6
CONTINUOUS
 62
     7
 66
     1
 10
0.0
 20
0.0
 30
0.0
  0
VERTEX
  5
A3E
  8
0
  6
CONTINUOUS
 62
     7
 10
512.7959956496
 20
175.5221620595
 30
0.0
  0
VERTEX
  5
A3F
  8
0
  6
CONTINUOUS
 62
     7
 10
512.7769251435
 20
175.5198255574
 30
0.0
  0
VERTEX
  5
A40
  8
0
  6
CONTINUOUS
 62
     7
 10
512.7204437821
 20
175.5128875768
 30
0.0
  0
VERTEX
  5
A41
  8
0
  6
CONTINUOUS
 62
     7
 10
512.6287226646
 20
175.5016222989
 30
0.0
  0
VERTEX
  5
A42
  8
0
  6
CONTINUOUS
 62
     7
 10
512.5052859156
 20
175.4864707982
 30
0.0
  0
VERTEX
  5
A43
  8
0
  6
CONTINUOUS
 62
     7
 10
512.354879555
 20
175.4680052792
 30
0.0
  0
VERTEX
  5
A44
  8
0
  6
CONTINUOUS
 62
     7
 10
512.1832807629
 20
175.4469290769
 30
0.0
  0
VERTEX
  5
A45
  8
0
  6
CONTINUOUS
 62
     7
 10
511.9970862834
 20
175.424076656
 30
0.0
  0
VERTEX
  5
A46
  8
0
  6
CONTINUOUS
 62
     7
 10
511.8034501641
 20
175.4002944028
 30
0.0
  0
SEQEND
  5
A64
  8
0
  6
CONTINUOUS
 62
     7
  0
ARC
  5
450
  8
0
  6
CONTINUOUS
 62
     7
 10
526.4731308038
 20
170.8024615145
 30
0.0
 40
13.00000000000008
 50
187.0
 51
203.0
  0
LINE
  5
451
  8
0
  6
CONTINUOUS
 62
     7
 10
522.4002738564
 20
124.1603389775
 30
0.0
 11
518.4002739458
 21
124.1603389775
 31
0.0
  0
LINE
  5
452
  8
0
  6
CONTINUOUS
 62
     7
 10
507.6147546141
 20
168.4869423901
 30
0.0
 11
506.8407197564
 21
174.7909441983
 31
0.0
  0
POLYLINE
  5
453
  8
0
  6
CONTINUOUS
 62
     7
 66
     1
 10
0.0
 20
0.0
 30
0.0
  0
VERTEX
  5
A47
  8
0
  6
CONTINUOUS
 62
     7
 10
507.8332652419
 20
174.9128237759
 30
0.0
  0
VERTEX
  5
A48
  8
0
  6
CONTINUOUS
 62
     7
 10
507.6396291225
 20
174.8890415227
 30
0.0
  0
VERTEX
  5
A49
  8
0
  6
CONTINUOUS
 62
     7
 10
507.453434643
 20
174.8661771809
 30
0.0
  0
VERTEX
  5
A4A
  8
0
  6
CONTINUOUS
 62
     7
 10
507.281835851
 20
174.8451128995
 30
0.0
  0
VERTEX
  5
A4B
  8
0
  6
CONTINUOUS
 62
     7
 10
507.1314294903
 20
174.8266473805
 30
0.0
  0
VERTEX
  5
A4C
  8
0
  6
CONTINUOUS
 62
     7
 10
507.0079942315
 20
174.8114839589
 30
0.0
  0
VERTEX
  5
A4D
  8
0
  6
CONTINUOUS
 62
     7
 10
506.916273114
 20
174.800230602
 30
0.0
  0
VERTEX
  5
A4E
  8
0
  6
CONTINUOUS
 62
     7
 10
506.8597902625
 20
174.7932926213
 30
0.0
  0
VERTEX
  5
A4F
  8
0
  6
CONTINUOUS
 62
     7
 10
506.8407197564
 20
174.7909441983
 30
0.0
  0
SEQEND
  5
A63
  8
0
  6
CONTINUOUS
 62
     7
  0
LINE
  5
454
  8
0
  6
CONTINUOUS
 62
     7
 10
517.4002741544
 20
140.9051016366
 30
0.0
 11
517.4002741544
 21
124.1603389775
 31
0.0
  0
LINE
  5
455
  8
0
  6
CONTINUOUS
 62
     7
 10
518.4002739458
 20
124.1603389775
 30
0.0
 11
517.4002741544
 21
124.1603389775
 31
0.0
  0
LINE
  5
456
  8
0
  6
CONTINUOUS
 62
     7
 10
514.5065669982
 20
165.7229558026
 30
0.0
 11
521.8898658721
 21
148.328997234
 31
0.0
  0
ARC
  5
457
  8
0
  6
CONTINUOUS
 62
     7
 10
504.4002738206
 20
140.9051045709
 30
0.0
 40
12.99999999999997
 50
0.0
 51
23.0
  0
LINE
  5
458
  8
0
  6
CONTINUOUS
 62
     7
 10
523.4002736478
 20
124.1603389775
 30
0.0
 11
522.4002738564
 21
124.1603389775
 31
0.0
  0
ARC
  5
459
  8
0
  6
CONTINUOUS
 62
     7
 10
504.4002738206
 20
140.9051045709
 30
0.0
 40
18.99999999999993
 50
4.1945718162
 51
23.0
  0
LINE
  5
45A
  8
0
  6
CONTINUOUS
 62
     7
 10
524.0002737461
 20
125.3603414094
 30
0.0
 11
524.0002737461
 21
125.1603439843
 31
0.0
  0
LINE
  5
45B
  8
0
  6
CONTINUOUS
 62
     7
 10
524.0002737461
 20
125.1603439843
 30
0.0
 11
523.2002739875
 21
125.1603439843
 31
0.0
  0
LINE
  5
45C
  8
0
  6
CONTINUOUS
 62
     7
 10
523.2002739875
 20
125.1603439843
 30
0.0
 11
523.2002739875
 21
127.160342077
 31
0.0
  0
LINE
  5
45D
  8
0
  6
CONTINUOUS
 62
     7
 10
535.0002736865
 20
127.160342077
 30
0.0
 11
535.0002736865
 21
125.1603439843
 31
0.0
  0
LINE
  5
45E
  8
0
  6
CONTINUOUS
 62
     7
 10
535.0002736865
 20
125.1603439843
 30
0.0
 11
534.2002739279
 21
125.1603439843
 31
0.0
  0
LINE
  5
45F
  8
0
  6
CONTINUOUS
 62
     7
 10
534.2002739279
 20
125.1603439843
 30
0.0
 11
534.2002739279
 21
127.160342077
 31
0.0
  0
LINE
  5
460
  8
0
  6
CONTINUOUS
 62
     7
 10
534.0002738951
 20
134.3603387868
 30
0.0
 11
533.0002737312
 21
134.3603387868
 31
0.0
  0
LINE
  5
461
  8
0
  6
CONTINUOUS
 62
     7
 10
525.00027391
 20
134.3603387868
 30
0.0
 11
524.2002737789
 21
134.3603387868
 31
0.0
  0
ARC
  5
462
  8
0
  6
CONTINUOUS
 62
     7
 10
524.2002738206
 20
134.1603413617
 30
0.0
 40
0.1999999999999886
 50
90.0
 51
180.0
  0
LINE
  5
463
  8
0
  6
CONTINUOUS
 62
     7
 10
524.0002737461
 20
134.1603413617
 30
0.0
 11
524.0002737461
 21
133.3603397405
 31
0.0
  0
LINE
  5
464
  8
0
  6
CONTINUOUS
 62
     7
 10
523.2002739875
 20
134.1603413617
 30
0.0
 11
523.2002739875
 21
127.160342077
 31
0.0
  0
LINE
  5
465
  8
0
  6
CONTINUOUS
 62
     7
 10
534.0002738951
 20
135.160340408
 30
0.0
 11
524.2002737789
 21
135.160340408
 31
0.0
  0
LINE
  5
466
  8
0
  6
CONTINUOUS
 62
     7
 10
535.0002736865
 20
127.160342077
 30
0.0
 11
535.0002736865
 21
134.1603413617
 31
0.0
  0
ARC
  5
467
  8
0
  6
CONTINUOUS
 62
     7
 10
524.2002738206
 20
134.1603413617
 30
0.0
 40
1.0
 50
90.0
 51
180.0
  0
LINE
  5
468
  8
0
  6
CONTINUOUS
 62
     7
 10
534.2002739279
 20
127.160342077
 30
0.0
 11
534.2002739279
 21
134.1603413617
 31
0.0
  0
ARC
  5
469
  8
0
  6
CONTINUOUS
 62
     7
 10
534.0002738206
 20
134.1603413617
 30
0.0
 40
1.0
 50
0.0
 51
90.0
  0
ARC
  5
46A
  8
0
  6
CONTINUOUS
 62
     7
 10
534.0002738206
 20
134.1603413617
 30
0.0
 40
0.1999999999999886
 50
0.0
 51
90.0
  0
POLYLINE
  5
46B
  8
0
  6
CONTINUOUS
 62
     7
 66
     1
 10
0.0
 20
0.0
 30
0.0
  0
VERTEX
  5
A50
  8
0
  6
CONTINUOUS
 62
     7
 10
552.8337334363
 20
147.7629140412
 30
0.0
  0
VERTEX
  5
A51
  8
0
  6
CONTINUOUS
 62
     7
 10
550.8023415773
 20
147.8196815049
 30
0.0
  0
VERTEX
  5
A52
  8
0
  6
CONTINUOUS
 62
     7
 10
549.7114856808
 20
147.9478136098
 30
0.0
  0
VERTEX
  5
A53
  8
0
  6
CONTINUOUS
 62
     7
 10
548.6515169113
 20
148.2210591828
 30
0.0
  0
VERTEX
  5
A54
  8
0
  6
CONTINUOUS
 62
     7
 10
547.960246083
 20
148.5447302853
 30
0.0
  0
VERTEX
  5
A55
  8
0
  6
CONTINUOUS
 62
     7
 10
547.6445396512
 20
148.7661615407
 30
0.0
  0
VERTEX
  5
A56
  8
0
  6
CONTINUOUS
 62
     7
 10
547.3677014081
 20
149.033571819
 30
0.0
  0
VERTEX
  5
A57
  8
0
  6
CONTINUOUS
 62
     7
 10
547.078696367
 20
149.4959846532
 30
0.0
  0
VERTEX
  5
A58
  8
0
  6
CONTINUOUS
 62
     7
 10
546.9670374959
 20
150.0330105817
 30
0.0
  0
VERTEX
  5
A59
  8
0
  6
CONTINUOUS
 62
     7
 10
547.0511798828
 20
150.5524352586
 30
0.0
  0
SEQEND
  5
A62
  8
0
  6
CONTINUOUS
 62
     7
  0
POLYLINE
  5
46C
  8
0
  6
CONTINUOUS
 62
     7
 66
     1
 10
0.0
 20
0.0
 30
0.0
  0
VERTEX
  5
A5A
  8
0
  6
CONTINUOUS
 62
     7
 10
547.0511798828
 20
150.5524352586
 30
0.0
  0
VERTEX
  5
A5B
  8
0
  6
CONTINUOUS
 62
     7
 10
547.2211469977
 20
150.9169057404
 30
0.0
  0
VERTEX
  5
A5C
  8
0
  6
CONTINUOUS
 62
     7
 10
547.4686716764
 20
151.2551442181
 30
0.0
  0
VERTEX
  5
A5D
  8
0
  6
CONTINUOUS
 62
     7
 10
547.8606824844
 20
151.6281679665
 30
0.0
  0
VERTEX
  5
A5E
  8
0
  6
CONTINUOUS
 62
     7
 10
548.3182986348
 20
151.9439533746
 30
0.0
  0
VERTEX
  5
A5F
  8
0
  6
CONTINUOUS
 62
     7
 10
549.0922932594
 20
152.3225680386
 30
0.0
  0
VERTEX
  5
A60
  8
0
  6
CONTINUOUS
 62
     7
 10
549.9264647334
 20
152.6003435647
 30
0.0
  0
SEQEND
  5
A61
  8
0
  6
CONTINUOUS
 62
     7
  0
LINE
  5
46D
  8
0
  6
CONTINUOUS
 62
     7
 10
555.1002745597
 20
147.7713182961
 30
0.0
 11
552.8337334363
 21
147.7629140412
 31
0.0
  0
LINE
  5
46E
  8
0
  6
CONTINUOUS
 62
     7
 10
566.10027301
 20
147.7713182961
 30
0.0
 11
555.1002745597
 21
147.7713182961
 31
0.0
  0
ARC
  5
46F
  8
0
  6
CONTINUOUS
 62
     7
 10
526.7062555784
 20
260.6498509625
 30
0.0
 40
120.0000000000001
 50
280.9468409701
 51
289.1646231125
  0
LINE
  5
470
  8
0
  6
CONTINUOUS
 62
     7
 10
549.4940345256
 20
142.8333953416
 30
0.0
 11
545.0810884206
 21
141.9798568284
 31
0.0
  0
ARC
  5
471
  8
0
  6
CONTINUOUS
 62
     7
 10
546.6002738206
 20
134.1254238133
 30
0.0
 40
8.0
 50
100.9468409701
 51
180.0
  0
LINE
  5
472
  8
0
  6
CONTINUOUS
 62
     7
 10
538.6002739041
 20
134.1254249608
 30
0.0
 11
538.6002739041
 21
133.3603397405
 31
0.0
  0
ARC
  5
473
  8
0
  6
CONTINUOUS
 62
     7
 10
536.6002738206
 20
133.3603413617
 30
0.0
 40
2.0
 50
270.0
 51
0.0
  0
LINE
  5
474
  8
0
  6
CONTINUOUS
 62
     7
 10
536.6002735763
 20
131.3603416478
 30
0.0
 11
535.0002736865
 21
131.3603416478
 31
0.0
  0
LINE
  5
475
  8
0
  6
CONTINUOUS
 62
     7
 10
520.4002735286
 20
133.3603397405
 30
0.0
 11
520.4002735286
 21
135.9213665521
 31
0.0
  0
ARC
  5
476
  8
0
  6
CONTINUOUS
 62
     7
 10
528.4002738206
 20
135.9213658121
 30
0.0
 40
8.0
 50
140.3596923241
 51
180.0
  0
LINE
  5
477
  8
0
  6
CONTINUOUS
 62
     7
 10
546.0881863801
 20
152.6003435647
 30
0.0
 11
549.9264647334
 21
152.6003435647
 31
0.0
  0
LINE
  5
478
  8
0
  6
CONTINUOUS
 62
     7
 10
566.10027301
 20
147.7713182961
 30
0.0
 11
566.10027301
 21
147.3003402745
 31
0.0
  0
ARC
  5
479
  8
0
  6
CONTINUOUS
 62
     7
 10
522.4002738206
 20
133.3603413617
 30
0.0
 40
2.0
 50
180.0
 51
270.0
  0
LINE
  5
47A
  8
0
  6
CONTINUOUS
 62
     7
 10
523.2002739875
 20
131.3603416478
 30
0.0
 11
522.4002738564
 21
131.3603416478
 31
0.0
  0
ARC
  5
47B
  8
0
  6
CONTINUOUS
 62
     7
 10
546.8818247801
 20
120.6101844686
 30
0.0
 40
31.99999999999999
 50
91.4211498515
 51
140.3596923241
  0
LINE
  5
47C
  8
0
  6
CONTINUOUS
 62
     7
 10
610.1002727716
 20
146.6483548676
 30
0.0
 11
610.1002727716
 21
148.3661845719
 31
0.0
  0
LINE
  5
47D
  8
0
  6
CONTINUOUS
 62
     7
 10
604.7202740877
 20
146.7650011575
 30
0.0
 11
604.7202740877
 21
146.6483548676
 31
0.0
  0
LINE
  5
47E
  8
0
  6
CONTINUOUS
 62
     7
 10
610.1002727716
 20
148.3661845719
 30
0.0
 11
610.0998316972
 21
148.4144404923
 31
0.0
  0
ARC
  5
47F
  8
0
  6
CONTINUOUS
 62
     7
 10
533.0002738206
 20
125.3603413617
 30
0.0
 40
1.0
 50
270.0
 51
0.0
  0
LINE
  5
480
  8
0
  6
CONTINUOUS
 62
     7
 10
534.0002738951
 20
133.3603397405
 30
0.0
 11
534.0002738951
 21
125.3603414094
 31
0.0
  0
LINE
  5
481
  8
0
  6
CONTINUOUS
 62
     7
 10
525.00027391
 20
134.3603387868
 30
0.0
 11
533.0002737312
 21
134.3603387868
 31
0.0
  0
ARC
  5
482
  8
0
  6
CONTINUOUS
 62
     7
 10
525.0002738206
 20
125.3603413617
 30
0.0
 40
1.0
 50
180.0
 51
270.0
  0
ARC
  5
483
  8
0
  6
CONTINUOUS
 62
     7
 10
525.0002738206
 20
133.3603413617
 30
0.0
 40
1.000000000000028
 50
90.0
 51
180.0
  0
LINE
  5
484
  8
0
  6
CONTINUOUS
 62
     7
 10
533.0002737312
 20
124.3603423631
 30
0.0
 11
525.00027391
 21
124.3603423631
 31
0.0
  0
ARC
  5
485
  8
0
  6
CONTINUOUS
 62
     7
 10
533.0002738206
 20
133.3603413617
 30
0.0
 40
1.000000000000028
 50
0.0
 51
90.0
  0
LINE
  5
486
  8
0
  6
CONTINUOUS
 62
     7
 10
524.0002737461
 20
125.3603414094
 30
0.0
 11
524.0002737461
 21
133.3603397405
 31
0.0
  0
LINE
  5
487
  8
0
  6
CONTINUOUS
 62
     7
 10
521.0002739995
 20
59.1603413617
 30
0.0
 11
517.0002740889
 21
59.1603413617
 31
0.0
  0
LINE
  5
488
  8
0
  6
CONTINUOUS
 62
     7
 10
517.0002740889
 20
59.1603413617
 30
0.0
 11
517.0002740889
 21
60.3603413721
 31
0.0
  0
LINE
  5
489
  8
0
  6
CONTINUOUS
 62
     7
 10
517.0002740889
 20
60.3603413721
 30
0.0
 11
521.0002739995
 21
60.3603413721
 31
0.0
  0
LINE
  5
48A
  8
0
  6
CONTINUOUS
 62
     7
 10
521.0002739995
 20
59.1603413617
 30
0.0
 11
523.0002739547
 21
59.1603413617
 31
0.0
  0
LINE
  5
48B
  8
0
  6
CONTINUOUS
 62
     7
 10
521.0002739995
 20
60.3603413721
 30
0.0
 11
523.0002739547
 21
60.3603413721
 31
0.0
  0
LINE
  5
48C
  8
0
  6
CONTINUOUS
 62
     7
 10
523.0002739547
 20
59.1603413617
 30
0.0
 11
550.3686954348
 21
59.1603413617
 31
0.0
  0
LINE
  5
48D
  8
0
  6
CONTINUOUS
 62
     7
 10
550.3686954348
 20
60.3603413721
 30
0.0
 11
523.0002739547
 21
60.3603413721
 31
0.0
  0
LINE
  5
48E
  8
0
  6
CONTINUOUS
 62
     7
 10
553.0002732842
 20
60.3603413721
 30
0.0
 11
553.0002732842
 21
59.1603413617
 31
0.0
  0
LINE
  5
48F
  8
0
  6
CONTINUOUS
 62
     7
 10
553.0002732842
 20
59.1603413617
 30
0.0
 11
550.3686954348
 21
59.1603413617
 31
0.0
  0
LINE
  5
490
  8
0
  6
CONTINUOUS
 62
     7
 10
550.3686954348
 20
60.3603413721
 30
0.0
 11
553.0002732842
 21
60.3603413721
 31
0.0
  0
LINE
  5
491
  8
0
  6
CONTINUOUS
 62
     7
 10
524.0002737461
 20
60.3603413721
 30
0.0
 11
524.0002737461
 21
124.1603389775
 31
0.0
  0
LINE
  5
492
  8
0
  6
CONTINUOUS
 62
     7
 10
534.0002738951
 20
125.3603414094
 30
0.0
 11
534.0002738951
 21
60.3603413721
 31
0.0
  0
ENDSEC
  0
EOF
