  0
SECTION
  2
HEADER
  9
$ACADVER
  1
AC1009
  9
$DWGCODEPAGE
  3
ansi_1252
  9
$INSBASE
 10
0.0
 20
0.0
 30
0.0
  9
$EXTMIN
 10
0.0
 20
0.0
 30
0.0
  9
$EXTMAX
 10
420.0
 20
297.0
 30
0.0
  9
$LIMMIN
 10
0.0
 20
0.0
  9
$LIMMAX
 10
420.0
 20
297.0
  9
$ORTHOMODE
 70
     0
  9
$REGENMODE
 70
     1
  9
$FILLMODE
 70
     1
  9
$QTEXTMODE
 70
     0
  9
$MIRRTEXT
 70
     1
  9
$DRAGMODE
 70
     2
  9
$LTSCALE
 40
1.0
  9
$OSMODE
 70
    37
  9
$ATTMODE
 70
     1
  9
$TEXTSIZE
 40
3.5
  9
$TRACEWID
 40
1.0
  9
$TEXTSTYLE
  7
STANDARD
  9
$CLAYER
  8
0
  9
$CELTYPE
  6
BYLAYER
  9
$CECOLOR
 62
   256
  9
$DIMSCALE
 40
1.0
  9
$DIMASZ
 40
4.0
  9
$DIMEXO
 40
0.0
  9
$DIMDLI
 40
3.75
  9
$DIMRND
 40
0.0
  9
$DIMDLE
 40
0.0
  9
$DIMEXE
 40
2.0
  9
$DIMTP
 40
0.0
  9
$DIMTM
 40
0.0
  9
$DIMTXT
 40
3.5
  9
$DIMCEN
 40
2.5
  9
$DIMTSZ
 40
0.0
  9
$DIMTOL
 70
     0
  9
$DIMLIM
 70
     0
  9
$DIMTIH
 70
     1
  9
$DIMTOH
 70
     1
  9
$DIMSE1
 70
     0
  9
$DIMSE2
 70
     0
  9
$DIMTAD
 70
     1
  9
$DIMZIN
 70
     0
  9
$DIMBLK
  1

  9
$DIMASO
 70
     1
  9
$DIMSHO
 70
     1
  9
$DIMPOST
  1

  9
$DIMAPOST
  1

  9
$DIMALT
 70
     0
  9
$DIMALTD
 70
     3
  9
$DIMALTF
 40
0.0393700787
  9
$DIMLFAC
 40
5.0
  9
$DIMTOFL
 70
     1
  9
$DIMTVP
 40
0.0
  9
$DIMTIX
 70
     0
  9
$DIMSOXD
 70
     0
  9
$DIMSAH
 70
     0
  9
$DIMBLK1
  1

  9
$DIMBLK2
  1

  9
$DIMSTYLE
  2
ISO-25
  9
$DIMCLRD
 70
     0
  9
$DIMCLRE
 70
     0
  9
$DIMCLRT
 70
     0
  9
$DIMTFAC
 40
1.0
  9
$DIMGAP
 40
1.524
  9
$LUNITS
 70
     2
  9
$LUPREC
 70
     2
  9
$SKETCHINC
 40
1.0
  9
$FILLETRAD
 40
10.0
  9
$AUNITS
 70
     0
  9
$AUPREC
 70
     2
  9
$MENU
  1
.
  9
$ELEVATION
 40
0.0
  9
$PELEVATION
 40
0.0
  9
$THICKNESS
 40
0.0
  9
$LIMCHECK
 70
     0
  9
$CHAMFERA
 40
10.0
  9
$CHAMFERB
 40
10.0
  9
$SKPOLY
 70
     0
  9
$TDCREATE
 40
2457802.526865336
  9
$TDUPDATE
 40
2457802.526865533
  9
$TDINDWG
 40
0.0000000116
  9
$TDUSRTIMER
 40
0.0000000116
  9
$USRTIMER
 70
     1
  9
$ANGBASE
 50
0.0
  9
$ANGDIR
 70
     0
  9
$PDMODE
 70
     0
  9
$PDSIZE
 40
-1.0
  9
$PLINEWID
 40
0.0
  9
$COORDS
 70
     1
  9
$SPLFRAME
 70
     0
  9
$SPLINETYPE
 70
     6
  9
$SPLINESEGS
 70
     8
  9
$ATTDIA
 70
     0
  9
$ATTREQ
 70
     1
  9
$HANDLING
 70
     1
  9
$HANDSEED
  5
493
  9
$SURFTAB1
 70
     6
  9
$SURFTAB2
 70
     6
  9
$SURFTYPE
 70
     6
  9
$SURFU
 70
     6
  9
$SURFV
 70
     6
  9
$UCSNAME
  2

  9
$UCSORG
 10
0.0
 20
0.0
 30
0.0
  9
$UCSXDIR
 10
1.0
 20
0.0
 30
0.0
  9
$UCSYDIR
 10
0.0
 20
1.0
 30
0.0
  9
$PUCSNAME
  2

  9
$PUCSORG
 10
0.0
 20
0.0
 30
0.0
  9
$PUCSXDIR
 10
1.0
 20
0.0
 30
0.0
  9
$PUCSYDIR
 10
0.0
 20
1.0
 30
0.0
  9
$USERI1
 70
     0
  9
$USERI2
 70
     0
  9
$USERI3
 70
     0
  9
$USERI4
 70
     0
  9
$USERI5
 70
     0
  9
$USERR1
 40
0.0
  9
$USERR2
 40
0.0
  9
$USERR3
 40
0.0
  9
$USERR4
 40
0.0
  9
$USERR5
 40
0.0
  9
$WORLDVIEW
 70
     1
  9
$SHADEDGE
 70
     3
  9
$SHADEDIF
 70
    70
  9
$TILEMODE
 70
     1
  9
$MAXACTVP
 70
    64
  9
$PLIMCHECK
 70
     0
  9
$PEXTMIN
 10
1.0000000000E+20
 20
1.0000000000E+20
 30
1.0000000000E+20
  9
$PEXTMAX
 10
-1.0000000000E+20
 20
-1.0000000000E+20
 30
-1.0000000000E+20
  9
$PLIMMIN
 10
0.0
 20
0.0
  9
$PLIMMAX
 10
420.0
 20
297.0
  9
$UNITMODE
 70
     0
  9
$VISRETAIN
 70
     1
  9
$PLINEGEN
 70
     0
  9
$PSLTSCALE
 70
     1
  0
ENDSEC
  0
SECTION
  2
TABLES
  0
TABLE
  2
VPORT
 70
     1
  0
VPORT
  2
*ACTIVE
 70
     0
 10
0.0
 20
0.0
 11
1.0
 21
1.0
 12
210.0
 22
148.5
 13
0.0
 23
0.0
 14
10.0
 24
10.0
 15
10.0
 25
10.0
 16
0.0
 26
0.0
 36
1.0
 17
0.0
 27
0.0
 37
0.0
 40
297.0
 41
1.4141414141
 42
50.0
 43
0.0
 44
0.0
 50
0.0
 51
0.0
 71
     0
 72
  2000
 73
     1
 74
     3
 75
     0
 76
     0
 77
     0
 78
     0
  0
ENDTAB
  0
TABLE
  2
LTYPE
 70
     6
  0
LTYPE
  2
CONTINUOUS
 70
     0
  3
Solid line
 72
    65
 73
     0
 40
0.0
  0
LTYPE
  2
HIDDEN
 70
     0
  3
Hidden __ __ __ __ __ __ __ __ __ __ __ __ __ __
 72
    65
 73
     2
 40
1.905
 49
1.27
 49
-0.635
  0
LTYPE
  2
PHANTOM
 70
     0
  3
Phantom ______  __  __  ______  __  __  ______
 72
    65
 73
     6
 40
12.7
 49
6.35
 49
-1.27
 49
1.27
 49
-1.27
 49
1.27
 49
-1.27
  0
LTYPE
  2
CENTER
 70
     0
  3
Center ____ _ ____ _ ____ _ ____ _ ____ _ ____
 72
    65
 73
     4
 40
10.16
 49
6.35
 49
-1.27
 49
1.27
 49
-1.27
  0
LTYPE
  2
CENTERX2
 70
     0
  3
Center (2x) ________  __  ________  __  _____
 72
    65
 73
     4
 40
20.32
 49
12.7
 49
-2.54
 49
2.54
 49
-2.54
  0
LTYPE
  2
DOT2
 70
     0
  3
Dot (.5x) ........................................
 72
    65
 73
     2
 40
0.635
 49
0.0
 49
-0.635
  0
ENDTAB
  0
TABLE
  2
LAYER
 70
     2
  0
LAYER
  2
0
 70
     0
 62
     7
  6
CONTINUOUS
  0
LAYER
  2
FORMAT
 70
     0
 62
     7
  6
CONTINUOUS
  0
ENDTAB
  0
TABLE
  2
STYLE
 70
     1
  0
STYLE
  2
STANDARD
 70
     0
 40
0.0
 41
1.0
 50
0.0
 71
     0
 42
3.5
  3
txt
  4

  0
ENDTAB
  0
TABLE
  2
VIEW
 70
     0
  0
ENDTAB
  0
TABLE
  2
UCS
 70
     0
  0
ENDTAB
  0
TABLE
  2
APPID
 70
     1
  0
APPID
  2
ACAD
 70
     0
  0
ENDTAB
  0
TABLE
  2
DIMSTYLE
 70
     1
  0
DIMSTYLE
  2
ISO-25
 70
     0
  3

  4

  5

  6

  7

 40
1.0
 41
2.5
 42
0.625
 43
3.75
 44
1.25
 45
0.0
 46
0.0
 47
0.0
 48
0.0
140
2.5
141
2.5
142
0.0
143
0.0393700787
144
1.0
145
0.0
146
1.0
147
0.625
 71
     0
 72
     0
 73
     0
 74
     0
 75
     0
 76
     0
 77
     1
 78
     8
170
     0
171
     3
172
     1
173
     0
174
     0
175
     0
176
     0
177
     0
178
     0
  0
ENDTAB
  0
ENDSEC
  0
SECTION
  2
BLOCKS
  0
BLOCK
  8
0
  2
$MODEL_SPACE
 70
     0
 10
0.0
 20
0.0
 30
0.0
  3
$MODEL_SPACE
  1

  0
ENDBLK
  5
21
  8
0
  0
BLOCK
 67
     1
  8
0
  2
$PAPER_SPACE
 70
     0
 10
0.0
 20
0.0
 30
0.0
  3
$PAPER_SPACE
  1

  0
ENDBLK
  5
1D
 67
     1
  8
0
  0
ENDSEC
  0
SECTION
  2
ENTITIES
  0
LINE
  5
45
  8
0
  6
CONTINUOUS
 62
     7
 10
172.3140647464
 20
180.5370902524
 30
0.0
 11
172.3140647464
 21
165.5370926366
 31
0.0
  0
LINE
  5
46
  8
0
  6
CONTINUOUS
 62
     7
 10
177.7140607886
 20
165.5370926366
 30
0.0
 11
177.7140607886
 21
180.5370902524
 31
0.0
  0
LINE
  5
47
  8
0
  6
CONTINUOUS
 62
     7
 10
177.7140607886
 20
148.9370917783
 30
0.0
 11
177.7140607886
 21
165.5370926366
 31
0.0
  0
LINE
  5
48
  8
0
  6
CONTINUOUS
 62
     7
 10
172.3140647464
 20
165.5370926366
 30
0.0
 11
172.3140647464
 21
148.9370917783
 31
0.0
  0
LINE
  5
49
  8
0
  6
CONTINUOUS
 62
     7
 10
172.3140647464
 20
148.9370917783
 30
0.0
 11
172.3140647464
 21
133.9370941625
 31
0.0
  0
LINE
  5
4A
  8
0
  6
CONTINUOUS
 62
     7
 10
177.7140607886
 20
133.9370941625
 30
0.0
 11
177.7140607886
 21
148.9370917783
 31
0.0
  0
LINE
  5
4B
  8
0
  6
CONTINUOUS
 62
     7
 10
52.3140659385
 20
180.5370902524
 30
0.0
 11
52.3140659385
 21
165.5370926366
 31
0.0
  0
LINE
  5
4C
  8
0
  6
CONTINUOUS
 62
     7
 10
57.7140619807
 20
165.5370926366
 30
0.0
 11
57.7140619807
 21
180.5370902524
 31
0.0
  0
LINE
  5
4D
  8
0
  6
CONTINUOUS
 62
     7
 10
57.7140619807
 20
148.9370917783
 30
0.0
 11
57.7140619807
 21
165.5370926366
 31
0.0
  0
LINE
  5
4E
  8
0
  6
CONTINUOUS
 62
     7
 10
52.3140659385
 20
165.5370926366
 30
0.0
 11
52.3140659385
 21
148.9370917783
 31
0.0
  0
LINE
  5
4F
  8
0
  6
CONTINUOUS
 62
     7
 10
52.3140659385
 20
148.9370917783
 30
0.0
 11
52.3140659385
 21
133.9370941625
 31
0.0
  0
LINE
  5
50
  8
0
  6
CONTINUOUS
 62
     7
 10
57.7140619807
 20
133.9370941625
 30
0.0
 11
57.7140619807
 21
148.9370917783
 31
0.0
  0
ARC
  5
51
  8
0
  6
CONTINUOUS
 62
     7
 10
139.9648963027
 20
195.8710543375
 30
0.0
 40
15.10054150829807
 50
271.1941136686
 51
0.2074254998
  0
ARC
  5
52
  8
0
  6
CONTINUOUS
 62
     7
 10
90.0611910726
 20
195.8672282236
 30
0.0
 40
15.09768419967056
 50
179.7788293481
 51
268.8138990734
  0
LINE
  5
53
  8
0
  6
CONTINUOUS
 62
     7
 10
74.9553074889
 20
235.6278156743
 30
0.0
 11
74.9553074889
 21
195.9259724126
 31
0.0
  0
LINE
  5
54
  8
0
  6
CONTINUOUS
 62
     7
 10
155.0728192382
 20
195.9259724126
 30
0.0
 11
155.0728192382
 21
235.6278156743
 31
0.0
  0
POLYLINE
  5
55
  8
0
  6
CONTINUOUS
 62
     7
 66
     1
 10
0.0
 20
0.0
 30
0.0
  0
VERTEX
  5
232
  8
0
  6
CONTINUOUS
 62
     7
 10
89.7485216908
 20
180.7652687535
 30
0.0
  0
VERTEX
  5
233
  8
0
  6
CONTINUOUS
 62
     7
 10
91.5403282099
 20
180.7364558683
 30
0.0
  0
VERTEX
  5
234
  8
0
  6
CONTINUOUS
 62
     7
 10
94.9509015136
 20
180.6875681386
 30
0.0
  0
VERTEX
  5
235
  8
0
  6
CONTINUOUS
 62
     7
 10
98.3682637863
 20
180.6463336454
 30
0.0
  0
VERTEX
  5
236
  8
0
  6
CONTINUOUS
 62
     7
 10
101.7912288957
 20
180.6127881513
 30
0.0
  0
VERTEX
  5
237
  8
0
  6
CONTINUOUS
 62
     7
 10
105.2186434917
 20
180.5869435773
 30
0.0
  0
VERTEX
  5
238
  8
0
  6
CONTINUOUS
 62
     7
 10
108.6493527346
 20
180.5687999234
 30
0.0
  0
VERTEX
  5
239
  8
0
  6
CONTINUOUS
 62
     7
 10
112.0822027155
 20
180.5583571897
 30
0.0
  0
VERTEX
  5
23A
  8
0
  6
CONTINUOUS
 62
     7
 10
115.5160368715
 20
180.5556272969
 30
0.0
  0
VERTEX
  5
23B
  8
0
  6
CONTINUOUS
 62
     7
 10
118.9496991985
 20
180.5606102452
 30
0.0
  0
VERTEX
  5
23C
  8
0
  6
CONTINUOUS
 62
     7
 10
122.3820319228
 20
180.5733060346
 30
0.0
  0
VERTEX
  5
23D
  8
0
  6
CONTINUOUS
 62
     7
 10
125.8118783884
 20
180.593702744
 30
0.0
  0
VERTEX
  5
23E
  8
0
  6
CONTINUOUS
 62
     7
 10
129.2380845003
 20
180.6218003736
 30
0.0
  0
VERTEX
  5
23F
  8
0
  6
CONTINUOUS
 62
     7
 10
132.6594954185
 20
180.6575989232
 30
0.0
  0
VERTEX
  5
240
  8
0
  6
CONTINUOUS
 62
     7
 10
136.0749607735
 20
180.7010626302
 30
0.0
  0
VERTEX
  5
241
  8
0
  6
CONTINUOUS
 62
     7
 10
139.3041854553
 20
180.7493185506
 30
0.0
  0
VERTEX
  5
242
  8
0
  6
CONTINUOUS
 62
     7
 10
140.2796050363
 20
180.7652687535
 30
0.0
  0
SEQEND
  5
492
  8
0
  6
CONTINUOUS
 62
     7
  0
ARC
  5
56
  8
0
  6
CONTINUOUS
 62
     7
 10
89.4738016471
 20
236.0256241795
 30
0.0
 40
14.25372559924708
 50
88.5351387924
 51
113.3277248135
  0
ARC
  5
57
  8
0
  6
CONTINUOUS
 62
     7
 10
140.5529168665
 20
235.9882214263
 30
0.0
 40
14.29230839019052
 50
66.7644782449
 51
91.4553543428
  0
POLYLINE
  5
58
  8
0
  6
CONTINUOUS
 62
     7
 66
     1
 10
0.0
 20
0.0
 30
0.0
  0
VERTEX
  5
243
  8
0
  6
CONTINUOUS
 62
     7
 10
81.1376442962
 20
247.6284241185
 30
0.0
  0
VERTEX
  5
244
  8
0
  6
CONTINUOUS
 62
     7
 10
81.0922583394
 20
247.5985979543
 30
0.0
  0
VERTEX
  5
245
  8
0
  6
CONTINUOUS
 62
     7
 10
80.7604750447
 20
247.3476743207
 30
0.0
  0
SEQEND
  5
491
  8
0
  6
CONTINUOUS
 62
     7
  0
ARC
  5
59
  8
0
  6
CONTINUOUS
 62
     7
 10
89.5205217188
 20
235.7249916745
 30
0.0
 40
14.558327110123
 50
128.4665915627
 51
180.3828711424
  0
ARC
  5
5A
  8
0
  6
CONTINUOUS
 62
     7
 10
140.4850776941
 20
235.7202544431
 30
0.0
 40
14.57976237068493
 50
359.6361680626
 51
54.8680404426
  0
POLYLINE
  5
5B
  8
0
  6
CONTINUOUS
 62
     7
 66
     1
 10
0.0
 20
0.0
 30
0.0
  0
VERTEX
  5
246
  8
0
  6
CONTINUOUS
 62
     7
 10
140.1898851447
 20
250.282857369
 30
0.0
  0
VERTEX
  5
247
  8
0
  6
CONTINUOUS
 62
     7
 10
138.4045457296
 20
250.254151772
 30
0.0
  0
VERTEX
  5
248
  8
0
  6
CONTINUOUS
 62
     7
 10
135.006331449
 20
250.2054309354
 30
0.0
  0
VERTEX
  5
249
  8
0
  6
CONTINUOUS
 62
     7
 10
131.6012387924
 20
250.1643514142
 30
0.0
  0
VERTEX
  5
24A
  8
0
  6
CONTINUOUS
 62
     7
 10
128.1904583626
 20
250.1309251294
 30
0.0
  0
VERTEX
  5
24B
  8
0
  6
CONTINUOUS
 62
     7
 10
124.7751584105
 20
250.105164002
 30
0.0
  0
VERTEX
  5
24C
  8
0
  6
CONTINUOUS
 62
     7
 10
121.3565094225
 20
250.0870799527
 30
0.0
  0
VERTEX
  5
24D
  8
0
  6
CONTINUOUS
 62
     7
 10
117.9356833749
 20
250.0766729818
 30
0.0
  0
VERTEX
  5
24E
  8
0
  6
CONTINUOUS
 62
     7
 10
114.5138511263
 20
250.07395501
 30
0.0
  0
VERTEX
  5
24F
  8
0
  6
CONTINUOUS
 62
     7
 10
111.0921853982
 20
250.0789260373
 30
0.0
  0
VERTEX
  5
250
  8
0
  6
CONTINUOUS
 62
     7
 10
107.671859657
 20
250.0915741429
 30
0.0
  0
VERTEX
  5
251
  8
0
  6
CONTINUOUS
 62
     7
 10
104.2540458791
 20
250.1118993268
 30
0.0
  0
VERTEX
  5
252
  8
0
  6
CONTINUOUS
 62
     7
 10
100.8399164133
 20
250.1399015889
 30
0.0
  0
VERTEX
  5
253
  8
0
  6
CONTINUOUS
 62
     7
 10
97.4306380205
 20
250.1755690084
 30
0.0
  0
VERTEX
  5
254
  8
0
  6
CONTINUOUS
 62
     7
 10
94.0273826771
 20
250.2188896642
 30
0.0
  0
VERTEX
  5
255
  8
0
  6
CONTINUOUS
 62
     7
 10
90.8098613672
 20
250.2669667707
 30
0.0
  0
VERTEX
  5
256
  8
0
  6
CONTINUOUS
 62
     7
 10
89.8382415824
 20
250.282857369
 30
0.0
  0
SEQEND
  5
490
  8
0
  6
CONTINUOUS
 62
     7
  0
POLYLINE
  5
5C
  8
0
  6
CONTINUOUS
 62
     7
 66
     1
 10
0.0
 20
0.0
 30
0.0
  0
VERTEX
  5
257
  8
0
  6
CONTINUOUS
 62
     7
 10
151.9138863139
 20
158.4658002362
 30
0.0
  0
VERTEX
  5
258
  8
0
  6
CONTINUOUS
 62
     7
 10
151.9083281808
 20
158.464834641
 30
0.0
  0
VERTEX
  5
259
  8
0
  6
CONTINUOUS
 62
     7
 10
151.9072731786
 20
158.4646439061
 30
0.0
  0
SEQEND
  5
48F
  8
0
  6
CONTINUOUS
 62
     7
  0
POLYLINE
  5
5D
  8
0
  6
CONTINUOUS
 62
     7
 66
     1
 10
0.0
 20
0.0
 30
0.0
  0
VERTEX
  5
25A
  8
0
  6
CONTINUOUS
 62
     7
 10
78.1211783938
 20
158.4645544992
 30
0.0
  0
VERTEX
  5
25B
  8
0
  6
CONTINUOUS
 62
     7
 10
78.1201859765
 20
158.4647392736
 30
0.0
  0
VERTEX
  5
25C
  8
0
  6
CONTINUOUS
 62
     7
 10
78.1092693858
 20
158.4666227803
 30
0.0
  0
SEQEND
  5
48E
  8
0
  6
CONTINUOUS
 62
     7
  0
LINE
  5
5E
  8
0
  6
CONTINUOUS
 62
     7
 10
78.1209280543
 20
158.4646141038
 30
0.0
 11
78.1135489993
 21
158.465925406
 31
0.0
  0
ARC
  5
5F
  8
0
  6
CONTINUOUS
 62
     7
 10
60.9303192172
 20
72.6235352042
 30
0.0
 40
82.16607884514097
 50
78.4982753699
 51
78.6264649151
  0
LINE
  5
60
  8
0
  6
CONTINUOUS
 62
     7
 10
77.1283736281
 20
153.1771575914
 30
0.0
 11
77.1328409963
 21
153.1762694821
 31
0.0
  0
LINE
  5
61
  8
0
  6
CONTINUOUS
 62
     7
 10
152.8315922074
 20
153.1634306417
 30
0.0
 11
152.8882345014
 21
153.1748568521
 31
0.0
  0
ARC
  5
62
  8
0
  6
CONTINUOUS
 62
     7
 10
175.0140633635
 20
180.5370935903
 30
0.0
 40
2.700000000000017
 50
0.0
 51
180.0
  0
ARC
  5
63
  8
0
  6
CONTINUOUS
 62
     7
 10
175.0140633635
 20
133.9370935903
 30
0.0
 40
2.700000000000017
 50
180.0
 51
0.0
  0
ARC
  5
64
  8
0
  6
CONTINUOUS
 62
     7
 10
179.0140633635
 20
132.7370935903
 30
0.0
 40
2.0
 50
270.0
 51
0.0
  0
LINE
  5
65
  8
0
  6
CONTINUOUS
 62
     7
 10
179.014061933
 20
130.737093638
 30
0.0
 11
171.014063602
 21
130.737093638
 31
0.0
  0
ARC
  5
66
  8
0
  6
CONTINUOUS
 62
     7
 10
171.0140633635
 20
132.7370935903
 30
0.0
 40
2.0
 50
180.0
 51
270.0
  0
LINE
  5
67
  8
0
  6
CONTINUOUS
 62
     7
 10
169.0140655093
 20
139.3370961652
 30
0.0
 11
169.0140655093
 21
132.7370917306
 31
0.0
  0
LINE
  5
68
  8
0
  6
CONTINUOUS
 62
     7
 10
181.0140659862
 20
139.3370961652
 30
0.0
 11
181.0140659862
 21
132.7370917306
 31
0.0
  0
LINE
  5
69
  8
0
  6
CONTINUOUS
 62
     7
 10
169.0140655093
 20
139.3370961652
 30
0.0
 11
169.0140655093
 21
140.5370926366
 31
0.0
  0
LINE
  5
6A
  8
0
  6
CONTINUOUS
 62
     7
 10
169.0140655093
 20
140.5370926366
 30
0.0
 11
172.3140647464
 21
140.5370926366
 31
0.0
  0
LINE
  5
6B
  8
0
  6
CONTINUOUS
 62
     7
 10
177.7140607886
 20
140.5370926366
 30
0.0
 11
181.0140659862
 21
140.5370926366
 31
0.0
  0
LINE
  5
6C
  8
0
  6
CONTINUOUS
 62
     7
 10
181.0140659862
 20
140.5370926366
 30
0.0
 11
181.0140659862
 21
139.3370961652
 31
0.0
  0
ARC
  5
6D
  8
0
  6
CONTINUOUS
 62
     7
 10
55.0140633635
 20
180.5370935903
 30
0.0
 40
2.70000000000001
 50
0.0
 51
180.0
  0
ARC
  5
6E
  8
0
  6
CONTINUOUS
 62
     7
 10
55.0140633635
 20
133.9370935903
 30
0.0
 40
2.70000000000001
 50
180.0
 51
0.0
  0
ARC
  5
6F
  8
0
  6
CONTINUOUS
 62
     7
 10
59.0140633635
 20
132.7370935903
 30
0.0
 40
2.0
 50
270.0
 51
0.0
  0
LINE
  5
70
  8
0
  6
CONTINUOUS
 62
     7
 10
59.0140631251
 20
130.737093638
 30
0.0
 11
51.0140647941
 21
130.737093638
 31
0.0
  0
ARC
  5
71
  8
0
  6
CONTINUOUS
 62
     7
 10
51.0140633635
 20
132.7370935903
 30
0.0
 40
2.0
 50
180.0
 51
270.0
  0
LINE
  5
72
  8
0
  6
CONTINUOUS
 62
     7
 10
49.0140607409
 20
139.3370961652
 30
0.0
 11
49.0140607409
 21
132.7370917306
 31
0.0
  0
LINE
  5
73
  8
0
  6
CONTINUOUS
 62
     7
 10
61.0140612178
 20
139.3370961652
 30
0.0
 11
61.0140612178
 21
132.7370917306
 31
0.0
  0
LINE
  5
74
  8
0
  6
CONTINUOUS
 62
     7
 10
49.0140607409
 20
140.5370926366
 30
0.0
 11
52.3140659385
 21
140.5370926366
 31
0.0
  0
LINE
  5
75
  8
0
  6
CONTINUOUS
 62
     7
 10
57.7140619807
 20
140.5370926366
 30
0.0
 11
61.0140612178
 21
140.5370926366
 31
0.0
  0
LINE
  5
76
  8
0
  6
CONTINUOUS
 62
     7
 10
61.0140612178
 20
140.5370926366
 30
0.0
 11
61.0140612178
 21
139.3370961652
 31
0.0
  0
LINE
  5
77
  8
0
  6
CONTINUOUS
 62
     7
 10
49.0140607409
 20
139.3370961652
 30
0.0
 11
49.0140607409
 21
140.5370926366
 31
0.0
  0
LINE
  5
78
  8
0
  6
CONTINUOUS
 62
     7
 10
111.5997789257
 20
64.5370935903
 30
0.0
 11
107.8411323779
 21
64.5370935903
 31
0.0
  0
LINE
  5
79
  8
0
  6
CONTINUOUS
 62
     7
 10
107.8411323779
 20
65.7370936007
 30
0.0
 11
111.5997789257
 21
65.7370936007
 31
0.0
  0
LINE
  5
7A
  8
0
  6
CONTINUOUS
 62
     7
 10
122.1869943492
 20
64.5370935903
 30
0.0
 11
118.4283478014
 21
64.5370935903
 31
0.0
  0
LINE
  5
7B
  8
0
  6
CONTINUOUS
 62
     7
 10
118.4283478014
 20
65.7370936007
 30
0.0
 11
122.1869943492
 21
65.7370936007
 31
0.0
  0
LINE
  5
7C
  8
0
  6
CONTINUOUS
 62
     7
 10
111.5997789257
 20
64.5370935903
 30
0.0
 11
118.4283478014
 21
64.5370935903
 31
0.0
  0
LINE
  5
7D
  8
0
  6
CONTINUOUS
 62
     7
 10
111.5997789257
 20
65.7370936007
 30
0.0
 11
118.4283478014
 21
65.7370936007
 31
0.0
  0
LINE
  5
7E
  8
0
  6
CONTINUOUS
 62
     7
 10
127.0140630953
 20
64.5370935903
 30
0.0
 11
127.0140630953
 21
65.7370936007
 31
0.0
  0
LINE
  5
7F
  8
0
  6
CONTINUOUS
 62
     7
 10
122.1869943492
 20
64.5370935903
 30
0.0
 11
127.0140630953
 21
64.5370935903
 31
0.0
  0
LINE
  5
80
  8
0
  6
CONTINUOUS
 62
     7
 10
127.0140630953
 20
65.7370936007
 30
0.0
 11
122.1869943492
 21
65.7370936007
 31
0.0
  0
LINE
  5
81
  8
0
  6
CONTINUOUS
 62
     7
 10
103.0140636318
 20
64.5370935903
 30
0.0
 11
103.0140636318
 21
65.7370936007
 31
0.0
  0
LINE
  5
82
  8
0
  6
CONTINUOUS
 62
     7
 10
103.0140636318
 20
64.5370935903
 30
0.0
 11
107.8411323779
 21
64.5370935903
 31
0.0
  0
LINE
  5
83
  8
0
  6
CONTINUOUS
 62
     7
 10
107.8411323779
 20
65.7370936007
 30
0.0
 11
103.0140636318
 21
65.7370936007
 31
0.0
  0
LINE
  5
84
  8
0
  6
CONTINUOUS
 62
     7
 10
98.9370306783
 20
129.7370945916
 30
0.0
 11
46.6140618377
 21
129.7370945916
 31
0.0
  0
LINE
  5
85
  8
0
  6
CONTINUOUS
 62
     7
 10
183.8140657
 20
139.3370961652
 30
0.0
 11
183.8140657
 21
138.737091969
 31
0.0
  0
ARC
  5
86
  8
0
  6
CONTINUOUS
 62
     7
 10
183.4140633635
 20
139.3370935903
 30
0.0
 40
0.3999999999999773
 50
0.0
 51
90.0
  0
LINE
  5
87
  8
0
  6
CONTINUOUS
 62
     7
 10
183.8140657
 20
138.737091969
 30
0.0
 11
183.8140657
 21
130.737093638
 31
0.0
  0
LINE
  5
88
  8
0
  6
CONTINUOUS
 62
     7
 10
110.014063289
 20
65.7370936007
 30
0.0
 11
110.014063289
 21
129.5370912061
 31
0.0
  0
LINE
  5
89
  8
0
  6
CONTINUOUS
 62
     7
 10
46.6140618377
 20
139.7370910154
 30
0.0
 11
49.0140607409
 21
139.7370910154
 31
0.0
  0
LINE
  5
8A
  8
0
  6
CONTINUOUS
 62
     7
 10
61.0140612178
 20
139.7370910154
 30
0.0
 11
72.5140621715
 21
139.7370910154
 31
0.0
  0
LINE
  5
8B
  8
0
  6
CONTINUOUS
 62
     7
 10
82.5140645556
 20
139.7370910154
 30
0.0
 11
97.0140626483
 21
139.7370910154
 31
0.0
  0
LINE
  5
8C
  8
0
  6
CONTINUOUS
 62
     7
 10
133.0140640788
 20
139.7370910154
 30
0.0
 11
147.5140621715
 21
139.7370910154
 31
0.0
  0
LINE
  5
8D
  8
0
  6
CONTINUOUS
 62
     7
 10
157.5140645556
 20
139.7370910154
 30
0.0
 11
169.0140655093
 21
139.7370910154
 31
0.0
  0
LINE
  5
8E
  8
0
  6
CONTINUOUS
 62
     7
 10
181.0140659862
 20
139.7370910154
 30
0.0
 11
183.4140648894
 21
139.7370910154
 31
0.0
  0
LINE
  5
8F
  8
0
  6
CONTINUOUS
 62
     7
 10
46.214061027
 20
130.1370954023
 30
0.0
 11
46.214061027
 21
130.737093638
 31
0.0
  0
ARC
  5
90
  8
0
  6
CONTINUOUS
 62
     7
 10
46.6140633635
 20
130.1370935903
 30
0.0
 40
0.4000000000000057
 50
180.0
 51
270.0
  0
LINE
  5
91
  8
0
  6
CONTINUOUS
 62
     7
 10
183.8140657
 20
130.737093638
 30
0.0
 11
183.8140657
 21
130.1370954023
 31
0.0
  0
ARC
  5
92
  8
0
  6
CONTINUOUS
 62
     7
 10
183.4140633635
 20
130.1370935903
 30
0.0
 40
0.4000000000000057
 50
270.0
 51
0.0
  0
LINE
  5
93
  8
0
  6
CONTINUOUS
 62
     7
 10
120.0140634381
 20
129.5370912061
 30
0.0
 11
120.0140634381
 21
65.7370936007
 31
0.0
  0
LINE
  5
94
  8
0
  6
CONTINUOUS
 62
     7
 10
46.214061027
 20
138.737091969
 30
0.0
 11
46.214061027
 21
139.3370961652
 31
0.0
  0
ARC
  5
95
  8
0
  6
CONTINUOUS
 62
     7
 10
46.6140633635
 20
139.3370935903
 30
0.0
 40
0.3999999999999986
 50
90.0
 51
180.0
  0
LINE
  5
96
  8
0
  6
CONTINUOUS
 62
     7
 10
46.214061027
 20
130.737093638
 30
0.0
 11
46.214061027
 21
138.737091969
 31
0.0
  0
LINE
  5
97
  8
0
  6
CONTINUOUS
 62
     7
 10
183.4140648894
 20
129.7370945916
 30
0.0
 11
131.0910960488
 21
129.7370945916
 31
0.0
  0
POLYLINE
  5
98
  8
0
  6
CONTINUOUS
 62
     7
 66
     1
 10
0.0
 20
0.0
 30
0.0
  0
VERTEX
  5
25D
  8
0
  6
CONTINUOUS
 62
     7
 10
140.0478413157
 20
185.9141087041
 30
0.0
  0
VERTEX
  5
25E
  8
0
  6
CONTINUOUS
 62
     7
 10
140.8883591943
 20
185.9357809529
 30
0.0
  0
VERTEX
  5
25F
  8
0
  6
CONTINUOUS
 62
     7
 10
141.7146166615
 20
185.9701489911
 30
0.0
  0
SEQEND
  5
48D
  8
0
  6
CONTINUOUS
 62
     7
  0
ARC
  5
99
  8
0
  6
CONTINUOUS
 62
     7
 10
139.6901466884
 20
196.0280216859
 30
0.0
 40
10.25959462245354
 50
281.3805498929
 51
0.210805118
  0
ARC
  5
9A
  8
0
  6
CONTINUOUS
 62
     7
 10
90.972911056
 20
240.2522357489
 30
0.0
 40
54.34719271876345
 50
267.1951940867
 51
268.9534616272
  0
ARC
  5
9B
  8
0
  6
CONTINUOUS
 62
     7
 10
90.325416688
 20
196.0177736888
 30
0.0
 40
10.24707423228387
 50
179.7316358646
 51
258.6770091245
  0
POLYLINE
  5
9C
  8
0
  6
CONTINUOUS
 62
     7
 66
     1
 10
0.0
 20
0.0
 30
0.0
  0
VERTEX
  5
260
  8
0
  6
CONTINUOUS
 62
     7
 10
88.3135100656
 20
185.9701489911
 30
0.0
  0
VERTEX
  5
261
  8
0
  6
CONTINUOUS
 62
     7
 10
92.1064710073
 20
185.9073972211
 30
0.0
  0
VERTEX
  5
262
  8
0
  6
CONTINUOUS
 62
     7
 10
95.9093024783
 20
185.8542537198
 30
0.0
  0
VERTEX
  5
263
  8
0
  6
CONTINUOUS
 62
     7
 10
99.7203668408
 20
185.8107423291
 30
0.0
  0
VERTEX
  5
264
  8
0
  6
CONTINUOUS
 62
     7
 10
103.5380212419
 20
185.77687497
 30
0.0
  0
VERTEX
  5
265
  8
0
  6
CONTINUOUS
 62
     7
 10
107.3606205933
 20
185.7526754842
 30
0.0
  0
VERTEX
  5
266
  8
0
  6
CONTINUOUS
 62
     7
 10
111.1865171992
 20
185.7381557927
 30
0.0
  0
VERTEX
  5
267
  8
0
  6
CONTINUOUS
 62
     7
 10
115.0140633635
 20
185.7333158956
 30
0.0
  0
VERTEX
  5
268
  8
0
  6
CONTINUOUS
 62
     7
 10
118.8416095279
 20
185.7381557927
 30
0.0
  0
VERTEX
  5
269
  8
0
  6
CONTINUOUS
 62
     7
 10
122.6675061338
 20
185.7526754842
 30
0.0
  0
VERTEX
  5
26A
  8
0
  6
CONTINUOUS
 62
     7
 10
126.4901054852
 20
185.77687497
 30
0.0
  0
VERTEX
  5
26B
  8
0
  6
CONTINUOUS
 62
     7
 10
130.3077598863
 20
185.8107423291
 30
0.0
  0
VERTEX
  5
26C
  8
0
  6
CONTINUOUS
 62
     7
 10
134.1188242488
 20
185.8542537198
 30
0.0
  0
VERTEX
  5
26D
  8
0
  6
CONTINUOUS
 62
     7
 10
137.9216557198
 20
185.9073972211
 30
0.0
  0
VERTEX
  5
26E
  8
0
  6
CONTINUOUS
 62
     7
 10
141.7146166615
 20
185.9701489911
 30
0.0
  0
SEQEND
  5
48C
  8
0
  6
CONTINUOUS
 62
     7
  0
LINE
  5
9D
  8
0
  6
CONTINUOUS
 62
     7
 10
80.0784548573
 20
235.7676243291
 30
0.0
 11
80.0784548573
 21
196.0657691465
 31
0.0
  0
ARC
  5
9E
  8
0
  6
CONTINUOUS
 62
     7
 10
89.8616050147
 20
235.8625597615
 30
0.0
 40
9.783610771991041
 50
99.1043769416
 51
180.5559792896
  0
POLYLINE
  5
9F
  8
0
  6
CONTINUOUS
 62
     7
 66
     1
 10
0.0
 20
0.0
 30
0.0
  0
VERTEX
  5
26F
  8
0
  6
CONTINUOUS
 62
     7
 10
88.3135100656
 20
245.5229138837
 30
0.0
  0
VERTEX
  5
270
  8
0
  6
CONTINUOUS
 62
     7
 10
92.1064710073
 20
245.4601621137
 30
0.0
  0
VERTEX
  5
271
  8
0
  6
CONTINUOUS
 62
     7
 10
95.9093024783
 20
245.4070186124
 30
0.0
  0
VERTEX
  5
272
  8
0
  6
CONTINUOUS
 62
     7
 10
99.7203668408
 20
245.3635072217
 30
0.0
  0
VERTEX
  5
273
  8
0
  6
CONTINUOUS
 62
     7
 10
103.5380212419
 20
245.3296517835
 30
0.0
  0
VERTEX
  5
274
  8
0
  6
CONTINUOUS
 62
     7
 10
107.3606205933
 20
245.3054522977
 30
0.0
  0
VERTEX
  5
275
  8
0
  6
CONTINUOUS
 62
     7
 10
111.1865171992
 20
245.2909206853
 30
0.0
  0
VERTEX
  5
276
  8
0
  6
CONTINUOUS
 62
     7
 10
115.0140633635
 20
245.2860807881
 30
0.0
  0
VERTEX
  5
277
  8
0
  6
CONTINUOUS
 62
     7
 10
118.8416095279
 20
245.2909206853
 30
0.0
  0
VERTEX
  5
278
  8
0
  6
CONTINUOUS
 62
     7
 10
122.6675061338
 20
245.3054522977
 30
0.0
  0
VERTEX
  5
279
  8
0
  6
CONTINUOUS
 62
     7
 10
126.4901054852
 20
245.3296517835
 30
0.0
  0
VERTEX
  5
27A
  8
0
  6
CONTINUOUS
 62
     7
 10
130.3077598863
 20
245.3635072217
 30
0.0
  0
VERTEX
  5
27B
  8
0
  6
CONTINUOUS
 62
     7
 10
134.1188242488
 20
245.4070186124
 30
0.0
  0
VERTEX
  5
27C
  8
0
  6
CONTINUOUS
 62
     7
 10
137.9216557198
 20
245.4601621137
 30
0.0
  0
VERTEX
  5
27D
  8
0
  6
CONTINUOUS
 62
     7
 10
141.7146166615
 20
245.5229138837
 30
0.0
  0
SEQEND
  5
48B
  8
0
  6
CONTINUOUS
 62
     7
  0
ARC
  5
A0
  8
0
  6
CONTINUOUS
 62
     7
 10
140.1779493597
 20
235.8722065593
 30
0.0
 40
9.772282141696886
 50
359.3868131615
 51
80.9528306073
  0
LINE
  5
A1
  8
0
  6
CONTINUOUS
 62
     7
 10
149.9496718697
 20
196.0657691465
 30
0.0
 11
149.9496718697
 21
235.7676243291
 31
0.0
  0
POLYLINE
  5
A2
  8
0
  6
CONTINUOUS
 62
     7
 66
     1
 10
0.0
 20
0.0
 30
0.0
  0
VERTEX
  5
27E
  8
0
  6
CONTINUOUS
 62
     7
 10
89.9802854114
 20
185.9141087041
 30
0.0
  0
VERTEX
  5
27F
  8
0
  6
CONTINUOUS
 62
     7
 10
93.8130592756
 20
185.8551597104
 30
0.0
  0
VERTEX
  5
280
  8
0
  6
CONTINUOUS
 62
     7
 10
97.6551135831
 20
185.8059858785
 30
0.0
  0
VERTEX
  5
281
  8
0
  6
CONTINUOUS
 62
     7
 10
101.504770463
 20
185.7666229711
 30
0.0
  0
VERTEX
  5
282
  8
0
  6
CONTINUOUS
 62
     7
 10
105.3603408687
 20
185.73709483
 30
0.0
  0
VERTEX
  5
283
  8
0
  6
CONTINUOUS
 62
     7
 10
109.2201387339
 20
185.7173895345
 30
0.0
  0
VERTEX
  5
284
  8
0
  6
CONTINUOUS
 62
     7
 10
113.0824731492
 20
185.7075428472
 30
0.0
  0
VERTEX
  5
285
  8
0
  6
CONTINUOUS
 62
     7
 10
116.9456535779
 20
185.7075428472
 30
0.0
  0
VERTEX
  5
286
  8
0
  6
CONTINUOUS
 62
     7
 10
120.8079879932
 20
185.7173895345
 30
0.0
  0
VERTEX
  5
287
  8
0
  6
CONTINUOUS
 62
     7
 10
124.6677858584
 20
185.73709483
 30
0.0
  0
VERTEX
  5
288
  8
0
  6
CONTINUOUS
 62
     7
 10
128.5233562641
 20
185.7666229711
 30
0.0
  0
VERTEX
  5
289
  8
0
  6
CONTINUOUS
 62
     7
 10
132.373013144
 20
185.8059858785
 30
0.0
  0
VERTEX
  5
28A
  8
0
  6
CONTINUOUS
 62
     7
 10
136.2150674515
 20
185.8551597104
 30
0.0
  0
VERTEX
  5
28B
  8
0
  6
CONTINUOUS
 62
     7
 10
140.0478413157
 20
185.9141087041
 30
0.0
  0
SEQEND
  5
48A
  8
0
  6
CONTINUOUS
 62
     7
  0
ARC
  5
A3
  8
0
  6
CONTINUOUS
 62
     7
 10
88.0494792641
 20
238.3888393953
 30
0.0
 40
11.53015475365008
 50
111.5475430071
 51
126.7247218963
  0
ARC
  5
A4
  8
0
  6
CONTINUOUS
 62
     7
 10
141.5933511913
 20
237.6188876223
 30
0.0
 40
12.38098184039622
 50
54.0747924108
 51
68.1455166041
  0
LINE
  5
A5
  8
0
  6
CONTINUOUS
 62
     7
 10
133.0140640788
 20
139.3370961652
 30
0.0
 11
133.0140640788
 21
132.5370943055
 31
0.0
  0
ARC
  5
A6
  8
0
  6
CONTINUOUS
 62
     7
 10
130.0140633635
 20
132.5370935903
 30
0.0
 40
3.0
 50
270.0
 51
0.0
  0
LINE
  5
A7
  8
0
  6
CONTINUOUS
 62
     7
 10
130.0140639596
 20
129.5370912061
 30
0.0
 11
100.0140627675
 21
129.5370912061
 31
0.0
  0
ARC
  5
A8
  8
0
  6
CONTINUOUS
 62
     7
 10
100.0140633635
 20
132.5370935903
 30
0.0
 40
3.000000000000014
 50
180.0
 51
270.0
  0
LINE
  5
A9
  8
0
  6
CONTINUOUS
 62
     7
 10
97.0140626483
 20
139.3370961652
 30
0.0
 11
97.0140626483
 21
132.5370943055
 31
0.0
  0
CIRCLE
  5
AA
  8
0
  6
CONTINUOUS
 62
     7
 10
100.0140633635
 20
133.7370935903
 30
0.0
 40
1.100000000000023
  0
CIRCLE
  5
AB
  8
0
  6
CONTINUOUS
 62
     7
 10
130.0140633635
 20
133.7370935903
 30
0.0
 40
1.099999999999994
  0
LINE
  5
AC
  8
0
  6
CONTINUOUS
 62
     7
 10
133.0140640788
 20
140.3370952115
 30
0.0
 11
97.0140626483
 21
140.3370952115
 31
0.0
  0
LINE
  5
AD
  8
0
  6
CONTINUOUS
 62
     7
 10
133.0140640788
 20
140.3370952115
 30
0.0
 11
133.0140640788
 21
139.3370961652
 31
0.0
  0
LINE
  5
AE
  8
0
  6
CONTINUOUS
 62
     7
 10
97.0140626483
 20
140.3370952115
 30
0.0
 11
97.0140626483
 21
139.3370961652
 31
0.0
  0
LINE
  5
AF
  8
0
  6
CONTINUOUS
 62
     7
 10
112.0140634306
 20
146.2818538652
 30
0.0
 11
112.0140634306
 21
140.3370952115
 31
0.0
  0
LINE
  5
B0
  8
0
  6
CONTINUOUS
 62
     7
 10
118.0140632965
 20
146.2818538652
 30
0.0
 11
118.0140632965
 21
140.3370952115
 31
0.0
  0
LINE
  5
B1
  8
0
  6
CONTINUOUS
 62
     7
 10
118.0140632965
 20
149.3589555726
 30
0.0
 11
118.0140632965
 21
146.2818538652
 31
0.0
  0
LINE
  5
B2
  8
0
  6
CONTINUOUS
 62
     7
 10
112.0140634306
 20
149.3589555726
 30
0.0
 11
112.0140634306
 21
146.2818538652
 31
0.0
  0
LINE
  5
B3
  8
0
  6
CONTINUOUS
 62
     7
 10
112.0140634306
 20
170.7089757428
 30
0.0
 11
112.0140634306
 21
154.7396575914
 31
0.0
  0
LINE
  5
B4
  8
0
  6
CONTINUOUS
 62
     7
 10
118.0140632965
 20
170.7089757428
 30
0.0
 11
118.0140632965
 21
154.7396575914
 31
0.0
  0
LINE
  5
B5
  8
0
  6
CONTINUOUS
 62
     7
 10
118.0140632965
 20
174.4730448232
 30
0.0
 11
118.0140632965
 21
170.7089757428
 31
0.0
  0
LINE
  5
B6
  8
0
  6
CONTINUOUS
 62
     7
 10
112.0140634306
 20
174.4730448232
 30
0.0
 11
112.0140634306
 21
170.7089757428
 31
0.0
  0
LINE
  5
B7
  8
0
  6
CONTINUOUS
 62
     7
 10
118.0140632965
 20
174.4730448232
 30
0.0
 11
118.0140632965
 21
180.5592512593
 31
0.0
  0
LINE
  5
B8
  8
0
  6
CONTINUOUS
 62
     7
 10
112.0140634306
 20
174.4730448232
 30
0.0
 11
112.0140634306
 21
180.5585598455
 31
0.0
  0
ARC
  5
B9
  8
0
  6
CONTINUOUS
 62
     7
 10
115.0141262227
 20
338.0246519643
 30
0.0
 40
183.3095434037212
 50
277.7930306306
 51
281.588802422
  0
ARC
  5
BA
  8
0
  6
CONTINUOUS
 62
     7
 10
152.3828199964
 20
155.8175967108
 30
0.0
 40
2.689999999999996
 50
12.4186815058
 51
100.0467259555
  0
ARC
  5
BB
  8
0
  6
CONTINUOUS
 62
     7
 10
115.0271384914
 20
337.9486035458
 30
0.0
 40
188.612433234788
 50
277.7922471931
 51
281.5895468731
  0
ARC
  5
BC
  8
0
  6
CONTINUOUS
 62
     7
 10
152.3828199964
 20
155.8175967108
 30
0.0
 40
2.689999999999996
 50
281.5900201068
 51
12.4186815058
  0
ARC
  5
BD
  8
0
  6
CONTINUOUS
 62
     7
 10
77.6453067307
 20
155.8175967108
 30
0.0
 40
2.690000000000013
 50
80.0567778886
 51
167.5813184942
  0
ARC
  5
BE
  8
0
  6
CONTINUOUS
 62
     7
 10
115.0335068335
 20
338.1393638264
 30
0.0
 40
183.4258408269015
 50
258.4125298297
 51
262.2057911876
  0
ARC
  5
BF
  8
0
  6
CONTINUOUS
 62
     7
 10
115.0331112123
 20
338.136633055
 30
0.0
 40
188.8030819041697
 50
258.4124944315
 51
262.2058309307
  0
ARC
  5
C0
  8
0
  6
CONTINUOUS
 62
     7
 10
77.6453067307
 20
155.8175967108
 30
0.0
 40
2.690000000000011
 50
167.5813184942
 51
258.4099798932
  0
ARC
  5
C1
  8
0
  6
CONTINUOUS
 62
     7
 10
115.0140633635
 20
338.0251048648
 30
0.0
 40
183.31
 50
262.2069690737
 51
277.7930309263
  0
ARC
  5
C2
  8
0
  6
CONTINUOUS
 62
     7
 10
115.0140633635
 20
338.0251048648
 30
0.0
 40
188.69
 50
262.2069690737
 51
277.7930309263
  0
LINE
  5
C3
  8
0
  6
CONTINUOUS
 62
     7
 10
151.7140647225
 20
152.6770925031
 30
0.0
 11
151.7140647225
 21
148.2101475701
 31
0.0
  0
LINE
  5
C4
  8
0
  6
CONTINUOUS
 62
     7
 10
151.7140647225
 20
152.6770925031
 30
0.0
 11
152.7140637689
 21
152.6770925031
 31
0.0
  0
LINE
  5
C5
  8
0
  6
CONTINUOUS
 62
     7
 10
152.7140637689
 20
152.6770925031
 30
0.0
 11
152.7140637689
 21
148.2101475701
 31
0.0
  0
LINE
  5
C6
  8
0
  6
CONTINUOUS
 62
     7
 10
151.7140647225
 20
152.9385423169
 30
0.0
 11
151.7140647225
 21
152.6770925031
 31
0.0
  0
LINE
  5
C7
  8
0
  6
CONTINUOUS
 62
     7
 10
152.7140637689
 20
153.1480705247
 30
0.0
 11
152.7140637689
 21
152.6770925031
 31
0.0
  0
LINE
  5
C8
  8
0
  6
CONTINUOUS
 62
     7
 10
78.3140620046
 20
152.6770925031
 30
0.0
 11
77.3140629582
 21
152.6770925031
 31
0.0
  0
LINE
  5
C9
  8
0
  6
CONTINUOUS
 62
     7
 10
78.3140620046
 20
152.6770925031
 30
0.0
 11
78.3140620046
 21
148.2101475701
 31
0.0
  0
LINE
  5
CA
  8
0
  6
CONTINUOUS
 62
     7
 10
77.3140629582
 20
152.6770925031
 30
0.0
 11
77.3140629582
 21
148.2101475701
 31
0.0
  0
LINE
  5
CB
  8
0
  6
CONTINUOUS
 62
     7
 10
77.3140629582
 20
153.1480705247
 30
0.0
 11
77.3140629582
 21
152.6770925031
 31
0.0
  0
LINE
  5
CC
  8
0
  6
CONTINUOUS
 62
     7
 10
78.3140620046
 20
152.9385661588
 30
0.0
 11
78.3140620046
 21
152.6770925031
 31
0.0
  0
LINE
  5
CD
  8
0
  6
CONTINUOUS
 62
     7
 10
78.1857481055
 20
158.452746819
 30
0.0
 11
78.1896700911
 21
158.4519421563
 31
0.0
  0
LINE
  5
CE
  8
0
  6
CONTINUOUS
 62
     7
 10
151.8381466918
 20
158.4518765912
 30
0.0
 11
151.8423786216
 21
158.452746819
 31
0.0
  0
LINE
  5
CF
  8
0
  6
CONTINUOUS
 62
     7
 10
152.7140637689
 20
148.2101475701
 30
0.0
 11
152.7140637689
 21
147.356609057
 31
0.0
  0
LINE
  5
D0
  8
0
  6
CONTINUOUS
 62
     7
 10
151.7140647225
 20
148.2101475701
 30
0.0
 11
151.7140647225
 21
147.356609057
 31
0.0
  0
LINE
  5
D1
  8
0
  6
CONTINUOUS
 62
     7
 10
77.3140629582
 20
148.2101475701
 30
0.0
 11
77.3140629582
 21
147.356609057
 31
0.0
  0
LINE
  5
D2
  8
0
  6
CONTINUOUS
 62
     7
 10
78.3140620046
 20
148.2101475701
 30
0.0
 11
78.3140620046
 21
147.356609057
 31
0.0
  0
LINE
  5
D3
  8
0
  6
CONTINUOUS
 62
     7
 10
77.3140629582
 20
147.356609057
 30
0.0
 11
77.3140629582
 21
139.5021771894
 31
0.0
  0
LINE
  5
D4
  8
0
  6
CONTINUOUS
 62
     7
 10
78.3140620046
 20
147.356609057
 30
0.0
 11
78.3140620046
 21
139.5021771894
 31
0.0
  0
LINE
  5
D5
  8
0
  6
CONTINUOUS
 62
     7
 10
152.7140637689
 20
147.356609057
 30
0.0
 11
152.7140637689
 21
139.5021771894
 31
0.0
  0
LINE
  5
D6
  8
0
  6
CONTINUOUS
 62
     7
 10
151.7140647225
 20
147.356609057
 30
0.0
 11
151.7140647225
 21
139.5021771894
 31
0.0
  0
LINE
  5
D7
  8
0
  6
CONTINUOUS
 62
     7
 10
152.7140637689
 20
139.5021771894
 30
0.0
 11
152.7140637689
 21
138.737091969
 31
0.0
  0
LINE
  5
D8
  8
0
  6
CONTINUOUS
 62
     7
 10
151.7140647225
 20
139.5021771894
 30
0.0
 11
151.7140647225
 21
138.737091969
 31
0.0
  0
LINE
  5
D9
  8
0
  6
CONTINUOUS
 62
     7
 10
78.3140620046
 20
136.7370938764
 30
0.0
 11
77.3140629582
 21
136.7370938764
 31
0.0
  0
LINE
  5
DA
  8
0
  6
CONTINUOUS
 62
     7
 10
77.3140629582
 20
138.737091969
 30
0.0
 11
77.3140629582
 21
136.7370938764
 31
0.0
  0
LINE
  5
DB
  8
0
  6
CONTINUOUS
 62
     7
 10
78.3140620046
 20
138.737091969
 30
0.0
 11
78.3140620046
 21
136.7370938764
 31
0.0
  0
LINE
  5
DC
  8
0
  6
CONTINUOUS
 62
     7
 10
151.7140647225
 20
136.7370938764
 30
0.0
 11
152.7140637689
 21
136.7370938764
 31
0.0
  0
LINE
  5
DD
  8
0
  6
CONTINUOUS
 62
     7
 10
152.7140637689
 20
138.737091969
 30
0.0
 11
152.7140637689
 21
136.7370938764
 31
0.0
  0
LINE
  5
DE
  8
0
  6
CONTINUOUS
 62
     7
 10
151.7140647225
 20
138.737091969
 30
0.0
 11
151.7140647225
 21
136.7370938764
 31
0.0
  0
LINE
  5
DF
  8
0
  6
CONTINUOUS
 62
     7
 10
77.3140629582
 20
139.5021771894
 30
0.0
 11
77.3140629582
 21
138.737091969
 31
0.0
  0
LINE
  5
E0
  8
0
  6
CONTINUOUS
 62
     7
 10
78.3140620046
 20
139.5021771894
 30
0.0
 11
78.3140620046
 21
138.737091969
 31
0.0
  0
LINE
  5
E1
  8
0
  6
CONTINUOUS
 62
     7
 10
157.5140645556
 20
132.5370943055
 30
0.0
 11
157.5140645556
 21
139.5370935903
 31
0.0
  0
ARC
  5
E2
  8
0
  6
CONTINUOUS
 62
     7
 10
155.5140633635
 20
132.5370935903
 30
0.0
 40
2.0
 50
270.0
 51
0.0
  0
LINE
  5
E3
  8
0
  6
CONTINUOUS
 62
     7
 10
155.5140634828
 20
130.5370962129
 30
0.0
 11
149.5140632443
 21
130.5370962129
 31
0.0
  0
ARC
  5
E4
  8
0
  6
CONTINUOUS
 62
     7
 10
149.5140633635
 20
132.5370935903
 30
0.0
 40
2.0
 50
180.0
 51
270.0
  0
LINE
  5
E5
  8
0
  6
CONTINUOUS
 62
     7
 10
147.5140621715
 20
139.5370935903
 30
0.0
 11
147.5140621715
 21
132.5370943055
 31
0.0
  0
CIRCLE
  5
E6
  8
0
  6
CONTINUOUS
 62
     7
 10
152.5140633635
 20
133.9370935903
 30
0.0
 40
1.0
  0
LINE
  5
E7
  8
0
  6
CONTINUOUS
 62
     7
 10
157.5140645556
 20
139.5370935903
 30
0.0
 11
157.5140645556
 21
140.5370926366
 31
0.0
  0
LINE
  5
E8
  8
0
  6
CONTINUOUS
 62
     7
 10
157.5140645556
 20
140.5370926366
 30
0.0
 11
152.7140637689
 21
140.5370926366
 31
0.0
  0
LINE
  5
E9
  8
0
  6
CONTINUOUS
 62
     7
 10
151.7140647225
 20
140.5370926366
 30
0.0
 11
147.5140621715
 21
140.5370926366
 31
0.0
  0
LINE
  5
EA
  8
0
  6
CONTINUOUS
 62
     7
 10
147.5140621715
 20
139.5370935903
 30
0.0
 11
147.5140621715
 21
140.5370926366
 31
0.0
  0
LINE
  5
EB
  8
0
  6
CONTINUOUS
 62
     7
 10
72.5140621715
 20
139.5370935903
 30
0.0
 11
72.5140621715
 21
140.5370926366
 31
0.0
  0
LINE
  5
EC
  8
0
  6
CONTINUOUS
 62
     7
 10
77.3140629582
 20
140.5370926366
 30
0.0
 11
72.5140621715
 21
140.5370926366
 31
0.0
  0
LINE
  5
ED
  8
0
  6
CONTINUOUS
 62
     7
 10
82.5140645556
 20
132.5370943055
 30
0.0
 11
82.5140645556
 21
139.5370935903
 31
0.0
  0
ARC
  5
EE
  8
0
  6
CONTINUOUS
 62
     7
 10
80.5140633635
 20
132.5370935903
 30
0.0
 40
2.0
 50
270.0
 51
0.0
  0
LINE
  5
EF
  8
0
  6
CONTINUOUS
 62
     7
 10
72.5140621715
 20
132.5370943055
 30
0.0
 11
72.5140621715
 21
139.5370935903
 31
0.0
  0
CIRCLE
  5
F0
  8
0
  6
CONTINUOUS
 62
     7
 10
77.5140633635
 20
133.9370935903
 30
0.0
 40
1.000000000000014
  0
LINE
  5
F1
  8
0
  6
CONTINUOUS
 62
     7
 10
80.5140634828
 20
130.5370962129
 30
0.0
 11
74.5140632443
 21
130.5370962129
 31
0.0
  0
ARC
  5
F2
  8
0
  6
CONTINUOUS
 62
     7
 10
74.5140633635
 20
132.5370935903
 30
0.0
 40
2.0
 50
180.0
 51
270.0
  0
LINE
  5
F3
  8
0
  6
CONTINUOUS
 62
     7
 10
82.5140645556
 20
140.5370926366
 30
0.0
 11
78.3140620046
 21
140.5370926366
 31
0.0
  0
LINE
  5
F4
  8
0
  6
CONTINUOUS
 62
     7
 10
82.5140645556
 20
140.5370926366
 30
0.0
 11
82.5140645556
 21
139.5370935903
 31
0.0
  0
LINE
  5
F5
  8
0
  6
CONTINUOUS
 62
     7
 10
308.2837567201
 20
140.5370926366
 30
0.0
 11
308.2837567201
 21
165.5370926366
 31
0.0
  0
LINE
  5
F6
  8
0
  6
CONTINUOUS
 62
     7
 10
302.8837567662
 20
165.5370926366
 30
0.0
 11
302.8837567662
 21
140.5370926366
 31
0.0
  0
ARC
  5
F7
  8
0
  6
CONTINUOUS
 62
     7
 10
320.5837568035
 20
165.5370935903
 30
0.0
 40
12.30000000000001
 50
90.0
 51
180.0
  0
ARC
  5
F8
  8
0
  6
CONTINUOUS
 62
     7
 10
320.5837568035
 20
165.5370935903
 30
0.0
 40
17.70000000000005
 50
90.0
 51
180.0
  0
LINE
  5
F9
  8
0
  6
CONTINUOUS
 62
     7
 10
311.5837567022
 20
131.2370931611
 30
0.0
 11
340.5837566128
 21
131.2370931611
 31
0.0
  0
LINE
  5
FA
  8
0
  6
CONTINUOUS
 62
     7
 10
340.5837566128
 20
136.6370951638
 30
0.0
 11
311.5837567022
 21
136.6370951638
 31
0.0
  0
LINE
  5
FB
  8
0
  6
CONTINUOUS
 62
     7
 10
340.5837566128
 20
183.2370972142
 30
0.0
 11
320.5837563147
 21
183.2370972142
 31
0.0
  0
LINE
  5
FC
  8
0
  6
CONTINUOUS
 62
     7
 10
320.5837563147
 20
177.8370952115
 30
0.0
 11
340.5837566128
 21
177.8370952115
 31
0.0
  0
ARC
  5
FD
  8
0
  6
CONTINUOUS
 62
     7
 10
340.5837568035
 20
148.9370935903
 30
0.0
 40
12.30000000000001
 50
270.0
 51
0.0
  0
ARC
  5
FE
  8
0
  6
CONTINUOUS
 62
     7
 10
340.5837568035
 20
148.9370935903
 30
0.0
 40
17.69999999999999
 50
270.0
 51
0.0
  0
ARC
  5
FF
  8
0
  6
CONTINUOUS
 62
     7
 10
340.5837568035
 20
165.5370935903
 30
0.0
 40
12.30000000000001
 50
0.0
 51
90.0
  0
ARC
  5
100
  8
0
  6
CONTINUOUS
 62
     7
 10
340.5837568035
 20
165.5370935903
 30
0.0
 40
17.70000000000002
 50
360.0
 51
90.0
  0
LINE
  5
101
  8
0
  6
CONTINUOUS
 62
     7
 10
358.2837552299
 20
148.9370917783
 30
0.0
 11
358.2837552299
 21
165.5370926366
 31
0.0
  0
LINE
  5
102
  8
0
  6
CONTINUOUS
 62
     7
 10
352.8837562075
 20
165.5370926366
 30
0.0
 11
352.8837562075
 21
148.9370917783
 31
0.0
  0
POLYLINE
  5
103
  8
0
  6
CONTINUOUS
 62
     7
 66
     1
 10
0.0
 20
0.0
 30
0.0
  0
VERTEX
  5
28C
  8
0
  6
CONTINUOUS
 62
     7
 10
292.0199007263
 20
235.955569695
 30
0.0
  0
VERTEX
  5
28D
  8
0
  6
CONTINUOUS
 62
     7
 10
291.9257998934
 20
236.6955255971
 30
0.0
  0
VERTEX
  5
28E
  8
0
  6
CONTINUOUS
 62
     7
 10
291.7969897857
 20
237.6041149602
 30
0.0
  0
VERTEX
  5
28F
  8
0
  6
CONTINUOUS
 62
     7
 10
291.6557655206
 20
238.5053967939
 30
0.0
  0
VERTEX
  5
290
  8
0
  6
CONTINUOUS
 62
     7
 10
291.5029466619
 20
239.3935417638
 30
0.0
  0
VERTEX
  5
291
  8
0
  6
CONTINUOUS
 62
     7
 10
291.3414001932
 20
240.2543639646
 30
0.0
  0
VERTEX
  5
292
  8
0
  6
CONTINUOUS
 62
     7
 10
291.1703035703
 20
241.0952662931
 30
0.0
  0
VERTEX
  5
293
  8
0
  6
CONTINUOUS
 62
     7
 10
290.9901664128
 20
241.9148301587
 30
0.0
  0
VERTEX
  5
294
  8
0
  6
CONTINUOUS
 62
     7
 10
290.801952826
 20
242.7092408643
 30
0.0
  0
VERTEX
  5
295
  8
0
  6
CONTINUOUS
 62
     7
 10
290.6065851917
 20
243.4748863683
 30
0.0
  0
VERTEX
  5
296
  8
0
  6
CONTINUOUS
 62
     7
 10
290.4048577418
 20
244.208536099
 30
0.0
  0
VERTEX
  5
297
  8
0
  6
CONTINUOUS
 62
     7
 10
290.1972979774
 20
244.9076151357
 30
0.0
  0
VERTEX
  5
298
  8
0
  6
CONTINUOUS
 62
     7
 10
289.9841562381
 20
245.5699419484
 30
0.0
  0
VERTEX
  5
299
  8
0
  6
CONTINUOUS
 62
     7
 10
289.7683352699
 20
246.186325501
 30
0.0
  0
VERTEX
  5
29A
  8
0
  6
CONTINUOUS
 62
     7
 10
289.544817852
 20
246.7696165548
 30
0.0
  0
VERTEX
  5
29B
  8
0
  6
CONTINUOUS
 62
     7
 10
289.3077984919
 20
247.3284339414
 30
0.0
  0
VERTEX
  5
29C
  8
0
  6
CONTINUOUS
 62
     7
 10
289.0480429401
 20
247.8710269437
 30
0.0
  0
VERTEX
  5
29D
  8
0
  6
CONTINUOUS
 62
     7
 10
288.7409210672
 20
248.4194373593
 30
0.0
  0
VERTEX
  5
29E
  8
0
  6
CONTINUOUS
 62
     7
 10
288.4891584983
 20
248.7964486585
 30
0.0
  0
VERTEX
  5
29F
  8
0
  6
CONTINUOUS
 62
     7
 10
288.2356495132
 20
249.1155361638
 30
0.0
  0
VERTEX
  5
2A0
  8
0
  6
CONTINUOUS
 62
     7
 10
287.9870370498
 20
249.3768548474
 30
0.0
  0
VERTEX
  5
2A1
  8
0
  6
CONTINUOUS
 62
     7
 10
287.7183244099
 20
249.6105169759
 30
0.0
  0
VERTEX
  5
2A2
  8
0
  6
CONTINUOUS
 62
     7
 10
287.4237984886
 20
249.8173212514
 30
0.0
  0
VERTEX
  5
2A3
  8
0
  6
CONTINUOUS
 62
     7
 10
287.0990381112
 20
249.9946450696
 30
0.0
  0
VERTEX
  5
2A4
  8
0
  6
CONTINUOUS
 62
     7
 10
286.7442936172
 20
250.1359080777
 30
0.0
  0
VERTEX
  5
2A5
  8
0
  6
CONTINUOUS
 62
     7
 10
286.3643780818
 20
250.2333020673
 30
0.0
  0
VERTEX
  5
2A6
  8
0
  6
CONTINUOUS
 62
     7
 10
285.9673381319
 20
250.2801990018
 30
0.0
  0
VERTEX
  5
2A7
  8
0
  6
CONTINUOUS
 62
     7
 10
285.5188638439
 20
250.268087338
 30
0.0
  0
VERTEX
  5
2A8
  8
0
  6
CONTINUOUS
 62
     7
 10
285.465905117
 20
250.258514832
 30
0.0
  0
SEQEND
  5
489
  8
0
  6
CONTINUOUS
 62
     7
  0
POLYLINE
  5
104
  8
0
  6
CONTINUOUS
 62
     7
 66
     1
 10
0.0
 20
0.0
 30
0.0
  0
VERTEX
  5
2A9
  8
0
  6
CONTINUOUS
 62
     7
 10
293.9971499612
 20
180.7921623693
 30
0.0
  0
VERTEX
  5
2AA
  8
0
  6
CONTINUOUS
 62
     7
 10
294.2638367882
 20
180.830297421
 30
0.0
  0
VERTEX
  5
2AB
  8
0
  6
CONTINUOUS
 62
     7
 10
294.6595184972
 20
180.9465860829
 30
0.0
  0
VERTEX
  5
2AC
  8
0
  6
CONTINUOUS
 62
     7
 10
295.0211748948
 20
181.1094498143
 30
0.0
  0
VERTEX
  5
2AD
  8
0
  6
CONTINUOUS
 62
     7
 10
295.3452036252
 20
181.3095426068
 30
0.0
  0
VERTEX
  5
2AE
  8
0
  6
CONTINUOUS
 62
     7
 10
295.6301458647
 20
181.537721108
 30
0.0
  0
VERTEX
  5
2AF
  8
0
  6
CONTINUOUS
 62
     7
 10
295.8770476749
 20
181.7861294255
 30
0.0
  0
VERTEX
  5
2B0
  8
0
  6
CONTINUOUS
 62
     7
 10
296.0896447768
 20
182.0499157415
 30
0.0
  0
VERTEX
  5
2B1
  8
0
  6
CONTINUOUS
 62
     7
 10
296.273897635
 20
182.3290204511
 30
0.0
  0
VERTEX
  5
2B2
  8
0
  6
CONTINUOUS
 62
     7
 10
296.4372650256
 20
182.6303219304
 30
0.0
  0
VERTEX
  5
2B3
  8
0
  6
CONTINUOUS
 62
     7
 10
296.5889193585
 20
182.9732870565
 30
0.0
  0
VERTEX
  5
2B4
  8
0
  6
CONTINUOUS
 62
     7
 10
296.7330091169
 20
183.3793019757
 30
0.0
  0
VERTEX
  5
2B5
  8
0
  6
CONTINUOUS
 62
     7
 10
296.8804374804
 20
183.9128946767
 30
0.0
  0
VERTEX
  5
2B6
  8
0
  6
CONTINUOUS
 62
     7
 10
297.0055193176
 20
184.5070576177
 30
0.0
  0
VERTEX
  5
2B7
  8
0
  6
CONTINUOUS
 62
     7
 10
297.1011423042
 20
185.0980734334
 30
0.0
  0
VERTEX
  5
2B8
  8
0
  6
CONTINUOUS
 62
     7
 10
297.1840933432
 20
185.7687091336
 30
0.0
  0
VERTEX
  5
2B9
  8
0
  6
CONTINUOUS
 62
     7
 10
297.2473189702
 20
186.4557003484
 30
0.0
  0
VERTEX
  5
2BA
  8
0
  6
CONTINUOUS
 62
     7
 10
297.2941413989
 20
187.1669983373
 30
0.0
  0
VERTEX
  5
2BB
  8
0
  6
CONTINUOUS
 62
     7
 10
297.3251067569
 20
187.8884887204
 30
0.0
  0
VERTEX
  5
2BC
  8
0
  6
CONTINUOUS
 62
     7
 10
297.3425508013
 20
188.6597966657
 30
0.0
  0
VERTEX
  5
2BD
  8
0
  6
CONTINUOUS
 62
     7
 10
297.3458409777
 20
189.462814282
 30
0.0
  0
VERTEX
  5
2BE
  8
0
  6
CONTINUOUS
 62
     7
 10
297.3349914422
 20
190.2939176068
 30
0.0
  0
VERTEX
  5
2BF
  8
0
  6
CONTINUOUS
 62
     7
 10
297.3099545111
 20
191.1481594548
 30
0.0
  0
VERTEX
  5
2C0
  8
0
  6
CONTINUOUS
 62
     7
 10
297.2707190087
 20
192.0197939382
 30
0.0
  0
VERTEX
  5
2C1
  8
0
  6
CONTINUOUS
 62
     7
 10
297.2173549702
 20
192.9025983319
 30
0.0
  0
VERTEX
  5
2C2
  8
0
  6
CONTINUOUS
 62
     7
 10
297.1500948539
 20
193.7899445996
 30
0.0
  0
VERTEX
  5
2C3
  8
0
  6
CONTINUOUS
 62
     7
 10
297.0690176358
 20
194.6832990155
 30
0.0
  0
VERTEX
  5
2C4
  8
0
  6
CONTINUOUS
 62
     7
 10
296.9731249382
 20
195.593664597
 30
0.0
  0
VERTEX
  5
2C5
  8
0
  6
CONTINUOUS
 62
     7
 10
296.8940966298
 20
196.2534641729
 30
0.0
  0
SEQEND
  5
488
  8
0
  6
CONTINUOUS
 62
     7
  0
LINE
  5
105
  8
0
  6
CONTINUOUS
 62
     7
 10
296.8962118497
 20
196.2537979589
 30
0.0
 11
292.0214385261
 21
235.9556531415
 31
0.0
  0
POLYLINE
  5
106
  8
0
  6
CONTINUOUS
 62
     7
 66
     1
 10
0.0
 20
0.0
 30
0.0
  0
VERTEX
  5
2C6
  8
0
  6
CONTINUOUS
 62
     7
 10
291.5547594895
 20
195.5980872617
 30
0.0
  0
VERTEX
  5
2C7
  8
0
  6
CONTINUOUS
 62
     7
 10
291.639910685
 20
194.8751544461
 30
0.0
  0
VERTEX
  5
2C8
  8
0
  6
CONTINUOUS
 62
     7
 10
291.726286756
 20
194.0387820707
 30
0.0
  0
VERTEX
  5
2C9
  8
0
  6
CONTINUOUS
 62
     7
 10
291.7994350662
 20
193.2122444616
 30
0.0
  0
VERTEX
  5
2CA
  8
0
  6
CONTINUOUS
 62
     7
 10
291.8588459959
 20
192.4015259252
 30
0.0
  0
VERTEX
  5
2CB
  8
0
  6
CONTINUOUS
 62
     7
 10
291.9045895805
 20
191.6121816144
 30
0.0
  0
VERTEX
  5
2CC
  8
0
  6
CONTINUOUS
 62
     7
 10
291.937677609
 20
190.8371901021
 30
0.0
  0
VERTEX
  5
2CD
  8
0
  6
CONTINUOUS
 62
     7
 10
291.9581830969
 20
190.0817489133
 30
0.0
  0
VERTEX
  5
2CE
  8
0
  6
CONTINUOUS
 62
     7
 10
291.9661999216
 20
189.3548702703
 30
0.0
  0
VERTEX
  5
2CF
  8
0
  6
CONTINUOUS
 62
     7
 10
291.9621229639
 20
188.6668300138
 30
0.0
  0
VERTEX
  5
2D0
  8
0
  6
CONTINUOUS
 62
     7
 10
291.9467181434
 20
188.0261992917
 30
0.0
  0
VERTEX
  5
2D1
  8
0
  6
CONTINUOUS
 62
     7
 10
291.9210955968
 20
187.4410128102
 30
0.0
  0
VERTEX
  5
2D2
  8
0
  6
CONTINUOUS
 62
     7
 10
291.8867215981
 20
186.9142388806
 30
0.0
  0
VERTEX
  5
2D3
  8
0
  6
CONTINUOUS
 62
     7
 10
291.8436706533
 20
186.4279603467
 30
0.0
  0
VERTEX
  5
2D4
  8
0
  6
CONTINUOUS
 62
     7
 10
291.7948887219
 20
186.0038732991
 30
0.0
  0
VERTEX
  5
2D5
  8
0
  6
CONTINUOUS
 62
     7
 10
291.7427644601
 20
185.6453513608
 30
0.0
  0
VERTEX
  5
2D6
  8
0
  6
CONTINUOUS
 62
     7
 10
291.6908354034
 20
185.3582477079
 30
0.0
  0
VERTEX
  5
2D7
  8
0
  6
CONTINUOUS
 62
     7
 10
291.6488022079
 20
185.1676797376
 30
0.0
  0
VERTEX
  5
2D8
  8
0
  6
CONTINUOUS
 62
     7
 10
291.6153878441
 20
185.0411152349
 30
0.0
  0
VERTEX
  5
2D9
  8
0
  6
CONTINUOUS
 62
     7
 10
291.5946662893
 20
184.9750136838
 30
0.0
  0
VERTEX
  5
2DA
  8
0
  6
CONTINUOUS
 62
     7
 10
291.5917456617
 20
184.96675248
 30
0.0
  0
SEQEND
  5
487
  8
0
  6
CONTINUOUS
 62
     7
  0
POLYLINE
  5
107
  8
0
  6
CONTINUOUS
 62
     7
 66
     1
 10
0.0
 20
0.0
 30
0.0
  0
VERTEX
  5
2DB
  8
0
  6
CONTINUOUS
 62
     7
 10
284.1419801583
 20
245.6267928586
 30
0.0
  0
VERTEX
  5
2DC
  8
0
  6
CONTINUOUS
 62
     7
 10
284.1407046189
 20
245.6283902631
 30
0.0
  0
VERTEX
  5
2DD
  8
0
  6
CONTINUOUS
 62
     7
 10
284.1660514941
 20
245.5882286534
 30
0.0
  0
VERTEX
  5
2DE
  8
0
  6
CONTINUOUS
 62
     7
 10
284.2179954519
 20
245.4971646772
 30
0.0
  0
VERTEX
  5
2DF
  8
0
  6
CONTINUOUS
 62
     7
 10
284.2949495187
 20
245.3482365117
 30
0.0
  0
VERTEX
  5
2E0
  8
0
  6
CONTINUOUS
 62
     7
 10
284.3947321644
 20
245.13609166
 30
0.0
  0
VERTEX
  5
2E1
  8
0
  6
CONTINUOUS
 62
     7
 10
284.5143929591
 20
244.857892941
 30
0.0
  0
VERTEX
  5
2E2
  8
0
  6
CONTINUOUS
 62
     7
 10
284.6503720155
 20
244.5136761174
 30
0.0
  0
VERTEX
  5
2E3
  8
0
  6
CONTINUOUS
 62
     7
 10
284.7987980118
 20
244.1060399518
 30
0.0
  0
VERTEX
  5
2E4
  8
0
  6
CONTINUOUS
 62
     7
 10
284.9557891955
 20
243.6396216855
 30
0.0
  0
VERTEX
  5
2E5
  8
0
  6
CONTINUOUS
 62
     7
 10
285.1177961101
 20
243.1200241552
 30
0.0
  0
VERTEX
  5
2E6
  8
0
  6
CONTINUOUS
 62
     7
 10
285.281731235
 20
242.5539946065
 30
0.0
  0
VERTEX
  5
2E7
  8
0
  6
CONTINUOUS
 62
     7
 10
285.4481861462
 20
241.9363474355
 30
0.0
  0
VERTEX
  5
2E8
  8
0
  6
CONTINUOUS
 62
     7
 10
285.6147036424
 20
241.2723755345
 30
0.0
  0
VERTEX
  5
2E9
  8
0
  6
CONTINUOUS
 62
     7
 10
285.7790709009
 20
240.5674671636
 30
0.0
  0
VERTEX
  5
2EA
  8
0
  6
CONTINUOUS
 62
     7
 10
285.9392211308
 20
239.8272728429
 30
0.0
  0
VERTEX
  5
2EB
  8
0
  6
CONTINUOUS
 62
     7
 10
286.0932395329
 20
239.0576457486
 30
0.0
  0
VERTEX
  5
2EC
  8
0
  6
CONTINUOUS
 62
     7
 10
286.2393498888
 20
238.2647251592
 30
0.0
  0
VERTEX
  5
2ED
  8
0
  6
CONTINUOUS
 62
     7
 10
286.3758191933
 20
237.4556159482
 30
0.0
  0
VERTEX
  5
2EE
  8
0
  6
CONTINUOUS
 62
     7
 10
286.5013510456
 20
236.6377329335
 30
0.0
  0
VERTEX
  5
2EF
  8
0
  6
CONTINUOUS
 62
     7
 10
286.616465496
 20
235.8079766736
 30
0.0
  0
VERTEX
  5
2F0
  8
0
  6
CONTINUOUS
 62
     7
 10
286.6795987358
 20
235.2997159467
 30
0.0
  0
SEQEND
  5
486
  8
0
  6
CONTINUOUS
 62
     7
  0
LINE
  5
108
  8
0
  6
CONTINUOUS
 62
     7
 10
286.6815403571
 20
235.2999901281
 30
0.0
 11
291.5563136806
 21
195.5981468663
 31
0.0
  0
LINE
  5
109
  8
0
  6
CONTINUOUS
 62
     7
 10
286.1641377678
 20
238.6728977666
 30
0.0
 11
291.8707311621
 21
192.1964144216
 31
0.0
  0
ARC
  5
10A
  8
0
  6
CONTINUOUS
 62
     7
 10
284.0870542665
 20
247.3838752424
 30
0.0
 40
2.690000000000031
 50
97.0
 51
165.4352045702
  0
ARC
  5
10B
  8
0
  6
CONTINUOUS
 62
     7
 10
284.0870542665
 20
247.3838752424
 30
0.0
 40
2.690000000000005
 50
208.5742842993
 51
277.0
  0
ARC
  5
10C
  8
0
  6
CONTINUOUS
 62
     7
 10
291.9622512373
 20
183.2455429233
 30
0.0
 40
2.689999999999995
 50
97.0
 51
165.4352045702
  0
ARC
  5
10D
  8
0
  6
CONTINUOUS
 62
     7
 10
291.9622512373
 20
183.2455429233
 30
0.0
 40
2.69000000000001
 50
208.5742842993
 51
277.0
  0
LINE
  5
10E
  8
0
  6
CONTINUOUS
 62
     7
 10
281.1836317649
 20
246.01987357
 30
0.0
 11
281.7262009253
 21
246.086487721
 31
0.0
  0
LINE
  5
10F
  8
0
  6
CONTINUOUS
 62
     7
 10
281.4824626317
 20
248.0715846524
 30
0.0
 11
280.9398934712
 21
248.0049585805
 31
0.0
  0
LINE
  5
110
  8
0
  6
CONTINUOUS
 62
     7
 10
289.0588284006
 20
181.88153262
 30
0.0
 11
289.6013990512
 21
181.9481586919
 31
0.0
  0
LINE
  5
111
  8
0
  6
CONTINUOUS
 62
     7
 10
289.3576592674
 20
183.9332437024
 30
0.0
 11
288.8150901069
 21
183.8666295514
 31
0.0
  0
POLYLINE
  5
112
  8
0
  6
CONTINUOUS
 62
     7
 66
     1
 10
0.0
 20
0.0
 30
0.0
  0
VERTEX
  5
2F1
  8
0
  6
CONTINUOUS
 62
     7
 10
386.4768416157
 20
153.7458455072
 30
0.0
  0
VERTEX
  5
2F2
  8
0
  6
CONTINUOUS
 62
     7
 10
386.4714891186
 20
154.0151929364
 30
0.0
  0
VERTEX
  5
2F3
  8
0
  6
CONTINUOUS
 62
     7
 10
386.404290842
 20
154.4220959649
 30
0.0
  0
VERTEX
  5
2F4
  8
0
  6
CONTINUOUS
 62
     7
 10
386.2867087593
 20
154.8009013639
 30
0.0
  0
VERTEX
  5
2F5
  8
0
  6
CONTINUOUS
 62
     7
 10
386.127606081
 20
155.1469003663
 30
0.0
  0
VERTEX
  5
2F6
  8
0
  6
CONTINUOUS
 62
     7
 10
385.9358519783
 20
155.4575299726
 30
0.0
  0
VERTEX
  5
2F7
  8
0
  6
CONTINUOUS
 62
     7
 10
385.7193798294
 20
155.7328617082
 30
0.0
  0
VERTEX
  5
2F8
  8
0
  6
CONTINUOUS
 62
     7
 10
385.4834765663
 20
155.976024817
 30
0.0
  0
VERTEX
  5
2F9
  8
0
  6
CONTINUOUS
 62
     7
 10
385.2289051285
 20
156.1929141984
 30
0.0
  0
VERTEX
  5
2FA
  8
0
  6
CONTINUOUS
 62
     7
 10
384.9497646561
 20
156.3917850957
 30
0.0
  0
VERTEX
  5
2FB
  8
0
  6
CONTINUOUS
 62
     7
 10
384.6278340092
 20
156.5841054425
 30
0.0
  0
VERTEX
  5
2FC
  8
0
  6
CONTINUOUS
 62
     7
 10
384.2424005737
 20
156.7766046033
 30
0.0
  0
VERTEX
  5
2FD
  8
0
  6
CONTINUOUS
 62
     7
 10
383.730754303
 20
156.9879626737
 30
0.0
  0
VERTEX
  5
2FE
  8
0
  6
CONTINUOUS
 62
     7
 10
383.1562668552
 20
157.1845209108
 30
0.0
  0
VERTEX
  5
2FF
  8
0
  6
CONTINUOUS
 62
     7
 10
382.5813144913
 20
157.3514556394
 30
0.0
  0
VERTEX
  5
300
  8
0
  6
CONTINUOUS
 62
     7
 10
381.9257766476
 20
157.5155233846
 30
0.0
  0
VERTEX
  5
301
  8
0
  6
CONTINUOUS
 62
     7
 10
381.2516183128
 20
157.6619958387
 30
0.0
  0
VERTEX
  5
302
  8
0
  6
CONTINUOUS
 62
     7
 10
380.5513233414
 20
157.7951585755
 30
0.0
  0
VERTEX
  5
303
  8
0
  6
CONTINUOUS
 62
     7
 10
379.8389882316
 20
157.9138195024
 30
0.0
  0
VERTEX
  5
304
  8
0
  6
CONTINUOUS
 62
     7
 10
379.07555406
 20
158.0251311765
 30
0.0
  0
VERTEX
  5
305
  8
0
  6
CONTINUOUS
 62
     7
 10
378.2789260616
 20
158.1262623773
 30
0.0
  0
VERTEX
  5
306
  8
0
  6
CONTINUOUS
 62
     7
 10
377.4526983967
 20
158.2167779908
 30
0.0
  0
VERTEX
  5
307
  8
0
  6
CONTINUOUS
 62
     7
 10
376.601758646
 20
158.296034287
 30
0.0
  0
VERTEX
  5
308
  8
0
  6
CONTINUOUS
 62
     7
 10
375.7318526974
 20
158.36331601
 30
0.0
  0
VERTEX
  5
309
  8
0
  6
CONTINUOUS
 62
     7
 10
374.8491138687
 20
158.4179377065
 30
0.0
  0
VERTEX
  5
30A
  8
0
  6
CONTINUOUS
 62
     7
 10
373.9601940384
 20
158.4593152509
 30
0.0
  0
VERTEX
  5
30B
  8
0
  6
CONTINUOUS
 62
     7
 10
373.0636150112
 20
158.4877168641
 30
0.0
  0
VERTEX
  5
30C
  8
0
  6
CONTINUOUS
 62
     7
 10
372.1483439674
 20
158.5034882531
 30
0.0
  0
VERTEX
  5
30D
  8
0
  6
CONTINUOUS
 62
     7
 10
371.4838296642
 20
158.5054552064
 30
0.0
  0
SEQEND
  5
485
  8
0
  6
CONTINUOUS
 62
     7
  0
ARC
  5
113
  8
0
  6
CONTINUOUS
 62
     7
 10
331.1851594189
 20
103.3526134459
 30
0.0
 40
55.15425742298835
 50
89.689920985
 51
97.9477118465
  0
LINE
  5
114
  8
0
  6
CONTINUOUS
 62
     7
 10
371.4837581386
 20
158.5075950132
 30
0.0
 11
358.2837552299
 21
158.5075950132
 31
0.0
  0
LINE
  5
115
  8
0
  6
CONTINUOUS
 62
     7
 10
352.8837562075
 20
158.5075950132
 30
0.0
 11
331.4837575426
 21
158.5075950132
 31
0.0
  0
POLYLINE
  5
116
  8
0
  6
CONTINUOUS
 62
     7
 66
     1
 10
0.0
 20
0.0
 30
0.0
  0
VERTEX
  5
30E
  8
0
  6
CONTINUOUS
 62
     7
 10
371.4836270084
 20
153.1260466085
 30
0.0
  0
VERTEX
  5
30F
  8
0
  6
CONTINUOUS
 62
     7
 10
372.2115487327
 20
153.1224584088
 30
0.0
  0
VERTEX
  5
310
  8
0
  6
CONTINUOUS
 62
     7
 10
373.0522186031
 20
153.1062638269
 30
0.0
  0
VERTEX
  5
311
  8
0
  6
CONTINUOUS
 62
     7
 10
373.8815039863
 20
153.078136395
 30
0.0
  0
VERTEX
  5
312
  8
0
  6
CONTINUOUS
 62
     7
 10
374.6934205761
 20
153.0383026109
 30
0.0
  0
VERTEX
  5
313
  8
0
  6
CONTINUOUS
 62
     7
 10
375.4824549427
 20
152.9875075326
 30
0.0
  0
VERTEX
  5
314
  8
0
  6
CONTINUOUS
 62
     7
 10
376.2557000389
 20
152.9259061322
 30
0.0
  0
VERTEX
  5
315
  8
0
  6
CONTINUOUS
 62
     7
 10
377.0080119839
 20
152.8541898236
 30
0.0
  0
VERTEX
  5
316
  8
0
  6
CONTINUOUS
 62
     7
 10
377.7304500809
 20
152.7735626207
 30
0.0
  0
VERTEX
  5
317
  8
0
  6
CONTINUOUS
 62
     7
 10
378.4128696194
 20
152.685663651
 30
0.0
  0
VERTEX
  5
318
  8
0
  6
CONTINUOUS
 62
     7
 10
379.0468365421
 20
152.5923048959
 30
0.0
  0
VERTEX
  5
319
  8
0
  6
CONTINUOUS
 62
     7
 10
379.6245426407
 20
152.4955546365
 30
0.0
  0
VERTEX
  5
31A
  8
0
  6
CONTINUOUS
 62
     7
 10
380.1432043781
 20
152.3972367749
 30
0.0
  0
VERTEX
  5
31B
  8
0
  6
CONTINUOUS
 62
     7
 10
380.62060182
 20
152.2952472673
 30
0.0
  0
VERTEX
  5
31C
  8
0
  6
CONTINUOUS
 62
     7
 10
381.0355872383
 20
152.1951472268
 30
0.0
  0
VERTEX
  5
31D
  8
0
  6
CONTINUOUS
 62
     7
 10
381.3850850334
 20
152.0997142301
 30
0.0
  0
VERTEX
  5
31E
  8
0
  6
CONTINUOUS
 62
     7
 10
381.6637248268
 20
152.0131861673
 30
0.0
  0
VERTEX
  5
31F
  8
0
  6
CONTINUOUS
 62
     7
 10
381.8477482071
 20
151.9482409463
 30
0.0
  0
VERTEX
  5
320
  8
0
  6
CONTINUOUS
 62
     7
 10
381.9692939987
 20
151.8996512399
 30
0.0
  0
VERTEX
  5
321
  8
0
  6
CONTINUOUS
 62
     7
 10
382.0323735943
 20
151.8710290895
 30
0.0
  0
VERTEX
  5
322
  8
0
  6
CONTINUOUS
 62
     7
 10
382.040223526
 20
151.8671249852
 30
0.0
  0
SEQEND
  5
484
  8
0
  6
CONTINUOUS
 62
     7
  0
LINE
  5
117
  8
0
  6
CONTINUOUS
 62
     7
 10
342.4837559929
 20
153.1275963292
 30
0.0
 11
352.8837562075
 21
153.1275963292
 31
0.0
  0
LINE
  5
118
  8
0
  6
CONTINUOUS
 62
     7
 10
358.2837552299
 20
153.1275963292
 30
0.0
 11
371.4837581386
 21
153.1275963292
 31
0.0
  0
LINE
  5
119
  8
0
  6
CONTINUOUS
 62
     7
 10
342.4837559929
 20
153.0251061425
 30
0.0
 11
352.8837562075
 21
153.0251061425
 31
0.0
  0
LINE
  5
11A
  8
0
  6
CONTINUOUS
 62
     7
 10
358.2837552299
 20
153.0251061425
 30
0.0
 11
374.8984486332
 21
153.0251061425
 31
0.0
  0
ARC
  5
11B
  8
0
  6
CONTINUOUS
 62
     7
 10
383.7937568035
 20
152.0251048648
 30
0.0
 40
2.689999999999998
 50
180.0
 51
270.0
  0
ARC
  5
11C
  8
0
  6
CONTINUOUS
 62
     7
 10
383.7937568035
 20
152.0251048648
 30
0.0
 40
2.690000000000055
 50
270.0
 51
0.0
  0
LINE
  5
11D
  8
0
  6
CONTINUOUS
 62
     7
 10
300.383756729
 20
130.737093638
 30
0.0
 11
299.5837569704
 21
130.737093638
 31
0.0
  0
LINE
  5
11E
  8
0
  6
CONTINUOUS
 62
     7
 10
299.5837569704
 20
130.737093638
 30
0.0
 11
299.5837569704
 21
132.7370917306
 31
0.0
  0
LINE
  5
11F
  8
0
  6
CONTINUOUS
 62
     7
 10
310.7837569436
 20
139.3370961652
 30
0.0
 11
310.7837569436
 21
132.7370917306
 31
0.0
  0
ARC
  5
120
  8
0
  6
CONTINUOUS
 62
     7
 10
310.3837568035
 20
139.3370935903
 30
0.0
 40
0.4000000000000057
 50
0.0
 51
90.0
  0
LINE
  5
121
  8
0
  6
CONTINUOUS
 62
     7
 10
300.7837567946
 20
139.7370910154
 30
0.0
 11
301.3837568929
 21
139.7370910154
 31
0.0
  0
LINE
  5
122
  8
0
  6
CONTINUOUS
 62
     7
 10
309.3837567141
 20
139.7370910154
 30
0.0
 11
310.383756878
 21
139.7370910154
 31
0.0
  0
LINE
  5
123
  8
0
  6
CONTINUOUS
 62
     7
 10
300.7837567946
 20
140.5370926366
 30
0.0
 11
310.383756878
 21
140.5370926366
 31
0.0
  0
ARC
  5
124
  8
0
  6
CONTINUOUS
 62
     7
 10
310.3837568035
 20
139.3370935903
 30
0.0
 40
1.200000000000017
 50
0.0
 51
90.0
  0
LINE
  5
125
  8
0
  6
CONTINUOUS
 62
     7
 10
311.5837567022
 20
139.3370961652
 30
0.0
 11
311.5837567022
 21
132.7370917306
 31
0.0
  0
ARC
  5
126
  8
0
  6
CONTINUOUS
 62
     7
 10
300.7837568035
 20
139.3370935903
 30
0.0
 40
1.200000000000017
 50
90.0
 51
180.0
  0
LINE
  5
127
  8
0
  6
CONTINUOUS
 62
     7
 10
300.383756729
 20
138.737091969
 30
0.0
 11
300.383756729
 21
139.3370961652
 31
0.0
  0
LINE
  5
128
  8
0
  6
CONTINUOUS
 62
     7
 10
299.5837569704
 20
132.7370917306
 30
0.0
 11
299.5837569704
 21
139.3370961652
 31
0.0
  0
ARC
  5
129
  8
0
  6
CONTINUOUS
 62
     7
 10
300.7837568035
 20
139.3370935903
 30
0.0
 40
0.4000000000000057
 50
90.0
 51
180.0
  0
LINE
  5
12A
  8
0
  6
CONTINUOUS
 62
     7
 10
311.5837567022
 20
130.737093638
 30
0.0
 11
310.7837569436
 21
130.737093638
 31
0.0
  0
LINE
  5
12B
  8
0
  6
CONTINUOUS
 62
     7
 10
310.7837569436
 20
130.737093638
 30
0.0
 11
310.7837569436
 21
132.7370917306
 31
0.0
  0
LINE
  5
12C
  8
0
  6
CONTINUOUS
 62
     7
 10
311.5837567022
 20
132.7370917306
 30
0.0
 11
311.5837567022
 21
130.737093638
 31
0.0
  0
ARC
  5
12D
  8
0
  6
CONTINUOUS
 62
     7
 10
301.3837568035
 20
138.7370935903
 30
0.0
 40
1.0
 50
90.0
 51
180.0
  0
LINE
  5
12E
  8
0
  6
CONTINUOUS
 62
     7
 10
300.383756729
 20
130.737093638
 30
0.0
 11
300.383756729
 21
138.737091969
 31
0.0
  0
ARC
  5
12F
  8
0
  6
CONTINUOUS
 62
     7
 10
301.3837568035
 20
130.7370935903
 30
0.0
 40
1.0
 50
180.0
 51
270.0
  0
LINE
  5
130
  8
0
  6
CONTINUOUS
 62
     7
 10
301.3837568929
 20
139.7370910154
 30
0.0
 11
309.3837567141
 21
139.7370910154
 31
0.0
  0
LINE
  5
131
  8
0
  6
CONTINUOUS
 62
     7
 10
309.3837567141
 20
129.7370945916
 30
0.0
 11
301.3837568929
 21
129.7370945916
 31
0.0
  0
LINE
  5
132
  8
0
  6
CONTINUOUS
 62
     7
 10
310.383756878
 20
138.737091969
 30
0.0
 11
310.383756878
 21
130.737093638
 31
0.0
  0
ARC
  5
133
  8
0
  6
CONTINUOUS
 62
     7
 10
309.3837568035
 20
138.7370935903
 30
0.0
 40
1.0
 50
0.0
 51
90.0
  0
ARC
  5
134
  8
0
  6
CONTINUOUS
 62
     7
 10
309.3837568035
 20
130.7370935903
 30
0.0
 40
1.0
 50
270.0
 51
0.0
  0
LINE
  5
135
  8
0
  6
CONTINUOUS
 62
     7
 10
293.3837570717
 20
64.5370935903
 30
0.0
 11
293.3837570717
 21
65.7370936007
 31
0.0
  0
LINE
  5
136
  8
0
  6
CONTINUOUS
 62
     7
 10
297.3837569823
 20
64.5370935903
 30
0.0
 11
293.3837570717
 21
64.5370935903
 31
0.0
  0
LINE
  5
137
  8
0
  6
CONTINUOUS
 62
     7
 10
293.3837570717
 20
65.7370936007
 30
0.0
 11
297.3837569823
 21
65.7370936007
 31
0.0
  0
LINE
  5
138
  8
0
  6
CONTINUOUS
 62
     7
 10
297.3837569823
 20
64.5370935903
 30
0.0
 11
299.3837569376
 21
64.5370935903
 31
0.0
  0
LINE
  5
139
  8
0
  6
CONTINUOUS
 62
     7
 10
297.3837569823
 20
65.7370936007
 30
0.0
 11
299.3837569376
 21
65.7370936007
 31
0.0
  0
LINE
  5
13A
  8
0
  6
CONTINUOUS
 62
     7
 10
299.3837569376
 20
64.5370935903
 30
0.0
 11
326.7521784177
 21
64.5370935903
 31
0.0
  0
LINE
  5
13B
  8
0
  6
CONTINUOUS
 62
     7
 10
326.7521784177
 20
65.7370936007
 30
0.0
 11
299.3837569376
 21
65.7370936007
 31
0.0
  0
LINE
  5
13C
  8
0
  6
CONTINUOUS
 62
     7
 10
329.3837562671
 20
65.7370936007
 30
0.0
 11
329.3837562671
 21
64.5370935903
 31
0.0
  0
LINE
  5
13D
  8
0
  6
CONTINUOUS
 62
     7
 10
329.3837562671
 20
64.5370935903
 30
0.0
 11
326.7521784177
 21
64.5370935903
 31
0.0
  0
LINE
  5
13E
  8
0
  6
CONTINUOUS
 62
     7
 10
326.7521784177
 20
65.7370936007
 30
0.0
 11
329.3837562671
 21
65.7370936007
 31
0.0
  0
LINE
  5
13F
  8
0
  6
CONTINUOUS
 62
     7
 10
300.383756729
 20
65.7370936007
 30
0.0
 11
300.383756729
 21
129.5370912061
 31
0.0
  0
LINE
  5
140
  8
0
  6
CONTINUOUS
 62
     7
 10
310.383756878
 20
130.737093638
 30
0.0
 11
310.383756878
 21
65.7370936007
 31
0.0
  0
POLYLINE
  5
141
  8
0
  6
CONTINUOUS
 62
     7
 66
     1
 10
0.0
 20
0.0
 30
0.0
  0
VERTEX
  5
323
  8
0
  6
CONTINUOUS
 62
     7
 10
285.4642540684
 20
250.2631759153
 30
0.0
  0
VERTEX
  5
324
  8
0
  6
CONTINUOUS
 62
     7
 10
285.0124121179
 20
250.2076959119
 30
0.0
  0
VERTEX
  5
325
  8
0
  6
CONTINUOUS
 62
     7
 10
284.629795002
 20
250.1607155309
 30
0.0
  0
VERTEX
  5
326
  8
0
  6
CONTINUOUS
 62
     7
 10
284.3165487518
 20
250.1222586141
 30
0.0
  0
VERTEX
  5
327
  8
0
  6
CONTINUOUS
 62
     7
 10
284.0727881064
 20
250.0923251615
 30
0.0
  0
VERTEX
  5
328
  8
0
  6
CONTINUOUS
 62
     7
 10
283.8986084332
 20
250.0709390149
 30
0.0
  0
VERTEX
  5
329
  8
0
  6
CONTINUOUS
 62
     7
 10
283.7940752973
 20
250.0581001744
 30
0.0
  0
VERTEX
  5
32A
  8
0
  6
CONTINUOUS
 62
     7
 10
283.7592259517
 20
250.0538205609
 30
0.0
  0
SEQEND
  5
483
  8
0
  6
CONTINUOUS
 62
     7
  0
ARC
  5
142
  8
0
  6
CONTINUOUS
 62
     7
 10
284.1111097859
 20
247.3892132284
 30
0.0
 40
2.711877846193315
 50
165.6589414935
 51
187.0498969926
  0
POLYLINE
  5
143
  8
0
  6
CONTINUOUS
 62
     7
 66
     1
 10
0.0
 20
0.0
 30
0.0
  0
VERTEX
  5
32B
  8
0
  6
CONTINUOUS
 62
     7
 10
284.4148830046
 20
244.713923882
 30
0.0
  0
VERTEX
  5
32C
  8
0
  6
CONTINUOUS
 62
     7
 10
284.4497323503
 20
244.7182034955
 30
0.0
  0
VERTEX
  5
32D
  8
0
  6
CONTINUOUS
 62
     7
 10
284.5302761068
 20
244.7280978665
 30
0.0
  0
SEQEND
  5
482
  8
0
  6
CONTINUOUS
 62
     7
  0
POLYLINE
  5
144
  8
0
  6
CONTINUOUS
 62
     7
 66
     1
 10
0.0
 20
0.0
 30
0.0
  0
VERTEX
  5
32E
  8
0
  6
CONTINUOUS
 62
     7
 10
281.7248657813
 20
246.0971211896
 30
0.0
  0
VERTEX
  5
32F
  8
0
  6
CONTINUOUS
 62
     7
 10
281.7284137478
 20
246.090505074
 30
0.0
  0
VERTEX
  5
330
  8
0
  6
CONTINUOUS
 62
     7
 10
281.6910237541
 20
246.1619472013
 30
0.0
  0
VERTEX
  5
331
  8
0
  6
CONTINUOUS
 62
     7
 10
281.6168606748
 20
246.3216518865
 30
0.0
  0
VERTEX
  5
332
  8
0
  6
CONTINUOUS
 62
     7
 10
281.5245092382
 20
246.5721702085
 30
0.0
  0
VERTEX
  5
333
  8
0
  6
CONTINUOUS
 62
     7
 10
281.4457327595
 20
246.8881821141
 30
0.0
  0
VERTEX
  5
334
  8
0
  6
CONTINUOUS
 62
     7
 10
281.4197347035
 20
247.0563745008
 30
0.0
  0
SEQEND
  5
481
  8
0
  6
CONTINUOUS
 62
     7
  0
POLYLINE
  5
145
  8
0
  6
CONTINUOUS
 62
     7
 66
     1
 10
0.0
 20
0.0
 30
0.0
  0
VERTEX
  5
335
  8
0
  6
CONTINUOUS
 62
     7
 10
291.7511106005
 20
185.9298204885
 30
0.0
  0
VERTEX
  5
336
  8
0
  6
CONTINUOUS
 62
     7
 10
291.6692719331
 20
185.9197711454
 30
0.0
  0
VERTEX
  5
337
  8
0
  6
CONTINUOUS
 62
     7
 10
291.6344225874
 20
185.9154915319
 30
0.0
  0
SEQEND
  5
480
  8
0
  6
CONTINUOUS
 62
     7
  0
ARC
  5
146
  8
0
  6
CONTINUOUS
 62
     7
 10
291.9873714808
 20
183.2508163856
 30
0.0
 40
2.712926520729074
 50
165.6631254354
 51
187.0459686315
  0
POLYLINE
  5
147
  8
0
  6
CONTINUOUS
 62
     7
 66
     1
 10
0.0
 20
0.0
 30
0.0
  0
VERTEX
  5
338
  8
0
  6
CONTINUOUS
 62
     7
 10
292.2900796404
 20
180.5755948529
 30
0.0
  0
VERTEX
  5
339
  8
0
  6
CONTINUOUS
 62
     7
 10
292.3249289861
 20
180.5798744664
 30
0.0
  0
VERTEX
  5
33A
  8
0
  6
CONTINUOUS
 62
     7
 10
292.4294636121
 20
180.5927133069
 30
0.0
  0
VERTEX
  5
33B
  8
0
  6
CONTINUOUS
 62
     7
 10
292.6036432853
 20
180.6140994535
 30
0.0
  0
VERTEX
  5
33C
  8
0
  6
CONTINUOUS
 62
     7
 10
292.8474024405
 20
180.6440209851
 30
0.0
  0
VERTEX
  5
33D
  8
0
  6
CONTINUOUS
 62
     7
 10
293.1606494357
 20
180.6824898229
 30
0.0
  0
VERTEX
  5
33E
  8
0
  6
CONTINUOUS
 62
     7
 10
293.5432658067
 20
180.7294702039
 30
0.0
  0
VERTEX
  5
33F
  8
0
  6
CONTINUOUS
 62
     7
 10
293.9951077571
 20
180.7849502072
 30
0.0
  0
SEQEND
  5
47F
  8
0
  6
CONTINUOUS
 62
     7
  0
POLYLINE
  5
148
  8
0
  6
CONTINUOUS
 62
     7
 66
     1
 10
0.0
 20
0.0
 30
0.0
  0
VERTEX
  5
340
  8
0
  6
CONTINUOUS
 62
     7
 10
289.6000639071
 20
181.9587921605
 30
0.0
  0
VERTEX
  5
341
  8
0
  6
CONTINUOUS
 62
     7
 10
289.6036103835
 20
181.952164124
 30
0.0
  0
VERTEX
  5
342
  8
0
  6
CONTINUOUS
 62
     7
 10
289.5662203898
 20
182.0236181722
 30
0.0
  0
VERTEX
  5
343
  8
0
  6
CONTINUOUS
 62
     7
 10
289.4920588007
 20
182.1833228574
 30
0.0
  0
VERTEX
  5
344
  8
0
  6
CONTINUOUS
 62
     7
 10
289.399705874
 20
182.4338411794
 30
0.0
  0
VERTEX
  5
345
  8
0
  6
CONTINUOUS
 62
     7
 10
289.3209293952
 20
182.7498530851
 30
0.0
  0
VERTEX
  5
346
  8
0
  6
CONTINUOUS
 62
     7
 10
289.2949328294
 20
182.9180335508
 30
0.0
  0
SEQEND
  5
47E
  8
0
  6
CONTINUOUS
 62
     7
  0
LINE
  5
149
  8
0
  6
CONTINUOUS
 62
     7
 10
293.9951077571
 20
180.7849502072
 30
0.0
 11
294.0429524054
 21
180.7912682996
 31
0.0
  0
LINE
  5
14A
  8
0
  6
CONTINUOUS
 62
     7
 10
283.2242027392
 20
180.1676964269
 30
0.0
 11
274.8639643659
 21
248.2563709722
 31
0.0
  0
POLYLINE
  5
14B
  8
0
  6
CONTINUOUS
 62
     7
 66
     1
 10
0.0
 20
0.0
 30
0.0
  0
VERTEX
  5
347
  8
0
  6
CONTINUOUS
 62
     7
 10
284.2167482247
 20
180.2895760045
 30
0.0
  0
VERTEX
  5
348
  8
0
  6
CONTINUOUS
 62
     7
 10
284.0231121054
 20
180.2657937513
 30
0.0
  0
VERTEX
  5
349
  8
0
  6
CONTINUOUS
 62
     7
 10
283.8369176259
 20
180.2429294095
 30
0.0
  0
VERTEX
  5
34A
  8
0
  6
CONTINUOUS
 62
     7
 10
283.6653188338
 20
180.2218651281
 30
0.0
  0
VERTEX
  5
34B
  8
0
  6
CONTINUOUS
 62
     7
 10
283.5149124732
 20
180.2033996091
 30
0.0
  0
VERTEX
  5
34C
  8
0
  6
CONTINUOUS
 62
     7
 10
283.3914772143
 20
180.1882361875
 30
0.0
  0
VERTEX
  5
34D
  8
0
  6
CONTINUOUS
 62
     7
 10
283.2997560968
 20
180.1769828305
 30
0.0
  0
VERTEX
  5
34E
  8
0
  6
CONTINUOUS
 62
     7
 10
283.2432732453
 20
180.1700448499
 30
0.0
  0
VERTEX
  5
34F
  8
0
  6
CONTINUOUS
 62
     7
 10
283.2242027392
 20
180.1676964269
 30
0.0
  0
SEQEND
  5
47D
  8
0
  6
CONTINUOUS
 62
     7
  0
POLYLINE
  5
14C
  8
0
  6
CONTINUOUS
 62
     7
 66
     1
 10
0.0
 20
0.0
 30
0.0
  0
VERTEX
  5
350
  8
0
  6
CONTINUOUS
 62
     7
 10
274.8639643659
 20
248.2563709722
 30
0.0
  0
VERTEX
  5
351
  8
0
  6
CONTINUOUS
 62
     7
 10
274.8830378523
 20
248.2587074742
 30
0.0
  0
VERTEX
  5
352
  8
0
  6
CONTINUOUS
 62
     7
 10
274.9395192137
 20
248.2656454549
 30
0.0
  0
VERTEX
  5
353
  8
0
  6
CONTINUOUS
 62
     7
 10
275.031238841
 20
248.2769107328
 30
0.0
  0
VERTEX
  5
354
  8
0
  6
CONTINUOUS
 62
     7
 10
275.1546740999
 20
248.2920622335
 30
0.0
  0
VERTEX
  5
355
  8
0
  6
CONTINUOUS
 62
     7
 10
275.3050834408
 20
248.3105277524
 30
0.0
  0
VERTEX
  5
356
  8
0
  6
CONTINUOUS
 62
     7
 10
275.4766792526
 20
248.3316039548
 30
0.0
  0
VERTEX
  5
357
  8
0
  6
CONTINUOUS
 62
     7
 10
275.6628752222
 20
248.3544563756
 30
0.0
  0
VERTEX
  5
358
  8
0
  6
CONTINUOUS
 62
     7
 10
275.8565128317
 20
248.3782386289
 30
0.0
  0
SEQEND
  5
47C
  8
0
  6
CONTINUOUS
 62
     7
  0
LINE
  5
14D
  8
0
  6
CONTINUOUS
 62
     7
 10
288.1869331469
 20
180.7770466313
 30
0.0
 11
284.2167482247
 21
180.2895760045
 31
0.0
  0
LINE
  5
14E
  8
0
  6
CONTINUOUS
 62
     7
 10
279.8266947737
 20
248.8657092557
 30
0.0
 11
275.8565128317
 21
248.3782386289
 31
0.0
  0
LINE
  5
14F
  8
0
  6
CONTINUOUS
 62
     7
 10
280.8192417493
 20
248.9875888333
 30
0.0
 11
289.1794786324
 21
180.8989142881
 31
0.0
  0
POLYLINE
  5
150
  8
0
  6
CONTINUOUS
 62
     7
 66
     1
 10
0.0
 20
0.0
 30
0.0
  0
VERTEX
  5
359
  8
0
  6
CONTINUOUS
 62
     7
 10
289.1794786324
 20
180.8989142881
 30
0.0
  0
VERTEX
  5
35A
  8
0
  6
CONTINUOUS
 62
     7
 10
289.1604081263
 20
180.896577786
 30
0.0
  0
VERTEX
  5
35B
  8
0
  6
CONTINUOUS
 62
     7
 10
289.1039267649
 20
180.8896398053
 30
0.0
  0
VERTEX
  5
35C
  8
0
  6
CONTINUOUS
 62
     7
 10
289.0122056475
 20
180.8783745275
 30
0.0
  0
VERTEX
  5
35D
  8
0
  6
CONTINUOUS
 62
     7
 10
288.8887688985
 20
180.8632230268
 30
0.0
  0
VERTEX
  5
35E
  8
0
  6
CONTINUOUS
 62
     7
 10
288.7383625378
 20
180.8447575078
 30
0.0
  0
VERTEX
  5
35F
  8
0
  6
CONTINUOUS
 62
     7
 10
288.5667637458
 20
180.8236813054
 30
0.0
  0
VERTEX
  5
360
  8
0
  6
CONTINUOUS
 62
     7
 10
288.3805692663
 20
180.8008288846
 30
0.0
  0
VERTEX
  5
361
  8
0
  6
CONTINUOUS
 62
     7
 10
288.1869331469
 20
180.7770466313
 30
0.0
  0
SEQEND
  5
47B
  8
0
  6
CONTINUOUS
 62
     7
  0
POLYLINE
  5
151
  8
0
  6
CONTINUOUS
 62
     7
 66
     1
 10
0.0
 20
0.0
 30
0.0
  0
VERTEX
  5
362
  8
0
  6
CONTINUOUS
 62
     7
 10
279.8266947737
 20
248.8657092557
 30
0.0
  0
VERTEX
  5
363
  8
0
  6
CONTINUOUS
 62
     7
 10
280.0203323831
 20
248.889491509
 30
0.0
  0
VERTEX
  5
364
  8
0
  6
CONTINUOUS
 62
     7
 10
280.2065283527
 20
248.9123558507
 30
0.0
  0
VERTEX
  5
365
  8
0
  6
CONTINUOUS
 62
     7
 10
280.3781241646
 20
248.9334201322
 30
0.0
  0
VERTEX
  5
366
  8
0
  6
CONTINUOUS
 62
     7
 10
280.5285320153
 20
248.9518856511
 30
0.0
  0
VERTEX
  5
367
  8
0
  6
CONTINUOUS
 62
     7
 10
280.6519687643
 20
248.9670490728
 30
0.0
  0
VERTEX
  5
368
  8
0
  6
CONTINUOUS
 62
     7
 10
280.7436898818
 20
248.9783024297
 30
0.0
  0
VERTEX
  5
369
  8
0
  6
CONTINUOUS
 62
     7
 10
280.8001712432
 20
248.9852404103
 30
0.0
  0
VERTEX
  5
36A
  8
0
  6
CONTINUOUS
 62
     7
 10
280.8192417493
 20
248.9875888333
 30
0.0
  0
SEQEND
  5
47A
  8
0
  6
CONTINUOUS
 62
     7
  0
LINE
  5
152
  8
0
  6
CONTINUOUS
 62
     7
 10
300.383756729
 20
129.5370912061
 30
0.0
 11
299.7837566306
 21
129.5370912061
 31
0.0
  0
LINE
  5
153
  8
0
  6
CONTINUOUS
 62
     7
 10
300.383756729
 20
130.5370962129
 30
0.0
 11
300.383756729
 21
129.5370912061
 31
0.0
  0
LINE
  5
154
  8
0
  6
CONTINUOUS
 62
     7
 10
299.7837566306
 20
129.5370912061
 30
0.0
 11
299.7837566306
 21
130.5370962129
 31
0.0
  0
LINE
  5
155
  8
0
  6
CONTINUOUS
 62
     7
 10
311.3837566694
 20
130.5370962129
 30
0.0
 11
311.3837566694
 21
129.5370912061
 31
0.0
  0
LINE
  5
156
  8
0
  6
CONTINUOUS
 62
     7
 10
311.3837566694
 20
129.5370912061
 30
0.0
 11
310.7837569436
 21
129.5370912061
 31
0.0
  0
LINE
  5
157
  8
0
  6
CONTINUOUS
 62
     7
 10
310.7837569436
 20
129.5370912061
 30
0.0
 11
310.7837569436
 21
130.5370962129
 31
0.0
  0
LINE
  5
158
  8
0
  6
CONTINUOUS
 62
     7
 10
283.998237597
 20
173.8636946187
 30
0.0
 11
283.2242027392
 21
180.1676964269
 31
0.0
  0
POLYLINE
  5
159
  8
0
  6
CONTINUOUS
 62
     7
 66
     1
 10
0.0
 20
0.0
 30
0.0
  0
VERTEX
  5
36B
  8
0
  6
CONTINUOUS
 62
     7
 10
284.2167482247
 20
180.2895760045
 30
0.0
  0
VERTEX
  5
36C
  8
0
  6
CONTINUOUS
 62
     7
 10
284.0231121054
 20
180.2657937513
 30
0.0
  0
VERTEX
  5
36D
  8
0
  6
CONTINUOUS
 62
     7
 10
283.8369176259
 20
180.2429294095
 30
0.0
  0
VERTEX
  5
36E
  8
0
  6
CONTINUOUS
 62
     7
 10
283.6653188338
 20
180.2218651281
 30
0.0
  0
VERTEX
  5
36F
  8
0
  6
CONTINUOUS
 62
     7
 10
283.5149124732
 20
180.2033996091
 30
0.0
  0
VERTEX
  5
370
  8
0
  6
CONTINUOUS
 62
     7
 10
283.3914772143
 20
180.1882361875
 30
0.0
  0
VERTEX
  5
371
  8
0
  6
CONTINUOUS
 62
     7
 10
283.2997560968
 20
180.1769828305
 30
0.0
  0
VERTEX
  5
372
  8
0
  6
CONTINUOUS
 62
     7
 10
283.2432732453
 20
180.1700448499
 30
0.0
  0
VERTEX
  5
373
  8
0
  6
CONTINUOUS
 62
     7
 10
283.2242027392
 20
180.1676964269
 30
0.0
  0
SEQEND
  5
479
  8
0
  6
CONTINUOUS
 62
     7
  0
ARC
  5
15A
  8
0
  6
CONTINUOUS
 62
     7
 10
302.8566137867
 20
176.1792137431
 30
0.0
 40
18.99999999999999
 50
187.0
 51
203.0
  0
LINE
  5
15B
  8
0
  6
CONTINUOUS
 62
     7
 10
298.7837568393
 20
129.5370912061
 30
0.0
 11
294.7837569287
 21
129.5370912061
 31
0.0
  0
LINE
  5
15C
  8
0
  6
CONTINUOUS
 62
     7
 10
285.3670210113
 20
168.755326222
 30
0.0
 11
292.7503198852
 21
151.3613616929
 31
0.0
  0
LINE
  5
15D
  8
0
  6
CONTINUOUS
 62
     7
 10
289.9535134902
 20
174.5949124799
 30
0.0
 11
289.1794786324
 21
180.8989142881
 31
0.0
  0
POLYLINE
  5
15E
  8
0
  6
CONTINUOUS
 62
     7
 66
     1
 10
0.0
 20
0.0
 30
0.0
  0
VERTEX
  5
374
  8
0
  6
CONTINUOUS
 62
     7
 10
289.1794786324
 20
180.8989142881
 30
0.0
  0
VERTEX
  5
375
  8
0
  6
CONTINUOUS
 62
     7
 10
289.1604081263
 20
180.896577786
 30
0.0
  0
VERTEX
  5
376
  8
0
  6
CONTINUOUS
 62
     7
 10
289.1039267649
 20
180.8896398053
 30
0.0
  0
VERTEX
  5
377
  8
0
  6
CONTINUOUS
 62
     7
 10
289.0122056475
 20
180.8783745275
 30
0.0
  0
VERTEX
  5
378
  8
0
  6
CONTINUOUS
 62
     7
 10
288.8887688985
 20
180.8632230268
 30
0.0
  0
VERTEX
  5
379
  8
0
  6
CONTINUOUS
 62
     7
 10
288.7383625378
 20
180.8447575078
 30
0.0
  0
VERTEX
  5
37A
  8
0
  6
CONTINUOUS
 62
     7
 10
288.5667637458
 20
180.8236813054
 30
0.0
  0
VERTEX
  5
37B
  8
0
  6
CONTINUOUS
 62
     7
 10
288.3805692663
 20
180.8008288846
 30
0.0
  0
VERTEX
  5
37C
  8
0
  6
CONTINUOUS
 62
     7
 10
288.1869331469
 20
180.7770466313
 30
0.0
  0
SEQEND
  5
478
  8
0
  6
CONTINUOUS
 62
     7
  0
ARC
  5
15F
  8
0
  6
CONTINUOUS
 62
     7
 10
302.8566137867
 20
176.1792137431
 30
0.0
 40
13.00000000000002
 50
187.0
 51
203.0
  0
LINE
  5
160
  8
0
  6
CONTINUOUS
 62
     7
 10
290.8900499811
 20
171.0997080312
 30
0.0
 11
298.273348855
 21
153.7057494626
 31
0.0
  0
LINE
  5
161
  8
0
  6
CONTINUOUS
 62
     7
 10
293.7837571373
 20
146.2818538652
 30
0.0
 11
293.7837571373
 21
129.5370912061
 31
0.0
  0
LINE
  5
162
  8
0
  6
CONTINUOUS
 62
     7
 10
294.7837569287
 20
129.5370912061
 30
0.0
 11
293.7837571373
 21
129.5370912061
 31
0.0
  0
ARC
  5
163
  8
0
  6
CONTINUOUS
 62
     7
 10
280.7837568035
 20
146.2818567995
 30
0.0
 40
13.0
 50
0.0
 51
23.0
  0
LINE
  5
164
  8
0
  6
CONTINUOUS
 62
     7
 10
299.7837566306
 20
129.5370912061
 30
0.0
 11
298.7837568393
 21
129.5370912061
 31
0.0
  0
ARC
  5
165
  8
0
  6
CONTINUOUS
 62
     7
 10
280.7837568035
 20
146.2818567995
 30
0.0
 40
19.0
 50
4.1945718162
 51
23.0
  0
LINE
  5
166
  8
0
  6
CONTINUOUS
 62
     7
 10
300.383756729
 20
130.737093638
 30
0.0
 11
300.383756729
 21
130.5370962129
 31
0.0
  0
LINE
  5
167
  8
0
  6
CONTINUOUS
 62
     7
 10
300.383756729
 20
130.5370962129
 30
0.0
 11
299.5837569704
 21
130.5370962129
 31
0.0
  0
LINE
  5
168
  8
0
  6
CONTINUOUS
 62
     7
 10
299.5837569704
 20
130.5370962129
 30
0.0
 11
299.5837569704
 21
130.737093638
 31
0.0
  0
ARC
  5
169
  8
0
  6
CONTINUOUS
 62
     7
 10
310.3837568035
 20
139.5370935903
 30
0.0
 40
0.1999999999999886
 50
0.0
 51
90.0
  0
LINE
  5
16A
  8
0
  6
CONTINUOUS
 62
     7
 10
310.5837569108
 20
132.5370943055
 30
0.0
 11
310.5837569108
 21
139.5370935903
 31
0.0
  0
ARC
  5
16B
  8
0
  6
CONTINUOUS
 62
     7
 10
300.5837568035
 20
139.5370935903
 30
0.0
 40
1.0
 50
90.0
 51
180.0
  0
LINE
  5
16C
  8
0
  6
CONTINUOUS
 62
     7
 10
311.3837566694
 20
130.737093638
 30
0.0
 11
311.3837566694
 21
130.5370962129
 31
0.0
  0
LINE
  5
16D
  8
0
  6
CONTINUOUS
 62
     7
 10
311.3837566694
 20
130.5370962129
 30
0.0
 11
310.5837569108
 21
130.5370962129
 31
0.0
  0
LINE
  5
16E
  8
0
  6
CONTINUOUS
 62
     7
 10
310.5837569108
 20
130.5370962129
 30
0.0
 11
310.5837569108
 21
132.5370943055
 31
0.0
  0
POLYLINE
  5
16F
  8
0
  6
CONTINUOUS
 62
     7
 66
     1
 10
0.0
 20
0.0
 30
0.0
  0
VERTEX
  5
37D
  8
0
  6
CONTINUOUS
 62
     7
 10
323.4346628656
 20
155.9291874871
 30
0.0
  0
VERTEX
  5
37E
  8
0
  6
CONTINUOUS
 62
     7
 10
323.6046299805
 20
156.293657969
 30
0.0
  0
VERTEX
  5
37F
  8
0
  6
CONTINUOUS
 62
     7
 10
323.8521546593
 20
156.6318964467
 30
0.0
  0
VERTEX
  5
380
  8
0
  6
CONTINUOUS
 62
     7
 10
324.2441654672
 20
157.0049201951
 30
0.0
  0
VERTEX
  5
381
  8
0
  6
CONTINUOUS
 62
     7
 10
324.7017816176
 20
157.3207056031
 30
0.0
  0
VERTEX
  5
382
  8
0
  6
CONTINUOUS
 62
     7
 10
325.4757762422
 20
157.6993202672
 30
0.0
  0
VERTEX
  5
383
  8
0
  6
CONTINUOUS
 62
     7
 10
326.3099477162
 20
157.9770957933
 30
0.0
  0
SEQEND
  5
477
  8
0
  6
CONTINUOUS
 62
     7
  0
POLYLINE
  5
170
  8
0
  6
CONTINUOUS
 62
     7
 66
     1
 10
0.0
 20
0.0
 30
0.0
  0
VERTEX
  5
384
  8
0
  6
CONTINUOUS
 62
     7
 10
329.2172164192
 20
153.1396662698
 30
0.0
  0
VERTEX
  5
385
  8
0
  6
CONTINUOUS
 62
     7
 10
327.1858245601
 20
153.1964337335
 30
0.0
  0
VERTEX
  5
386
  8
0
  6
CONTINUOUS
 62
     7
 10
326.0949686637
 20
153.3245658384
 30
0.0
  0
VERTEX
  5
387
  8
0
  6
CONTINUOUS
 62
     7
 10
325.0349998941
 20
153.5978114114
 30
0.0
  0
VERTEX
  5
388
  8
0
  6
CONTINUOUS
 62
     7
 10
324.3437290659
 20
153.9214825139
 30
0.0
  0
VERTEX
  5
389
  8
0
  6
CONTINUOUS
 62
     7
 10
324.028022634
 20
154.1429137693
 30
0.0
  0
VERTEX
  5
38A
  8
0
  6
CONTINUOUS
 62
     7
 10
323.751184391
 20
154.4103240476
 30
0.0
  0
VERTEX
  5
38B
  8
0
  6
CONTINUOUS
 62
     7
 10
323.4621793499
 20
154.8727368817
 30
0.0
  0
VERTEX
  5
38C
  8
0
  6
CONTINUOUS
 62
     7
 10
323.3505204787
 20
155.4097628102
 30
0.0
  0
VERTEX
  5
38D
  8
0
  6
CONTINUOUS
 62
     7
 10
323.4346628656
 20
155.9291874871
 30
0.0
  0
SEQEND
  5
476
  8
0
  6
CONTINUOUS
 62
     7
  0
LINE
  5
171
  8
0
  6
CONTINUOUS
 62
     7
 10
331.4837575426
 20
153.1480705247
 30
0.0
 11
329.2172164192
 21
153.1396662698
 31
0.0
  0
LINE
  5
172
  8
0
  6
CONTINUOUS
 62
     7
 10
342.4837559929
 20
153.1480705247
 30
0.0
 11
331.4837575426
 21
153.1480705247
 31
0.0
  0
ARC
  5
173
  8
0
  6
CONTINUOUS
 62
     7
 10
303.0897385613
 20
266.026603191
 30
0.0
 40
120.0
 50
280.9468409701
 51
289.1646231125
  0
LINE
  5
174
  8
0
  6
CONTINUOUS
 62
     7
 10
325.8775175085
 20
148.2101475701
 30
0.0
 11
321.4645714035
 21
147.356609057
 31
0.0
  0
ARC
  5
175
  8
0
  6
CONTINUOUS
 62
     7
 10
322.9837568035
 20
139.5021760418
 30
0.0
 40
8.000000000000057
 50
100.9468409701
 51
180.0
  0
LINE
  5
176
  8
0
  6
CONTINUOUS
 62
     7
 10
314.9837568869
 20
139.5021771894
 30
0.0
 11
314.9837568869
 21
138.737091969
 31
0.0
  0
ARC
  5
177
  8
0
  6
CONTINUOUS
 62
     7
 10
312.9837568035
 20
138.7370935903
 30
0.0
 40
2.0
 50
270.0
 51
0.0
  0
LINE
  5
178
  8
0
  6
CONTINUOUS
 62
     7
 10
312.9837565591
 20
136.7370938764
 30
0.0
 11
311.5837567022
 21
136.7370938764
 31
0.0
  0
LINE
  5
179
  8
0
  6
CONTINUOUS
 62
     7
 10
299.5837569704
 20
136.7370938764
 30
0.0
 11
298.7837568393
 21
136.7370938764
 31
0.0
  0
ARC
  5
17A
  8
0
  6
CONTINUOUS
 62
     7
 10
298.7837568035
 20
138.7370935903
 30
0.0
 40
2.0
 50
180.0
 51
270.0
  0
LINE
  5
17B
  8
0
  6
CONTINUOUS
 62
     7
 10
296.7837565114
 20
138.737091969
 30
0.0
 11
296.7837565114
 21
141.2981187806
 31
0.0
  0
ARC
  5
17C
  8
0
  6
CONTINUOUS
 62
     7
 10
304.7837568035
 20
141.2981180406
 30
0.0
 40
8.000000000000007
 50
140.3596923241
 51
180.0
  0
ARC
  5
17D
  8
0
  6
CONTINUOUS
 62
     7
 10
323.2653077629
 20
125.9869366971
 30
0.0
 40
32.00000000000001
 50
129.5627908875
 51
140.3596923241
  0
ARC
  5
17E
  8
0
  6
CONTINUOUS
 62
     7
 10
323.2653077629
 20
125.9869366971
 30
0.0
 40
32.00000000000001
 50
91.4211498515
 51
117.9157975373
  0
LINE
  5
17F
  8
0
  6
CONTINUOUS
 62
     7
 10
322.471669363
 20
157.9770957933
 30
0.0
 11
326.3099477162
 21
157.9770957933
 31
0.0
  0
LINE
  5
180
  8
0
  6
CONTINUOUS
 62
     7
 10
342.4837559929
 20
153.1480705247
 30
0.0
 11
342.4837559929
 21
152.6770925031
 31
0.0
  0
LINE
  5
181
  8
0
  6
CONTINUOUS
 62
     7
 10
381.1037570705
 20
152.141753386
 30
0.0
 11
381.1037570705
 21
152.0251070962
 31
0.0
  0
LINE
  5
182
  8
0
  6
CONTINUOUS
 62
     7
 10
386.4837557545
 20
152.0251070962
 30
0.0
 11
386.4837557545
 21
153.7429368005
 31
0.0
  0
LINE
  5
183
  8
0
  6
CONTINUOUS
 62
     7
 10
386.4837557545
 20
153.7429368005
 30
0.0
 11
386.4833146801
 21
153.7911927209
 31
0.0
  0
LINE
  5
184
  8
0
  6
CONTINUOUS
 62
     7
 10
172.3140647464
 20
-46.9519321923
 30
0.0
 11
172.3140647464
 21
-61.951931694
 31
0.0
  0
LINE
  5
185
  8
0
  6
CONTINUOUS
 62
     7
 10
177.7140607886
 20
-61.951931694
 30
0.0
 11
177.7140607886
 21
-46.9519321923
 31
0.0
  0
LINE
  5
186
  8
0
  6
CONTINUOUS
 62
     7
 10
177.7140607886
 20
-81.9519319921
 30
0.0
 11
177.7140607886
 21
-61.951931694
 31
0.0
  0
LINE
  5
187
  8
0
  6
CONTINUOUS
 62
     7
 10
172.3140647464
 20
-61.951931694
 30
0.0
 11
172.3140647464
 21
-81.9519319921
 31
0.0
  0
LINE
  5
188
  8
0
  6
CONTINUOUS
 62
     7
 10
172.3140647464
 20
-81.9519319921
 30
0.0
 11
172.3140647464
 21
-96.9519296079
 31
0.0
  0
LINE
  5
189
  8
0
  6
CONTINUOUS
 62
     7
 10
177.7140607886
 20
-96.9519296079
 30
0.0
 11
177.7140607886
 21
-81.9519319921
 31
0.0
  0
LINE
  5
18A
  8
0
  6
CONTINUOUS
 62
     7
 10
52.3140659385
 20
-46.9519321923
 30
0.0
 11
52.3140659385
 21
-61.951931694
 31
0.0
  0
LINE
  5
18B
  8
0
  6
CONTINUOUS
 62
     7
 10
57.7140619807
 20
-61.951931694
 30
0.0
 11
57.7140619807
 21
-46.9519321923
 31
0.0
  0
LINE
  5
18C
  8
0
  6
CONTINUOUS
 62
     7
 10
57.7140619807
 20
-81.9519319921
 30
0.0
 11
57.7140619807
 21
-61.951931694
 31
0.0
  0
LINE
  5
18D
  8
0
  6
CONTINUOUS
 62
     7
 10
52.3140659385
 20
-61.951931694
 30
0.0
 11
52.3140659385
 21
-81.9519319921
 31
0.0
  0
LINE
  5
18E
  8
0
  6
CONTINUOUS
 62
     7
 10
52.3140659385
 20
-81.9519319921
 30
0.0
 11
52.3140659385
 21
-96.9519296079
 31
0.0
  0
LINE
  5
18F
  8
0
  6
CONTINUOUS
 62
     7
 10
57.7140619807
 20
-96.9519296079
 30
0.0
 11
57.7140619807
 21
-81.9519319921
 31
0.0
  0
POLYLINE
  5
190
  8
0
  6
CONTINUOUS
 62
     7
 66
     1
 10
0.0
 20
0.0
 30
0.0
  0
VERTEX
  5
38E
  8
0
  6
CONTINUOUS
 62
     7
 10
89.4312968306
 20
-24.4962194352
 30
0.0
  0
VERTEX
  5
38F
  8
0
  6
CONTINUOUS
 62
     7
 10
88.6351963334
 20
-24.608194211
 30
0.0
  0
VERTEX
  5
390
  8
0
  6
CONTINUOUS
 62
     7
 10
87.7285113387
 20
-24.7479909449
 30
0.0
  0
VERTEX
  5
391
  8
0
  6
CONTINUOUS
 62
     7
 10
86.8312677197
 20
-24.8987743049
 30
0.0
  0
VERTEX
  5
392
  8
0
  6
CONTINUOUS
 62
     7
 10
85.9480937772
 20
-25.0598901301
 30
0.0
  0
VERTEX
  5
393
  8
0
  6
CONTINUOUS
 62
     7
 10
85.093580728
 20
-25.2281480818
 30
0.0
  0
VERTEX
  5
394
  8
0
  6
CONTINUOUS
 62
     7
 10
84.2546364121
 20
-25.4054301768
 30
0.0
  0
VERTEX
  5
395
  8
0
  6
CONTINUOUS
 62
     7
 10
83.4325631909
 20
-25.5912774592
 30
0.0
  0
VERTEX
  5
396
  8
0
  6
CONTINUOUS
 62
     7
 10
82.6334615998
 20
-25.7842325955
 30
0.0
  0
VERTEX
  5
397
  8
0
  6
CONTINUOUS
 62
     7
 10
81.8631758742
 20
-25.9828382521
 30
0.0
  0
VERTEX
  5
398
  8
0
  6
CONTINUOUS
 62
     7
 10
81.1269571834
 20
-26.1857503443
 30
0.0
  0
VERTEX
  5
399
  8
0
  6
CONTINUOUS
 62
     7
 10
80.4290106349
 20
-26.3919421821
 30
0.0
  0
VERTEX
  5
39A
  8
0
  6
CONTINUOUS
 62
     7
 10
79.7748109155
 20
-26.5995839029
 30
0.0
  0
VERTEX
  5
39B
  8
0
  6
CONTINUOUS
 62
     7
 10
79.1756292634
 20
-26.8041574745
 30
0.0
  0
VERTEX
  5
39C
  8
0
  6
CONTINUOUS
 62
     7
 10
78.5914262586
 20
-27.020097652
 30
0.0
  0
VERTEX
  5
39D
  8
0
  6
CONTINUOUS
 62
     7
 10
78.0379911714
 20
-27.2441485315
 30
0.0
  0
VERTEX
  5
39E
  8
0
  6
CONTINUOUS
 62
     7
 10
77.5076707654
 20
-27.4832764058
 30
0.0
  0
VERTEX
  5
39F
  8
0
  6
CONTINUOUS
 62
     7
 10
76.9817193799
 20
-27.7553835302
 30
0.0
  0
VERTEX
  5
3A0
  8
0
  6
CONTINUOUS
 62
     7
 10
76.5400131993
 20
-28.0261912732
 30
0.0
  0
VERTEX
  5
3A1
  8
0
  6
CONTINUOUS
 62
     7
 10
76.2353857808
 20
-28.2482111244
 30
0.0
  0
VERTEX
  5
3A2
  8
0
  6
CONTINUOUS
 62
     7
 10
75.9758582168
 20
-28.4712427645
 30
0.0
  0
VERTEX
  5
3A3
  8
0
  6
CONTINUOUS
 62
     7
 10
75.7415463977
 20
-28.7113570957
 30
0.0
  0
VERTEX
  5
3A4
  8
0
  6
CONTINUOUS
 62
     7
 10
75.5291094832
 20
-28.9761045366
 30
0.0
  0
VERTEX
  5
3A5
  8
0
  6
CONTINUOUS
 62
     7
 10
75.3395011477
 20
-29.2721399455
 30
0.0
  0
VERTEX
  5
3A6
  8
0
  6
CONTINUOUS
 62
     7
 10
75.178878551
 20
-29.6016940265
 30
0.0
  0
VERTEX
  5
3A7
  8
0
  6
CONTINUOUS
 62
     7
 10
75.0560274177
 20
-29.9617790966
 30
0.0
  0
VERTEX
  5
3A8
  8
0
  6
CONTINUOUS
 62
     7
 10
74.9793847852
 20
-30.3451800137
 30
0.0
  0
VERTEX
  5
3A9
  8
0
  6
CONTINUOUS
 62
     7
 10
74.9570092015
 20
-30.7111435919
 30
0.0
  0
SEQEND
  5
475
  8
0
  6
CONTINUOUS
 62
     7
  0
POLYLINE
  5
191
  8
0
  6
CONTINUOUS
 62
     7
 66
     1
 10
0.0
 20
0.0
 30
0.0
  0
VERTEX
  5
3AA
  8
0
  6
CONTINUOUS
 62
     7
 10
155.0672402434
 20
-30.7239317684
 30
0.0
  0
VERTEX
  5
3AB
  8
0
  6
CONTINUOUS
 62
     7
 10
155.0708344035
 20
-30.6506716995
 30
0.0
  0
VERTEX
  5
3AC
  8
0
  6
CONTINUOUS
 62
     7
 10
155.0336440854
 20
-30.251813808
 30
0.0
  0
VERTEX
  5
3AD
  8
0
  6
CONTINUOUS
 62
     7
 10
154.9467136912
 20
-29.8774027615
 30
0.0
  0
VERTEX
  5
3AE
  8
0
  6
CONTINUOUS
 62
     7
 10
154.8186113887
 20
-29.5326778083
 30
0.0
  0
VERTEX
  5
3AF
  8
0
  6
CONTINUOUS
 62
     7
 10
154.6581884675
 20
-29.2207950144
 30
0.0
  0
VERTEX
  5
3B0
  8
0
  6
CONTINUOUS
 62
     7
 10
154.4734885745
 20
-28.9420330315
 30
0.0
  0
VERTEX
  5
3B1
  8
0
  6
CONTINUOUS
 62
     7
 10
154.2699297719
 20
-28.6931821494
 30
0.0
  0
VERTEX
  5
3B2
  8
0
  6
CONTINUOUS
 62
     7
 10
154.0483435445
 20
-28.4677365213
 30
0.0
  0
VERTEX
  5
3B3
  8
0
  6
CONTINUOUS
 62
     7
 10
153.8032164626
 20
-28.2565453439
 30
0.0
  0
VERTEX
  5
3B4
  8
0
  6
CONTINUOUS
 62
     7
 10
153.5170009189
 20
-28.0458459048
 30
0.0
  0
VERTEX
  5
3B5
  8
0
  6
CONTINUOUS
 62
     7
 10
153.1440039926
 20
-27.8116026311
 30
0.0
  0
VERTEX
  5
3B6
  8
0
  6
CONTINUOUS
 62
     7
 10
152.6641836219
 20
-27.5543549447
 30
0.0
  0
VERTEX
  5
3B7
  8
0
  6
CONTINUOUS
 62
     7
 10
152.1328558974
 20
-27.3067602306
 30
0.0
  0
VERTEX
  5
3B8
  8
0
  6
CONTINUOUS
 62
     7
 10
151.5957197003
 20
-27.0831161528
 30
0.0
  0
VERTEX
  5
3B9
  8
0
  6
CONTINUOUS
 62
     7
 10
150.9775569491
 20
-26.8493824988
 30
0.0
  0
VERTEX
  5
3BA
  8
0
  6
CONTINUOUS
 62
     7
 10
150.3393878989
 20
-26.6282254248
 30
0.0
  0
VERTEX
  5
3BB
  8
0
  6
CONTINUOUS
 62
     7
 10
149.6765246444
 20
-26.4157542377
 30
0.0
  0
VERTEX
  5
3BC
  8
0
  6
CONTINUOUS
 62
     7
 10
148.9893873982
 20
-26.2108886032
 30
0.0
  0
VERTEX
  5
3BD
  8
0
  6
CONTINUOUS
 62
     7
 10
148.2563039117
 20
-26.0068648844
 30
0.0
  0
VERTEX
  5
3BE
  8
0
  6
CONTINUOUS
 62
     7
 10
147.4901011043
 20
-25.8074858575
 30
0.0
  0
VERTEX
  5
3BF
  8
0
  6
CONTINUOUS
 62
     7
 10
146.6932585292
 20
-25.6134652882
 30
0.0
  0
VERTEX
  5
3C0
  8
0
  6
CONTINUOUS
 62
     7
 10
145.8689441733
 20
-25.4257538705
 30
0.0
  0
VERTEX
  5
3C1
  8
0
  6
CONTINUOUS
 62
     7
 10
145.0208267026
 20
-25.245436409
 30
0.0
  0
VERTEX
  5
3C2
  8
0
  6
CONTINUOUS
 62
     7
 10
144.152845984
 20
-25.0736364513
 30
0.0
  0
VERTEX
  5
3C3
  8
0
  6
CONTINUOUS
 62
     7
 10
143.2691654019
 20
-24.911480525
 30
0.0
  0
VERTEX
  5
3C4
  8
0
  6
CONTINUOUS
 62
     7
 10
142.3793664031
 20
-24.7608014732
 30
0.0
  0
VERTEX
  5
3C5
  8
0
  6
CONTINUOUS
 62
     7
 10
141.477822309
 20
-24.6205428033
 30
0.0
  0
VERTEX
  5
3C6
  8
0
  6
CONTINUOUS
 62
     7
 10
140.5969103627
 20
-24.4954088121
 30
0.0
  0
SEQEND
  5
474
  8
0
  6
CONTINUOUS
 62
     7
  0
ARC
  5
192
  8
0
  6
CONTINUOUS
 62
     7
 10
114.8916221903
 20
-211.5877474139
 30
0.0
 40
188.8174305777981
 50
90.2489000752
 51
97.7494231048
  0
ARC
  5
193
  8
0
  6
CONTINUOUS
 62
     7
 10
115.220903948
 20
-210.6792575068
 30
0.0
 40
187.9058612011235
 50
82.2387238284
 51
89.7798291344
  0
POLYLINE
  5
194
  8
0
  6
CONTINUOUS
 62
     7
 66
     1
 10
0.0
 20
0.0
 30
0.0
  0
VERTEX
  5
3C7
  8
0
  6
CONTINUOUS
 62
     7
 10
79.5501163058
 20
-32.4852192192
 30
0.0
  0
VERTEX
  5
3C8
  8
0
  6
CONTINUOUS
 62
     7
 10
79.5486410909
 20
-32.4863487272
 30
0.0
  0
VERTEX
  5
3C9
  8
0
  6
CONTINUOUS
 62
     7
 10
79.58905304
 20
-32.46174542
 30
0.0
  0
VERTEX
  5
3CA
  8
0
  6
CONTINUOUS
 62
     7
 10
79.6804955058
 20
-32.4112707167
 30
0.0
  0
VERTEX
  5
3CB
  8
0
  6
CONTINUOUS
 62
     7
 10
79.8297127538
 20
-32.3363745003
 30
0.0
  0
VERTEX
  5
3CC
  8
0
  6
CONTINUOUS
 62
     7
 10
80.0417681985
 20
-32.2390714078
 30
0.0
  0
VERTEX
  5
3CD
  8
0
  6
CONTINUOUS
 62
     7
 10
80.319305306
 20
-32.1220063954
 30
0.0
  0
VERTEX
  5
3CE
  8
0
  6
CONTINUOUS
 62
     7
 10
80.6624820285
 20
-31.9882759242
 30
0.0
  0
VERTEX
  5
3CF
  8
0
  6
CONTINUOUS
 62
     7
 10
81.0693433337
 20
-31.8411463289
 30
0.0
  0
VERTEX
  5
3D0
  8
0
  6
CONTINUOUS
 62
     7
 10
81.5364351325
 20
-31.68383179
 30
0.0
  0
VERTEX
  5
3D1
  8
0
  6
CONTINUOUS
 62
     7
 10
82.0590665393
 20
-31.5194317489
 30
0.0
  0
VERTEX
  5
3D2
  8
0
  6
CONTINUOUS
 62
     7
 10
82.634349709
 20
-31.3503825455
 30
0.0
  0
VERTEX
  5
3D3
  8
0
  6
CONTINUOUS
 62
     7
 10
83.2432647996
 20
-31.1828174977
 30
0.0
  0
VERTEX
  5
3D4
  8
0
  6
CONTINUOUS
 62
     7
 10
83.9039048009
 20
-31.0121947317
 30
0.0
  0
VERTEX
  5
3D5
  8
0
  6
CONTINUOUS
 62
     7
 10
84.609379416
 20
-30.8412411599
 30
0.0
  0
VERTEX
  5
3D6
  8
0
  6
CONTINUOUS
 62
     7
 10
85.3523542933
 20
-30.6725421338
 30
0.0
  0
VERTEX
  5
3D7
  8
0
  6
CONTINUOUS
 62
     7
 10
86.1248066478
 20
-30.5086055188
 30
0.0
  0
VERTEX
  5
3D8
  8
0
  6
CONTINUOUS
 62
     7
 10
86.9169225745
 20
-30.35206286
 30
0.0
  0
VERTEX
  5
3D9
  8
0
  6
CONTINUOUS
 62
     7
 10
87.7201696687
 20
-30.2049958496
 30
0.0
  0
VERTEX
  5
3DA
  8
0
  6
CONTINUOUS
 62
     7
 10
88.5308166795
 20
-30.0681271939
 30
0.0
  0
VERTEX
  5
3DB
  8
0
  6
CONTINUOUS
 62
     7
 10
89.3598934464
 20
-29.939531663
 30
0.0
  0
VERTEX
  5
3DC
  8
0
  6
CONTINUOUS
 62
     7
 10
90.1557555251
 20
-29.8268192797
 30
0.0
  0
SEQEND
  5
473
  8
0
  6
CONTINUOUS
 62
     7
  0
POLYLINE
  5
195
  8
0
  6
CONTINUOUS
 62
     7
 66
     1
 10
0.0
 20
0.0
 30
0.0
  0
VERTEX
  5
3DD
  8
0
  6
CONTINUOUS
 62
     7
 10
139.8724218659
 20
-29.8271932988
 30
0.0
  0
VERTEX
  5
3DE
  8
0
  6
CONTINUOUS
 62
     7
 10
140.5323823743
 20
-29.9192884355
 30
0.0
  0
VERTEX
  5
3DF
  8
0
  6
CONTINUOUS
 62
     7
 10
141.3698127322
 20
-30.0475084572
 30
0.0
  0
VERTEX
  5
3E0
  8
0
  6
CONTINUOUS
 62
     7
 10
142.1989908271
 20
-30.1859327941
 30
0.0
  0
VERTEX
  5
3E1
  8
0
  6
CONTINUOUS
 62
     7
 10
143.0134465747
 20
-30.3334587603
 30
0.0
  0
VERTEX
  5
3E2
  8
0
  6
CONTINUOUS
 62
     7
 10
143.8022633843
 20
-30.4876559763
 30
0.0
  0
VERTEX
  5
3E3
  8
0
  6
CONTINUOUS
 62
     7
 10
144.570406323
 20
-30.6489163428
 30
0.0
  0
VERTEX
  5
3E4
  8
0
  6
CONTINUOUS
 62
     7
 10
145.3140487723
 20
-30.8160611777
 30
0.0
  0
VERTEX
  5
3E5
  8
0
  6
CONTINUOUS
 62
     7
 10
146.0271825843
 20
-30.9873336344
 30
0.0
  0
VERTEX
  5
3E6
  8
0
  6
CONTINUOUS
 62
     7
 10
146.7037876897
 20
-31.1608025222
 30
0.0
  0
VERTEX
  5
3E7
  8
0
  6
CONTINUOUS
 62
     7
 10
147.3380794578
 20
-31.3344010501
 30
0.0
  0
VERTEX
  5
3E8
  8
0
  6
CONTINUOUS
 62
     7
 10
147.9244371705
 20
-31.5058880835
 30
0.0
  0
VERTEX
  5
3E9
  8
0
  6
CONTINUOUS
 62
     7
 10
148.4578301959
 20
-31.6729196696
 30
0.0
  0
VERTEX
  5
3EA
  8
0
  6
CONTINUOUS
 62
     7
 10
148.937155848
 20
-31.833960989
 30
0.0
  0
VERTEX
  5
3EB
  8
0
  6
CONTINUOUS
 62
     7
 10
149.3633230977
 20
-31.9880643277
 30
0.0
  0
VERTEX
  5
3EC
  8
0
  6
CONTINUOUS
 62
     7
 10
149.7291019015
 20
-32.1311497479
 30
0.0
  0
VERTEX
  5
3ED
  8
0
  6
CONTINUOUS
 62
     7
 10
150.0277122312
 20
-32.2583818226
 30
0.0
  0
VERTEX
  5
3EE
  8
0
  6
CONTINUOUS
 62
     7
 10
150.2319237046
 20
-32.353489974
 30
0.0
  0
VERTEX
  5
3EF
  8
0
  6
CONTINUOUS
 62
     7
 10
150.3732969813
 20
-32.4256026535
 30
0.0
  0
VERTEX
  5
3F0
  8
0
  6
CONTINUOUS
 62
     7
 10
150.455485826
 20
-32.4718007236
 30
0.0
  0
VERTEX
  5
3F1
  8
0
  6
CONTINUOUS
 62
     7
 10
150.4849036984
 20
-32.4900352745
 30
0.0
  0
VERTEX
  5
3F2
  8
0
  6
CONTINUOUS
 62
     7
 10
150.482704287
 20
-32.4884333997
 30
0.0
  0
SEQEND
  5
472
  8
0
  6
CONTINUOUS
 62
     7
  0
LINE
  5
196
  8
0
  6
CONTINUOUS
 62
     7
 10
114.0140633859
 20
-22.4299379974
 30
0.0
 11
114.0140633859
 21
-22.7879100828
 31
0.0
  0
LINE
  5
197
  8
0
  6
CONTINUOUS
 62
     7
 10
116.0140633412
 20
-22.7879100828
 30
0.0
 11
116.0140633412
 21
-22.4299379974
 31
0.0
  0
ARC
  5
198
  8
0
  6
CONTINUOUS
 62
     7
 10
115.0140633635
 20
-212.8366735384
 30
0.0
 40
184.6914670168487
 50
82.2647823914
 51
97.7352176086
  0
LINE
  5
199
  8
0
  6
CONTINUOUS
 62
     7
 10
155.0728192382
 20
-35.5944381445
 30
0.0
 11
155.0728192382
 21
-30.7196640759
 31
0.0
  0
LINE
  5
19A
  8
0
  6
CONTINUOUS
 62
     7
 10
74.9553074889
 20
-30.7196640759
 30
0.0
 11
74.9553074889
 21
-35.5944381445
 31
0.0
  0
POLYLINE
  5
19B
  8
0
  6
CONTINUOUS
 62
     7
 66
     1
 10
0.0
 20
0.0
 30
0.0
  0
VERTEX
  5
3F3
  8
0
  6
CONTINUOUS
 62
     7
 10
139.8726006799
 20
-37.7012596815
 30
0.0
  0
VERTEX
  5
3F4
  8
0
  6
CONTINUOUS
 62
     7
 10
140.6492492013
 20
-37.8054649918
 30
0.0
  0
VERTEX
  5
3F5
  8
0
  6
CONTINUOUS
 62
     7
 10
141.5316780858
 20
-37.9202374606
 30
0.0
  0
VERTEX
  5
3F6
  8
0
  6
CONTINUOUS
 62
     7
 10
142.4036135726
 20
-38.030038157
 30
0.0
  0
VERTEX
  5
3F7
  8
0
  6
CONTINUOUS
 62
     7
 10
143.2611038737
 20
-38.1342948764
 30
0.0
  0
VERTEX
  5
3F8
  8
0
  6
CONTINUOUS
 62
     7
 10
144.0969874911
 20
-38.2318147807
 30
0.0
  0
VERTEX
  5
3F9
  8
0
  6
CONTINUOUS
 62
     7
 10
144.9184229426
 20
-38.3231305866
 30
0.0
  0
VERTEX
  5
3FA
  8
0
  6
CONTINUOUS
 62
     7
 10
145.7246085458
 20
-38.4076961665
 30
0.0
  0
VERTEX
  5
3FB
  8
0
  6
CONTINUOUS
 62
     7
 10
146.5091278605
 20
-38.4843008011
 30
0.0
  0
VERTEX
  5
3FC
  8
0
  6
CONTINUOUS
 62
     7
 10
147.2659131341
 20
-38.551774004
 30
0.0
  0
VERTEX
  5
3FD
  8
0
  6
CONTINUOUS
 62
     7
 10
147.9896357112
 20
-38.6090041487
 30
0.0
  0
VERTEX
  5
3FE
  8
0
  6
CONTINUOUS
 62
     7
 10
148.6762216144
 20
-38.6549310177
 30
0.0
  0
VERTEX
  5
3FF
  8
0
  6
CONTINUOUS
 62
     7
 10
149.3244102054
 20
-38.6885659187
 30
0.0
  0
VERTEX
  5
400
  8
0
  6
CONTINUOUS
 62
     7
 10
149.9424537473
 20
-38.7091958313
 30
0.0
  0
VERTEX
  5
401
  8
0
  6
CONTINUOUS
 62
     7
 10
150.5354394965
 20
-38.7150393217
 30
0.0
  0
VERTEX
  5
402
  8
0
  6
CONTINUOUS
 62
     7
 10
151.1119058185
 20
-38.7026296346
 30
0.0
  0
VERTEX
  5
403
  8
0
  6
CONTINUOUS
 62
     7
 10
151.6938527875
 20
-38.663841912
 30
0.0
  0
VERTEX
  5
404
  8
0
  6
CONTINUOUS
 62
     7
 10
152.2565921597
 20
-38.5882453411
 30
0.0
  0
VERTEX
  5
405
  8
0
  6
CONTINUOUS
 62
     7
 10
152.6225229554
 20
-38.5096558719
 30
0.0
  0
VERTEX
  5
406
  8
0
  6
CONTINUOUS
 62
     7
 10
152.9601713471
 20
-38.4090290754
 30
0.0
  0
VERTEX
  5
407
  8
0
  6
CONTINUOUS
 62
     7
 10
153.2730689101
 20
-38.2852257579
 30
0.0
  0
VERTEX
  5
408
  8
0
  6
CONTINUOUS
 62
     7
 10
153.574826365
 20
-38.1311015575
 30
0.0
  0
VERTEX
  5
409
  8
0
  6
CONTINUOUS
 62
     7
 10
153.8677831941
 20
-37.9403421073
 30
0.0
  0
VERTEX
  5
40A
  8
0
  6
CONTINUOUS
 62
     7
 10
154.1483005338
 20
-37.7079972415
 30
0.0
  0
VERTEX
  5
40B
  8
0
  6
CONTINUOUS
 62
     7
 10
154.4077953153
 20
-37.4326245277
 30
0.0
  0
VERTEX
  5
40C
  8
0
  6
CONTINUOUS
 62
     7
 10
154.6357681804
 20
-37.1168532758
 30
0.0
  0
VERTEX
  5
40D
  8
0
  6
CONTINUOUS
 62
     7
 10
154.8225333743
 20
-36.7665470927
 30
0.0
  0
VERTEX
  5
40E
  8
0
  6
CONTINUOUS
 62
     7
 10
154.9723049455
 20
-36.3478490501
 30
0.0
  0
VERTEX
  5
40F
  8
0
  6
CONTINUOUS
 62
     7
 10
154.9981256776
 20
-36.2139896839
 30
0.0
  0
SEQEND
  5
471
  8
0
  6
CONTINUOUS
 62
     7
  0
POLYLINE
  5
19C
  8
0
  6
CONTINUOUS
 62
     7
 66
     1
 10
0.0
 20
0.0
 30
0.0
  0
VERTEX
  5
410
  8
0
  6
CONTINUOUS
 62
     7
 10
75.0248601489
 20
-36.2146632164
 30
0.0
  0
VERTEX
  5
411
  8
0
  6
CONTINUOUS
 62
     7
 10
75.0258048825
 20
-36.2211735337
 30
0.0
  0
VERTEX
  5
412
  8
0
  6
CONTINUOUS
 62
     7
 10
75.1486381345
 20
-36.6265901714
 30
0.0
  0
VERTEX
  5
413
  8
0
  6
CONTINUOUS
 62
     7
 10
75.3218045287
 20
-36.9955011993
 30
0.0
  0
VERTEX
  5
414
  8
0
  6
CONTINUOUS
 62
     7
 10
75.5353351884
 20
-37.3235614388
 30
0.0
  0
VERTEX
  5
415
  8
0
  6
CONTINUOUS
 62
     7
 10
75.7792850785
 20
-37.6085491269
 30
0.0
  0
VERTEX
  5
416
  8
0
  6
CONTINUOUS
 62
     7
 10
76.043977385
 20
-37.8501483588
 30
0.0
  0
VERTEX
  5
417
  8
0
  6
CONTINUOUS
 62
     7
 10
76.3209661298
 20
-38.0502567976
 30
0.0
  0
VERTEX
  5
418
  8
0
  6
CONTINUOUS
 62
     7
 10
76.6047587447
 20
-38.2130832761
 30
0.0
  0
VERTEX
  5
419
  8
0
  6
CONTINUOUS
 62
     7
 10
76.894702559
 20
-38.344527164
 30
0.0
  0
VERTEX
  5
41A
  8
0
  6
CONTINUOUS
 62
     7
 10
77.1979829125
 20
-38.4514109581
 30
0.0
  0
VERTEX
  5
41B
  8
0
  6
CONTINUOUS
 62
     7
 10
77.5315096431
 20
-38.5396548896
 30
0.0
  0
VERTEX
  5
41C
  8
0
  6
CONTINUOUS
 62
     7
 10
77.8886845164
 20
-38.6074223905
 30
0.0
  0
VERTEX
  5
41D
  8
0
  6
CONTINUOUS
 62
     7
 10
78.3542534165
 20
-38.6649036198
 30
0.0
  0
VERTEX
  5
41E
  8
0
  6
CONTINUOUS
 62
     7
 10
79.0207316928
 20
-38.7056061416
 30
0.0
  0
VERTEX
  5
41F
  8
0
  6
CONTINUOUS
 62
     7
 10
79.594083672
 20
-38.714517781
 30
0.0
  0
VERTEX
  5
420
  8
0
  6
CONTINUOUS
 62
     7
 10
80.1747252994
 20
-38.7066611438
 30
0.0
  0
VERTEX
  5
421
  8
0
  6
CONTINUOUS
 62
     7
 10
80.8325310998
 20
-38.6826732545
 30
0.0
  0
VERTEX
  5
422
  8
0
  6
CONTINUOUS
 62
     7
 10
81.5064599566
 20
-38.6454225867
 30
0.0
  0
VERTEX
  5
423
  8
0
  6
CONTINUOUS
 62
     7
 10
82.2098126464
 20
-38.5962956934
 30
0.0
  0
VERTEX
  5
424
  8
0
  6
CONTINUOUS
 62
     7
 10
82.9448869281
 20
-38.5363609879
 30
0.0
  0
VERTEX
  5
425
  8
0
  6
CONTINUOUS
 62
     7
 10
83.7101628833
 20
-38.4664976387
 30
0.0
  0
VERTEX
  5
426
  8
0
  6
CONTINUOUS
 62
     7
 10
84.5031937413
 20
-38.3875386207
 30
0.0
  0
VERTEX
  5
427
  8
0
  6
CONTINUOUS
 62
     7
 10
85.3206714444
 20
-38.3003407507
 30
0.0
  0
VERTEX
  5
428
  8
0
  6
CONTINUOUS
 62
     7
 10
86.1587604337
 20
-38.2057854324
 30
0.0
  0
VERTEX
  5
429
  8
0
  6
CONTINUOUS
 62
     7
 10
87.0133360677
 20
-38.1047726958
 30
0.0
  0
VERTEX
  5
42A
  8
0
  6
CONTINUOUS
 62
     7
 10
87.878721004
 20
-37.9984119325
 30
0.0
  0
VERTEX
  5
42B
  8
0
  6
CONTINUOUS
 62
     7
 10
88.750197535
 20
-37.8876530914
 30
0.0
  0
VERTEX
  5
42C
  8
0
  6
CONTINUOUS
 62
     7
 10
89.6297743373
 20
-37.772257009
 30
0.0
  0
VERTEX
  5
42D
  8
0
  6
CONTINUOUS
 62
     7
 10
90.1555856519
 20
-37.7011136501
 30
0.0
  0
SEQEND
  5
470
  8
0
  6
CONTINUOUS
 62
     7
  0
POLYLINE
  5
19D
  8
0
  6
CONTINUOUS
 62
     7
 66
     1
 10
0.0
 20
0.0
 30
0.0
  0
VERTEX
  5
42E
  8
0
  6
CONTINUOUS
 62
     7
 10
155.0116171889
 20
-36.1440562992
 30
0.0
  0
VERTEX
  5
42F
  8
0
  6
CONTINUOUS
 62
     7
 10
155.0541123204
 20
-35.9237575321
 30
0.0
  0
VERTEX
  5
430
  8
0
  6
CONTINUOUS
 62
     7
 10
155.0681283526
 20
-35.595291981
 30
0.0
  0
SEQEND
  5
46F
  8
0
  6
CONTINUOUS
 62
     7
  0
POLYLINE
  5
19E
  8
0
  6
CONTINUOUS
 62
     7
 66
     1
 10
0.0
 20
0.0
 30
0.0
  0
VERTEX
  5
431
  8
0
  6
CONTINUOUS
 62
     7
 10
74.9634584241
 20
-35.5880723684
 30
0.0
  0
VERTEX
  5
432
  8
0
  6
CONTINUOUS
 62
     7
 10
74.9630382113
 20
-35.7879207819
 30
0.0
  0
VERTEX
  5
433
  8
0
  6
CONTINUOUS
 62
     7
 10
75.0248601489
 20
-36.2146632164
 30
0.0
  0
SEQEND
  5
46E
  8
0
  6
CONTINUOUS
 62
     7
  0
ARC
  5
19F
  8
0
  6
CONTINUOUS
 62
     7
 10
115.0140633635
 20
-220.7118031085
 30
0.0
 40
184.6913998231543
 50
82.26477956
 51
97.73522044
  0
ARC
  5
1A0
  8
0
  6
CONTINUOUS
 62
     7
 10
140.1977233924
 20
-112.9750580238
 30
0.0
 40
14.86825590731779
 50
270.8245009774
 51
0.4742439197
  0
ARC
  5
1A1
  8
0
  6
CONTINUOUS
 62
     7
 10
89.8296151443
 20
-112.978528023
 30
0.0
 40
14.86657772581379
 50
179.5129030109
 51
269.3234303013
  0
ARC
  5
1A2
  8
0
  6
CONTINUOUS
 62
     7
 10
140.1865686378
 20
-72.7635728552
 30
0.0
 40
14.87761379013456
 50
359.6598601843
 51
32.699089261
  0
ARC
  5
1A3
  8
0
  6
CONTINUOUS
 62
     7
 10
89.9335960045
 20
-72.7961228651
 30
0.0
 40
14.97534924019686
 50
147.3882171823
 51
180.2161070771
  0
ARC
  5
1A4
  8
0
  6
CONTINUOUS
 62
     7
 10
89.7577429559
 20
-72.5589373765
 30
0.0
 40
14.6988072128206
 50
90.699217633
 51
141.1138418288
  0
ARC
  5
1A5
  8
0
  6
CONTINUOUS
 62
     7
 10
140.2734274392
 20
-72.535591528
 30
0.0
 40
14.6782316250523
 50
38.7741745702
 51
89.7632189336
  0
LINE
  5
1A6
  8
0
  6
CONTINUOUS
 62
     7
 10
74.9553074889
 20
-72.8519329219
 30
0.0
 11
74.9553074889
 21
-112.851933518
 31
0.0
  0
LINE
  5
1A7
  8
0
  6
CONTINUOUS
 62
     7
 10
155.0728192382
 20
-112.851933518
 30
0.0
 11
155.0728192382
 21
-72.8519329219
 31
0.0
  0
ARC
  5
1A8
  8
0
  6
CONTINUOUS
 62
     7
 10
175.0140633635
 20
-46.9519321828
 30
0.0
 40
2.700000000000017
 50
0.0
 51
180.0
  0
ARC
  5
1A9
  8
0
  6
CONTINUOUS
 62
     7
 10
175.0140633635
 20
-96.9519321828
 30
0.0
 40
2.700000000000017
 50
180.0
 51
0.0
  0
LINE
  5
1AA
  8
0
  6
CONTINUOUS
 62
     7
 10
169.0140655093
 20
-42.1519321739
 30
0.0
 11
169.0140655093
 21
-40.9519323497
 31
0.0
  0
LINE
  5
1AB
  8
0
  6
CONTINUOUS
 62
     7
 10
169.0140655093
 20
-40.9519323497
 30
0.0
 11
181.0140659862
 21
-40.9519323497
 31
0.0
  0
LINE
  5
1AC
  8
0
  6
CONTINUOUS
 62
     7
 10
181.0140659862
 20
-40.9519323497
 30
0.0
 11
181.0140659862
 21
-42.1519321739
 31
0.0
  0
LINE
  5
1AD
  8
0
  6
CONTINUOUS
 62
     7
 10
169.0140655093
 20
-42.1519321739
 30
0.0
 11
169.0140655093
 21
-51.7519322573
 31
0.0
  0
LINE
  5
1AE
  8
0
  6
CONTINUOUS
 62
     7
 10
181.0140659862
 20
-42.1519321739
 30
0.0
 11
181.0140659862
 21
-51.7519322573
 31
0.0
  0
LINE
  5
1AF
  8
0
  6
CONTINUOUS
 62
     7
 10
181.0140659862
 20
-52.9519320815
 30
0.0
 11
177.7140607886
 21
-52.9519320815
 31
0.0
  0
LINE
  5
1B0
  8
0
  6
CONTINUOUS
 62
     7
 10
172.3140647464
 20
-52.9519320815
 30
0.0
 11
169.0140655093
 21
-52.9519320815
 31
0.0
  0
LINE
  5
1B1
  8
0
  6
CONTINUOUS
 62
     7
 10
169.0140655093
 20
-52.9519320815
 30
0.0
 11
169.0140655093
 21
-51.7519322573
 31
0.0
  0
LINE
  5
1B2
  8
0
  6
CONTINUOUS
 62
     7
 10
181.0140659862
 20
-51.7519322573
 30
0.0
 11
181.0140659862
 21
-52.9519320815
 31
0.0
  0
ARC
  5
1B3
  8
0
  6
CONTINUOUS
 62
     7
 10
55.0140633635
 20
-46.9519321828
 30
0.0
 40
2.70000000000001
 50
0.0
 51
180.0
  0
ARC
  5
1B4
  8
0
  6
CONTINUOUS
 62
     7
 10
55.0140633635
 20
-96.9519321828
 30
0.0
 40
2.70000000000001
 50
180.0
 51
0.0
  0
LINE
  5
1B5
  8
0
  6
CONTINUOUS
 62
     7
 10
49.0140607409
 20
-42.1519321739
 30
0.0
 11
49.0140607409
 21
-40.9519323497
 31
0.0
  0
LINE
  5
1B6
  8
0
  6
CONTINUOUS
 62
     7
 10
49.0140607409
 20
-40.9519323497
 30
0.0
 11
61.0140612178
 21
-40.9519323497
 31
0.0
  0
LINE
  5
1B7
  8
0
  6
CONTINUOUS
 62
     7
 10
61.0140612178
 20
-40.9519323497
 30
0.0
 11
61.0140612178
 21
-42.1519321739
 31
0.0
  0
LINE
  5
1B8
  8
0
  6
CONTINUOUS
 62
     7
 10
49.0140607409
 20
-42.1519321739
 30
0.0
 11
49.0140607409
 21
-51.7519322573
 31
0.0
  0
LINE
  5
1B9
  8
0
  6
CONTINUOUS
 62
     7
 10
61.0140612178
 20
-42.1519321739
 30
0.0
 11
61.0140612178
 21
-51.7519322573
 31
0.0
  0
LINE
  5
1BA
  8
0
  6
CONTINUOUS
 62
     7
 10
61.0140612178
 20
-52.9519320815
 30
0.0
 11
57.7140619807
 21
-52.9519320815
 31
0.0
  0
LINE
  5
1BB
  8
0
  6
CONTINUOUS
 62
     7
 10
52.3140659385
 20
-52.9519320815
 30
0.0
 11
49.0140607409
 21
-52.9519320815
 31
0.0
  0
LINE
  5
1BC
  8
0
  6
CONTINUOUS
 62
     7
 10
49.0140607409
 20
-52.9519320815
 30
0.0
 11
49.0140607409
 21
-51.7519322573
 31
0.0
  0
LINE
  5
1BD
  8
0
  6
CONTINUOUS
 62
     7
 10
61.0140612178
 20
-51.7519322573
 30
0.0
 11
61.0140612178
 21
-52.9519320815
 31
0.0
  0
LINE
  5
1BE
  8
0
  6
CONTINUOUS
 62
     7
 10
183.8140657
 20
-42.1519321739
 30
0.0
 11
183.8140657
 21
-42.7519322722
 31
0.0
  0
ARC
  5
1BF
  8
0
  6
CONTINUOUS
 62
     7
 10
183.4140633635
 20
-42.1519321828
 30
0.0
 40
0.4000000000000057
 50
0.0
 51
90.0
  0
LINE
  5
1C0
  8
0
  6
CONTINUOUS
 62
     7
 10
46.6140618377
 20
-41.7519321083
 30
0.0
 11
49.0140607409
 21
-41.7519321083
 31
0.0
  0
LINE
  5
1C1
  8
0
  6
CONTINUOUS
 62
     7
 10
61.0140612178
 20
-41.7519321083
 30
0.0
 11
72.5140621715
 21
-41.7519321083
 31
0.0
  0
LINE
  5
1C2
  8
0
  6
CONTINUOUS
 62
     7
 10
82.5140645556
 20
-41.7519321083
 30
0.0
 11
97.0140626483
 21
-41.7519321083
 31
0.0
  0
LINE
  5
1C3
  8
0
  6
CONTINUOUS
 62
     7
 10
133.0140640788
 20
-41.7519321083
 30
0.0
 11
147.5140621715
 21
-41.7519321083
 31
0.0
  0
LINE
  5
1C4
  8
0
  6
CONTINUOUS
 62
     7
 10
157.5140645556
 20
-41.7519321083
 30
0.0
 11
169.0140655093
 21
-41.7519321083
 31
0.0
  0
LINE
  5
1C5
  8
0
  6
CONTINUOUS
 62
     7
 10
181.0140659862
 20
-41.7519321083
 30
0.0
 11
183.4140648894
 21
-41.7519321083
 31
0.0
  0
LINE
  5
1C6
  8
0
  6
CONTINUOUS
 62
     7
 10
183.8140657
 20
-42.7519322722
 30
0.0
 11
183.8140657
 21
-50.7519320934
 31
0.0
  0
LINE
  5
1C7
  8
0
  6
CONTINUOUS
 62
     7
 10
46.214061027
 20
-50.7519320934
 30
0.0
 11
46.214061027
 21
-42.7519322722
 31
0.0
  0
LINE
  5
1C8
  8
0
  6
CONTINUOUS
 62
     7
 10
46.214061027
 20
-42.7519322722
 30
0.0
 11
46.214061027
 21
-42.1519321739
 31
0.0
  0
ARC
  5
1C9
  8
0
  6
CONTINUOUS
 62
     7
 10
46.6140633635
 20
-42.1519321828
 30
0.0
 40
0.3999999999999986
 50
90.0
 51
180.0
  0
LINE
  5
1CA
  8
0
  6
CONTINUOUS
 62
     7
 10
183.8140657
 20
-50.7519320934
 30
0.0
 11
183.8140657
 21
-51.3519321917
 31
0.0
  0
ARC
  5
1CB
  8
0
  6
CONTINUOUS
 62
     7
 10
183.4140633635
 20
-51.3519321828
 30
0.0
 40
0.3999999999999986
 50
270.0
 51
0.0
  0
LINE
  5
1CC
  8
0
  6
CONTINUOUS
 62
     7
 10
183.4140648894
 20
-51.7519322573
 30
0.0
 11
181.0140659862
 21
-51.7519322573
 31
0.0
  0
LINE
  5
1CD
  8
0
  6
CONTINUOUS
 62
     7
 10
169.0140655093
 20
-51.7519322573
 30
0.0
 11
157.5140645556
 21
-51.7519322573
 31
0.0
  0
LINE
  5
1CE
  8
0
  6
CONTINUOUS
 62
     7
 10
147.5140621715
 20
-51.7519322573
 30
0.0
 11
133.0140640788
 21
-51.7519322573
 31
0.0
  0
LINE
  5
1CF
  8
0
  6
CONTINUOUS
 62
     7
 10
97.0140626483
 20
-51.7519322573
 30
0.0
 11
82.5140645556
 21
-51.7519322573
 31
0.0
  0
LINE
  5
1D0
  8
0
  6
CONTINUOUS
 62
     7
 10
72.5140621715
 20
-51.7519322573
 30
0.0
 11
61.0140612178
 21
-51.7519322573
 31
0.0
  0
LINE
  5
1D1
  8
0
  6
CONTINUOUS
 62
     7
 10
49.0140607409
 20
-51.7519322573
 30
0.0
 11
46.6140618377
 21
-51.7519322573
 31
0.0
  0
LINE
  5
1D2
  8
0
  6
CONTINUOUS
 62
     7
 10
46.214061027
 20
-51.3519321917
 30
0.0
 11
46.214061027
 21
-50.7519320934
 31
0.0
  0
ARC
  5
1D3
  8
0
  6
CONTINUOUS
 62
     7
 10
46.6140633635
 20
-51.3519321828
 30
0.0
 40
0.3999999999999986
 50
180.0
 51
270.0
  0
CIRCLE
  5
1D4
  8
0
  6
CONTINUOUS
 62
     7
 10
123.0140633635
 20
-38.7519321828
 30
0.0
 40
1.5
  0
CIRCLE
  5
1D5
  8
0
  6
CONTINUOUS
 62
     7
 10
107.0140633635
 20
-38.7519321828
 30
0.0
 40
1.499999999999993
  0
ARC
  5
1D6
  8
0
  6
CONTINUOUS
 62
     7
 10
183.0140633635
 20
-40.7519321828
 30
0.0
 40
80.0
 50
188.6269265587
 51
192.3422028872
  0
LINE
  5
1D7
  8
0
  6
CONTINUOUS
 62
     7
 10
103.0150634997
 20
-41.15193201
 30
0.0
 11
103.0140636318
 21
-40.7519323169
 31
0.0
  0
LINE
  5
1D8
  8
0
  6
CONTINUOUS
 62
     7
 10
103.0140636318
 20
-38.7519323616
 30
0.0
 11
103.0140636318
 21
-40.7519323169
 31
0.0
  0
ARC
  5
1D9
  8
0
  6
CONTINUOUS
 62
     7
 10
107.0140633635
 20
-38.7519321828
 30
0.0
 40
4.0
 50
143.0078465574
 51
180.0
  0
ARC
  5
1DA
  8
0
  6
CONTINUOUS
 62
     7
 10
123.0140633635
 20
-38.7519321828
 30
0.0
 40
4.000000000000012
 50
0.0
 51
37.0933047126
  0
LINE
  5
1DB
  8
0
  6
CONTINUOUS
 62
     7
 10
127.0140630953
 20
-40.7519323169
 30
0.0
 11
127.0140630953
 21
-38.7519323616
 31
0.0
  0
LINE
  5
1DC
  8
0
  6
CONTINUOUS
 62
     7
 10
127.0140630953
 20
-40.7519323169
 30
0.0
 11
127.0130632274
 21
-41.15193201
 31
0.0
  0
ARC
  5
1DD
  8
0
  6
CONTINUOUS
 62
     7
 10
47.0140633635
 20
-40.7519321828
 30
0.0
 40
80.0
 50
347.6577971128
 51
351.3730734413
  0
ARC
  5
1DE
  8
0
  6
CONTINUOUS
 62
     7
 10
115.0216808763
 20
-16.554085095
 30
0.0
 40
6.286235465925676
 50
261.304747261
 51
278.4275782342
  0
LINE
  5
1DF
  8
0
  6
CONTINUOUS
 62
     7
 10
112.0140634306
 20
-22.7944412618
 30
0.0
 11
112.0140634306
 21
-21.194870153
 31
0.0
  0
ARC
  5
1E0
  8
0
  6
CONTINUOUS
 62
     7
 10
113.0103480877
 20
-21.1911323876
 30
0.0
 40
0.9962916685300027
 50
180.214955812
 51
270.2136650234
  0
ARC
  5
1E1
  8
0
  6
CONTINUOUS
 62
     7
 10
117.0177786394
 20
-21.1911323876
 30
0.0
 40
0.9962916685300098
 50
269.7863349766
 51
359.785044188
  0
LINE
  5
1E2
  8
0
  6
CONTINUOUS
 62
     7
 10
118.0140632965
 20
-21.194870153
 30
0.0
 11
118.0140632965
 21
-22.7899127989
 31
0.0
  0
LINE
  5
1E3
  8
0
  6
CONTINUOUS
 62
     7
 10
112.0140634306
 20
-21.194870153
 30
0.0
 11
112.0140634306
 21
-17.224688211
 31
0.0
  0
ARC
  5
1E4
  8
0
  6
CONTINUOUS
 62
     7
 10
113.0103516923
 20
-17.2284281124
 30
0.0
 40
0.9962952811583081
 50
89.7865430513
 51
179.7849221292
  0
LINE
  5
1E5
  8
0
  6
CONTINUOUS
 62
     7
 10
113.0140634083
 20
-16.2321397453
 30
0.0
 11
117.0140633188
 21
-16.2321397453
 31
0.0
  0
ARC
  5
1E6
  8
0
  6
CONTINUOUS
 62
     7
 10
117.0177750348
 20
-17.2284281124
 30
0.0
 40
0.9962952811583109
 50
0.2150778708
 51
90.2134569487
  0
LINE
  5
1E7
  8
0
  6
CONTINUOUS
 62
     7
 10
118.0140632965
 20
-17.224688211
 30
0.0
 11
118.0140632965
 21
-21.194870153
 31
0.0
  0
LINE
  5
1E8
  8
0
  6
CONTINUOUS
 62
     7
 10
117.0140633188
 20
-22.1874171286
 30
0.0
 11
113.0140634083
 21
-22.1874171286
 31
0.0
  0
POLYLINE
  5
1E9
  8
0
  6
CONTINUOUS
 62
     7
 66
     1
 10
0.0
 20
0.0
 30
0.0
  0
VERTEX
  5
434
  8
0
  6
CONTINUOUS
 62
     7
 10
115.0140633635
 20
-22.3080688505
 30
0.0
  0
VERTEX
  5
435
  8
0
  6
CONTINUOUS
 62
     7
 10
114.7442665944
 20
-22.3125883727
 30
0.0
  0
VERTEX
  5
436
  8
0
  6
CONTINUOUS
 62
     7
 10
114.4944794305
 20
-22.3258101731
 30
0.0
  0
VERTEX
  5
437
  8
0
  6
CONTINUOUS
 62
     7
 10
114.2832273912
 20
-22.3467552452
 30
0.0
  0
VERTEX
  5
438
  8
0
  6
CONTINUOUS
 62
     7
 10
114.1261781395
 20
-22.3738693981
 30
0.0
  0
VERTEX
  5
439
  8
0
  6
CONTINUOUS
 62
     7
 10
114.0349793077
 20
-22.4051424651
 30
0.0
  0
VERTEX
  5
43A
  8
0
  6
CONTINUOUS
 62
     7
 10
114.0140633859
 20
-22.4299379974
 30
0.0
  0
SEQEND
  5
46D
  8
0
  6
CONTINUOUS
 62
     7
  0
POLYLINE
  5
1EA
  8
0
  6
CONTINUOUS
 62
     7
 66
     1
 10
0.0
 20
0.0
 30
0.0
  0
VERTEX
  5
43B
  8
0
  6
CONTINUOUS
 62
     7
 10
116.0140633412
 20
-22.4299379974
 30
0.0
  0
VERTEX
  5
43C
  8
0
  6
CONTINUOUS
 62
     7
 10
115.9931474194
 20
-22.4051424651
 30
0.0
  0
VERTEX
  5
43D
  8
0
  6
CONTINUOUS
 62
     7
 10
115.9019485876
 20
-22.3738693981
 30
0.0
  0
VERTEX
  5
43E
  8
0
  6
CONTINUOUS
 62
     7
 10
115.7448993359
 20
-22.3467552452
 30
0.0
  0
VERTEX
  5
43F
  8
0
  6
CONTINUOUS
 62
     7
 10
115.5336472966
 20
-22.3258101731
 30
0.0
  0
VERTEX
  5
440
  8
0
  6
CONTINUOUS
 62
     7
 10
115.2838601327
 20
-22.3125883727
 30
0.0
  0
VERTEX
  5
441
  8
0
  6
CONTINUOUS
 62
     7
 10
115.0140633635
 20
-22.3080688505
 30
0.0
  0
SEQEND
  5
46C
  8
0
  6
CONTINUOUS
 62
     7
  0
POLYLINE
  5
1EB
  8
0
  6
CONTINUOUS
 62
     7
 66
     1
 10
0.0
 20
0.0
 30
0.0
  0
VERTEX
  5
442
  8
0
  6
CONTINUOUS
 62
     7
 10
141.7146166615
 20
-36.5658165305
 30
0.0
  0
VERTEX
  5
443
  8
0
  6
CONTINUOUS
 62
     7
 10
142.795770412
 20
-36.6951645701
 30
0.0
  0
VERTEX
  5
444
  8
0
  6
CONTINUOUS
 62
     7
 10
143.8445588403
 20
-36.8110643118
 30
0.0
  0
VERTEX
  5
445
  8
0
  6
CONTINUOUS
 62
     7
 10
144.8413988404
 20
-36.9106472819
 30
0.0
  0
VERTEX
  5
446
  8
0
  6
CONTINUOUS
 62
     7
 10
145.7763215356
 20
-36.991942802
 30
0.0
  0
VERTEX
  5
447
  8
0
  6
CONTINUOUS
 62
     7
 10
146.6416349463
 20
-37.0534264832
 30
0.0
  0
VERTEX
  5
448
  8
0
  6
CONTINUOUS
 62
     7
 10
147.42164815
 20
-37.0929465978
 30
0.0
  0
VERTEX
  5
449
  8
0
  6
CONTINUOUS
 62
     7
 10
148.1119384818
 20
-37.1087932377
 30
0.0
  0
VERTEX
  5
44A
  8
0
  6
CONTINUOUS
 62
     7
 10
148.7031301312
 20
-37.0998689323
 30
0.0
  0
VERTEX
  5
44B
  8
0
  6
CONTINUOUS
 62
     7
 10
149.1848042064
 20
-37.0654181926
 30
0.0
  0
VERTEX
  5
44C
  8
0
  6
CONTINUOUS
 62
     7
 10
149.554353004
 20
-37.0038205176
 30
0.0
  0
VERTEX
  5
44D
  8
0
  6
CONTINUOUS
 62
     7
 10
149.8051395469
 20
-36.9156481116
 30
0.0
  0
VERTEX
  5
44E
  8
0
  6
CONTINUOUS
 62
     7
 10
149.9327888541
 20
-36.8020789116
 30
0.0
  0
VERTEX
  5
44F
  8
0
  6
CONTINUOUS
 62
     7
 10
149.9496718697
 20
-36.7330105393
 30
0.0
  0
SEQEND
  5
46B
  8
0
  6
CONTINUOUS
 62
     7
  0
ARC
  5
1EC
  8
0
  6
CONTINUOUS
 62
     7
 10
115.0140633635
 20
-220.4040396178
 30
0.0
 40
185.7670902348656
 50
81.7361790473
 51
98.2638209527
  0
POLYLINE
  5
1ED
  8
0
  6
CONTINUOUS
 62
     7
 66
     1
 10
0.0
 20
0.0
 30
0.0
  0
VERTEX
  5
450
  8
0
  6
CONTINUOUS
 62
     7
 10
80.0784548573
 20
-36.7330105393
 30
0.0
  0
VERTEX
  5
451
  8
0
  6
CONTINUOUS
 62
     7
 10
80.1425417714
 20
-36.8605436175
 30
0.0
  0
VERTEX
  5
452
  8
0
  6
CONTINUOUS
 62
     7
 10
80.332561379
 20
-36.9628415792
 30
0.0
  0
VERTEX
  5
453
  8
0
  6
CONTINUOUS
 62
     7
 10
80.6451460175
 20
-37.038333097
 30
0.0
  0
VERTEX
  5
454
  8
0
  6
CONTINUOUS
 62
     7
 10
81.0792138629
 20
-37.0863945573
 30
0.0
  0
VERTEX
  5
455
  8
0
  6
CONTINUOUS
 62
     7
 10
81.6294571214
 20
-37.1078172116
 30
0.0
  0
VERTEX
  5
456
  8
0
  6
CONTINUOUS
 62
     7
 10
82.2858949952
 20
-37.1031047194
 30
0.0
  0
VERTEX
  5
457
  8
0
  6
CONTINUOUS
 62
     7
 10
83.0392619424
 20
-37.0731958537
 30
0.0
  0
VERTEX
  5
458
  8
0
  6
CONTINUOUS
 62
     7
 10
83.8850756936
 20
-37.0198735385
 30
0.0
  0
VERTEX
  5
459
  8
0
  6
CONTINUOUS
 62
     7
 10
84.8075499587
 20
-36.9452358573
 30
0.0
  0
VERTEX
  5
45A
  8
0
  6
CONTINUOUS
 62
     7
 10
85.7893695884
 20
-36.8517921655
 30
0.0
  0
VERTEX
  5
45B
  8
0
  6
CONTINUOUS
 62
     7
 10
86.8288447909
 20
-36.7409610539
 30
0.0
  0
VERTEX
  5
45C
  8
0
  6
CONTINUOUS
 62
     7
 10
87.9063209348
 20
-36.615626642
 30
0.0
  0
VERTEX
  5
45D
  8
0
  6
CONTINUOUS
 62
     7
 10
88.3135100656
 20
-36.5658165305
 30
0.0
  0
SEQEND
  5
46A
  8
0
  6
CONTINUOUS
 62
     7
  0
LINE
  5
1EE
  8
0
  6
CONTINUOUS
 62
     7
 10
80.0784548573
 20
-32.2235965519
 30
0.0
 11
80.0784548573
 21
-36.7330105393
 31
0.0
  0
LINE
  5
1EF
  8
0
  6
CONTINUOUS
 62
     7
 10
149.9496718697
 20
-36.7330105393
 30
0.0
 11
149.9496718697
 21
-32.2251313715
 31
0.0
  0
POLYLINE
  5
1F0
  8
0
  6
CONTINUOUS
 62
     7
 66
     1
 10
0.0
 20
0.0
 30
0.0
  0
VERTEX
  5
45E
  8
0
  6
CONTINUOUS
 62
     7
 10
155.0728192382
 20
-35.5944381445
 30
0.0
  0
VERTEX
  5
45F
  8
0
  6
CONTINUOUS
 62
     7
 10
155.0706019454
 20
-35.7028269558
 30
0.0
  0
VERTEX
  5
460
  8
0
  6
CONTINUOUS
 62
     7
 10
155.0098797135
 20
-36.1686208635
 30
0.0
  0
SEQEND
  5
469
  8
0
  6
CONTINUOUS
 62
     7
  0
LINE
  5
1F1
  8
0
  6
CONTINUOUS
 62
     7
 10
118.0140632965
 20
-36.0515342443
 30
0.0
 11
118.0140632965
 21
-38.7210199027
 31
0.0
  0
LINE
  5
1F2
  8
0
  6
CONTINUOUS
 62
     7
 10
112.0140634306
 20
-36.0470057814
 30
0.0
 11
112.0140634306
 21
-38.7210199027
 31
0.0
  0
ARC
  5
1F3
  8
0
  6
CONTINUOUS
 62
     7
 10
117.0140633635
 20
-40.1519321828
 30
0.0
 40
1.000000000000007
 50
270.0
 51
0.0
  0
LINE
  5
1F4
  8
0
  6
CONTINUOUS
 62
     7
 10
118.0140632965
 20
-38.7210199027
 30
0.0
 11
118.0140632965
 21
-40.1519322186
 31
0.0
  0
LINE
  5
1F5
  8
0
  6
CONTINUOUS
 62
     7
 10
117.0140633188
 20
-41.15193201
 30
0.0
 11
113.0140634083
 21
-41.15193201
 31
0.0
  0
ARC
  5
1F6
  8
0
  6
CONTINUOUS
 62
     7
 10
113.0140633635
 20
-40.1519321828
 30
0.0
 40
1.000000000000007
 50
180.0
 51
270.0
  0
LINE
  5
1F7
  8
0
  6
CONTINUOUS
 62
     7
 10
112.0140634306
 20
-38.7210199027
 30
0.0
 11
112.0140634306
 21
-40.1519322186
 31
0.0
  0
LINE
  5
1F8
  8
0
  6
CONTINUOUS
 62
     7
 10
97.0140626483
 20
-42.1519321739
 30
0.0
 11
97.0140626483
 21
-51.7519322573
 31
0.0
  0
LINE
  5
1F9
  8
0
  6
CONTINUOUS
 62
     7
 10
133.0140640788
 20
-42.1519321739
 30
0.0
 11
133.0140640788
 21
-51.7519322573
 31
0.0
  0
LINE
  5
1FA
  8
0
  6
CONTINUOUS
 62
     7
 10
133.0140640788
 20
-52.7519320487
 30
0.0
 11
97.0140626483
 21
-52.7519320487
 31
0.0
  0
LINE
  5
1FB
  8
0
  6
CONTINUOUS
 62
     7
 10
97.0140626483
 20
-51.7519322573
 30
0.0
 11
97.0140626483
 21
-52.7519320487
 31
0.0
  0
LINE
  5
1FC
  8
0
  6
CONTINUOUS
 62
     7
 10
133.0140640788
 20
-51.7519322573
 30
0.0
 11
133.0140640788
 21
-52.7519320487
 31
0.0
  0
LINE
  5
1FD
  8
0
  6
CONTINUOUS
 62
     7
 10
113.0140634083
 20
-41.15193201
 30
0.0
 11
97.0140626483
 21
-41.15193201
 31
0.0
  0
LINE
  5
1FE
  8
0
  6
CONTINUOUS
 62
     7
 10
133.0140640788
 20
-41.15193201
 30
0.0
 11
117.0140633188
 21
-41.15193201
 31
0.0
  0
LINE
  5
1FF
  8
0
  6
CONTINUOUS
 62
     7
 10
97.0140626483
 20
-41.15193201
 30
0.0
 11
97.0140626483
 21
-42.1519321739
 31
0.0
  0
LINE
  5
200
  8
0
  6
CONTINUOUS
 62
     7
 10
133.0140640788
 20
-41.15193201
 30
0.0
 11
133.0140640788
 21
-42.1519321739
 31
0.0
  0
POLYLINE
  5
201
  8
0
  6
CONTINUOUS
 62
     7
 66
     1
 10
0.0
 20
0.0
 30
0.0
  0
VERTEX
  5
461
  8
0
  6
CONTINUOUS
 62
     7
 10
78.3140620046
 20
-66.2087002187
 30
0.0
  0
VERTEX
  5
462
  8
0
  6
CONTINUOUS
 62
     7
 10
77.7784546666
 20
-66.9129335671
 30
0.0
  0
VERTEX
  5
463
  8
0
  6
CONTINUOUS
 62
     7
 10
77.3140629582
 20
-67.6781230955
 30
0.0
  0
SEQEND
  5
468
  8
0
  6
CONTINUOUS
 62
     7
  0
LINE
  5
202
  8
0
  6
CONTINUOUS
 62
     7
 10
89.6698435597
 20
-57.8572714119
 30
0.0
 11
89.7933801465
 21
-57.8519323259
 31
0.0
  0
ARC
  5
203
  8
0
  6
CONTINUOUS
 62
     7
 10
90.1536402155
 20
-72.7580960878
 30
0.0
 40
10.07562233077792
 50
100.5230987956
 51
180.5336178852
  0
LINE
  5
204
  8
0
  6
CONTINUOUS
 62
     7
 10
140.3459897094
 20
-127.8455474763
 30
0.0
 11
140.2347465806
 21
-127.8519311338
 31
0.0
  0
ARC
  5
205
  8
0
  6
CONTINUOUS
 62
     7
 10
139.874492458
 20
-112.9457708205
 30
0.0
 40
10.07561638898613
 50
280.5230706788
 51
0.5336208642
  0
POLYLINE
  5
206
  8
0
  6
CONTINUOUS
 62
     7
 66
     1
 10
0.0
 20
0.0
 30
0.0
  0
VERTEX
  5
464
  8
0
  6
CONTINUOUS
 62
     7
 10
151.7140647225
 20
-66.2087002187
 30
0.0
  0
VERTEX
  5
465
  8
0
  6
CONTINUOUS
 62
     7
 10
152.2496720605
 20
-66.9129335671
 30
0.0
  0
VERTEX
  5
466
  8
0
  6
CONTINUOUS
 62
     7
 10
152.7140637689
 20
-67.6781230955
 30
0.0
  0
SEQEND
  5
467
  8
0
  6
CONTINUOUS
 62
     7
  0
ARC
  5
207
  8
0
  6
CONTINUOUS
 62
     7
 10
139.8922217977
 20
-72.7434909831
 30
0.0
 40
10.05803467908727
 50
359.3822465328
 51
79.5610367863
  0
LINE
  5
208
  8
0
  6
CONTINUOUS
 62
     7
 10
89.7933801465
 20
-127.8519311338
 30
0.0
 11
89.7002449088
 21
-127.8466799646
 31
0.0
  0
ARC
  5
209
  8
0
  6
CONTINUOUS
 62
     7
 10
90.1358981309
 20
-112.9603766335
 30
0.0
 40
10.05802789364273
 50
179.3822394123
 51
259.5610690447
  0
LINE
  5
20A
  8
0
  6
CONTINUOUS
 62
     7
 10
80.0784548573
 20
-72.8519329219
 30
0.0
 11
80.0784548573
 21
-112.851933518
 31
0.0
  0
LINE
  5
20B
  8
0
  6
CONTINUOUS
 62
     7
 10
149.9496718697
 20
-112.851933518
 30
0.0
 11
149.9496718697
 21
-72.8519329219
 31
0.0
  0
LINE
  5
20C
  8
0
  6
CONTINUOUS
 62
     7
 10
151.7140647225
 20
-63.8398447423
 30
0.0
 11
152.7140637689
 21
-63.8398447423
 31
0.0
  0
LINE
  5
20D
  8
0
  6
CONTINUOUS
 62
     7
 10
151.7140647225
 20
-39.9914154201
 30
0.0
 11
151.7140647225
 21
-63.8398447423
 31
0.0
  0
LINE
  5
20E
  8
0
  6
CONTINUOUS
 62
     7
 10
152.7140637689
 20
-39.9914154201
 30
0.0
 11
152.7140637689
 21
-63.8398447423
 31
0.0
  0
LINE
  5
20F
  8
0
  6
CONTINUOUS
 62
     7
 10
78.3140620046
 20
-63.8398447423
 30
0.0
 11
77.3140629582
 21
-63.8398447423
 31
0.0
  0
LINE
  5
210
  8
0
  6
CONTINUOUS
 62
     7
 10
77.3140629582
 20
-39.9914154201
 30
0.0
 11
77.3140629582
 21
-63.8398447423
 31
0.0
  0
LINE
  5
211
  8
0
  6
CONTINUOUS
 62
     7
 10
78.3140620046
 20
-39.9914154201
 30
0.0
 11
78.3140620046
 21
-63.8398447423
 31
0.0
  0
LINE
  5
212
  8
0
  6
CONTINUOUS
 62
     7
 10
77.3140629582
 20
-63.8398447423
 30
0.0
 11
77.3140629582
 21
-67.6781230955
 31
0.0
  0
LINE
  5
213
  8
0
  6
CONTINUOUS
 62
     7
 10
78.3140620046
 20
-63.8398447423
 30
0.0
 11
78.3140620046
 21
-66.2087002187
 31
0.0
  0
LINE
  5
214
  8
0
  6
CONTINUOUS
 62
     7
 10
151.7140647225
 20
-63.8398447423
 30
0.0
 11
151.7140647225
 21
-66.2087002187
 31
0.0
  0
LINE
  5
215
  8
0
  6
CONTINUOUS
 62
     7
 10
152.7140637689
 20
-63.8398447423
 30
0.0
 11
152.7140637689
 21
-67.6781230955
 31
0.0
  0
LINE
  5
216
  8
0
  6
CONTINUOUS
 62
     7
 10
88.3135100656
 20
-122.8519299417
 30
0.0
 11
141.7146166615
 21
-122.8519299417
 31
0.0
  0
LINE
  5
217
  8
0
  6
CONTINUOUS
 62
     7
 10
88.3135100656
 20
-62.8519320278
 30
0.0
 11
141.7146166615
 21
-62.8519320278
 31
0.0
  0
LINE
  5
218
  8
0
  6
CONTINUOUS
 62
     7
 10
89.7933801465
 20
-57.8519323259
 30
0.0
 11
140.2347465806
 21
-57.8519323259
 31
0.0
  0
LINE
  5
219
  8
0
  6
CONTINUOUS
 62
     7
 10
140.2347465806
 20
-127.8519311338
 30
0.0
 11
89.7933801465
 21
-127.8519311338
 31
0.0
  0
LINE
  5
21A
  8
0
  6
CONTINUOUS
 62
     7
 10
77.3140629582
 20
-38.4486855357
 30
0.0
 11
77.3140629582
 21
-39.9914154201
 31
0.0
  0
LINE
  5
21B
  8
0
  6
CONTINUOUS
 62
     7
 10
78.3140620046
 20
-38.6467882781
 30
0.0
 11
78.3140620046
 21
-39.9914154201
 31
0.0
  0
LINE
  5
21C
  8
0
  6
CONTINUOUS
 62
     7
 10
151.7140647225
 20
-38.6482724338
 30
0.0
 11
151.7140647225
 21
-39.9914154201
 31
0.0
  0
LINE
  5
21D
  8
0
  6
CONTINUOUS
 62
     7
 10
152.7140637689
 20
-38.4489314048
 30
0.0
 11
152.7140637689
 21
-39.9914154201
 31
0.0
  0
LINE
  5
21E
  8
0
  6
CONTINUOUS
 62
     7
 10
147.5140621715
 20
-51.7519322573
 30
0.0
 11
147.5140621715
 21
-41.9519321411
 31
0.0
  0
LINE
  5
21F
  8
0
  6
CONTINUOUS
 62
     7
 10
82.5140645556
 20
-51.7519322573
 30
0.0
 11
82.5140645556
 21
-41.9519321411
 31
0.0
  0
LINE
  5
220
  8
0
  6
CONTINUOUS
 62
     7
 10
151.7140647225
 20
-40.9519323497
 30
0.0
 11
147.5140621715
 21
-40.9519323497
 31
0.0
  0
LINE
  5
221
  8
0
  6
CONTINUOUS
 62
     7
 10
147.5140621715
 20
-41.9519321411
 30
0.0
 11
147.5140621715
 21
-40.9519323497
 31
0.0
  0
LINE
  5
222
  8
0
  6
CONTINUOUS
 62
     7
 10
82.5140645556
 20
-40.9519323497
 30
0.0
 11
78.3140620046
 21
-40.9519323497
 31
0.0
  0
LINE
  5
223
  8
0
  6
CONTINUOUS
 62
     7
 10
82.5140645556
 20
-40.9519323497
 30
0.0
 11
82.5140645556
 21
-41.9519321411
 31
0.0
  0
LINE
  5
224
  8
0
  6
CONTINUOUS
 62
     7
 10
82.5140645556
 20
-52.7519320487
 30
0.0
 11
78.3140620046
 21
-52.7519320487
 31
0.0
  0
LINE
  5
225
  8
0
  6
CONTINUOUS
 62
     7
 10
82.5140645556
 20
-51.7519322573
 30
0.0
 11
82.5140645556
 21
-52.7519320487
 31
0.0
  0
LINE
  5
226
  8
0
  6
CONTINUOUS
 62
     7
 10
151.7140647225
 20
-52.7519320487
 30
0.0
 11
147.5140621715
 21
-52.7519320487
 31
0.0
  0
LINE
  5
227
  8
0
  6
CONTINUOUS
 62
     7
 10
147.5140621715
 20
-52.7519320487
 30
0.0
 11
147.5140621715
 21
-51.7519322573
 31
0.0
  0
LINE
  5
228
  8
0
  6
CONTINUOUS
 62
     7
 10
72.5140621715
 20
-51.7519322573
 30
0.0
 11
72.5140621715
 21
-41.9519321411
 31
0.0
  0
LINE
  5
229
  8
0
  6
CONTINUOUS
 62
     7
 10
157.5140645556
 20
-51.7519322573
 30
0.0
 11
157.5140645556
 21
-41.9519321411
 31
0.0
  0
LINE
  5
22A
  8
0
  6
CONTINUOUS
 62
     7
 10
157.5140645556
 20
-40.9519323497
 30
0.0
 11
152.7140637689
 21
-40.9519323497
 31
0.0
  0
LINE
  5
22B
  8
0
  6
CONTINUOUS
 62
     7
 10
157.5140645556
 20
-41.9519321411
 30
0.0
 11
157.5140645556
 21
-40.9519323497
 31
0.0
  0
LINE
  5
22C
  8
0
  6
CONTINUOUS
 62
     7
 10
77.3140629582
 20
-40.9519323497
 30
0.0
 11
72.5140621715
 21
-40.9519323497
 31
0.0
  0
LINE
  5
22D
  8
0
  6
CONTINUOUS
 62
     7
 10
72.5140621715
 20
-41.9519321411
 30
0.0
 11
72.5140621715
 21
-40.9519323497
 31
0.0
  0
LINE
  5
22E
  8
0
  6
CONTINUOUS
 62
     7
 10
157.5140645556
 20
-52.7519320487
 30
0.0
 11
152.7140637689
 21
-52.7519320487
 31
0.0
  0
LINE
  5
22F
  8
0
  6
CONTINUOUS
 62
     7
 10
157.5140645556
 20
-52.7519320487
 30
0.0
 11
157.5140645556
 21
-51.7519322573
 31
0.0
  0
LINE
  5
230
  8
0
  6
CONTINUOUS
 62
     7
 10
77.3140629582
 20
-52.7519320487
 30
0.0
 11
72.5140621715
 21
-52.7519320487
 31
0.0
  0
LINE
  5
231
  8
0
  6
CONTINUOUS
 62
     7
 10
72.5140621715
 20
-52.7519320487
 30
0.0
 11
72.5140621715
 21
-51.7519322573
 31
0.0
  0
ENDSEC
  0
EOF
