  0
SECTION
  2
HEADER
  9
$ACADVER
  1
AC1009
  9
$DWGCODEPAGE
  3
ansi_1252
  9
$INSBASE
 10
0.0
 20
0.0
 30
0.0
  9
$EXTMIN
 10
0.0
 20
0.0
 30
0.0
  9
$EXTMAX
 10
420.0
 20
297.0
 30
0.0
  9
$LIMMIN
 10
0.0
 20
0.0
  9
$LIMMAX
 10
420.0
 20
297.0
  9
$ORTHOMODE
 70
     0
  9
$REGENMODE
 70
     1
  9
$FILLMODE
 70
     1
  9
$QTEXTMODE
 70
     0
  9
$MIRRTEXT
 70
     1
  9
$DRAGMODE
 70
     2
  9
$LTSCALE
 40
1.0
  9
$OSMODE
 70
    37
  9
$ATTMODE
 70
     1
  9
$TEXTSIZE
 40
3.5
  9
$TRACEWID
 40
1.0
  9
$TEXTSTYLE
  7
STANDARD
  9
$CLAYER
  8
0
  9
$CELTYPE
  6
BYLAYER
  9
$CECOLOR
 62
   256
  9
$DIMSCALE
 40
1.0
  9
$DIMASZ
 40
4.0
  9
$DIMEXO
 40
0.0
  9
$DIMDLI
 40
3.75
  9
$DIMRND
 40
0.0
  9
$DIMDLE
 40
0.0
  9
$DIMEXE
 40
2.0
  9
$DIMTP
 40
0.0
  9
$DIMTM
 40
0.0
  9
$DIMTXT
 40
3.5
  9
$DIMCEN
 40
2.5
  9
$DIMTSZ
 40
0.0
  9
$DIMTOL
 70
     0
  9
$DIMLIM
 70
     0
  9
$DIMTIH
 70
     1
  9
$DIMTOH
 70
     1
  9
$DIMSE1
 70
     0
  9
$DIMSE2
 70
     0
  9
$DIMTAD
 70
     1
  9
$DIMZIN
 70
     0
  9
$DIMBLK
  1

  9
$DIMASO
 70
     1
  9
$DIMSHO
 70
     1
  9
$DIMPOST
  1

  9
$DIMAPOST
  1

  9
$DIMALT
 70
     0
  9
$DIMALTD
 70
     3
  9
$DIMALTF
 40
0.0393700787
  9
$DIMLFAC
 40
5.0
  9
$DIMTOFL
 70
     1
  9
$DIMTVP
 40
0.0
  9
$DIMTIX
 70
     0
  9
$DIMSOXD
 70
     0
  9
$DIMSAH
 70
     0
  9
$DIMBLK1
  1

  9
$DIMBLK2
  1

  9
$DIMSTYLE
  2
ISO-25
  9
$DIMCLRD
 70
     0
  9
$DIMCLRE
 70
     0
  9
$DIMCLRT
 70
     0
  9
$DIMTFAC
 40
1.0
  9
$DIMGAP
 40
1.524
  9
$LUNITS
 70
     2
  9
$LUPREC
 70
     2
  9
$SKETCHINC
 40
1.0
  9
$FILLETRAD
 40
10.0
  9
$AUNITS
 70
     0
  9
$AUPREC
 70
     2
  9
$MENU
  1
.
  9
$ELEVATION
 40
0.0
  9
$PELEVATION
 40
0.0
  9
$THICKNESS
 40
0.0
  9
$LIMCHECK
 70
     0
  9
$CHAMFERA
 40
10.0
  9
$CHAMFERB
 40
10.0
  9
$SKPOLY
 70
     0
  9
$TDCREATE
 40
2457802.380374745
  9
$TDUPDATE
 40
2457802.380374954
  9
$TDINDWG
 40
0.0000000116
  9
$TDUSRTIMER
 40
0.0000000116
  9
$USRTIMER
 70
     1
  9
$ANGBASE
 50
0.0
  9
$ANGDIR
 70
     0
  9
$PDMODE
 70
     0
  9
$PDSIZE
 40
-1.0
  9
$PLINEWID
 40
0.0
  9
$COORDS
 70
     1
  9
$SPLFRAME
 70
     0
  9
$SPLINETYPE
 70
     6
  9
$SPLINESEGS
 70
     8
  9
$ATTDIA
 70
     0
  9
$ATTREQ
 70
     1
  9
$HANDLING
 70
     1
  9
$HANDSEED
  5
695
  9
$SURFTAB1
 70
     6
  9
$SURFTAB2
 70
     6
  9
$SURFTYPE
 70
     6
  9
$SURFU
 70
     6
  9
$SURFV
 70
     6
  9
$UCSNAME
  2

  9
$UCSORG
 10
0.0
 20
0.0
 30
0.0
  9
$UCSXDIR
 10
1.0
 20
0.0
 30
0.0
  9
$UCSYDIR
 10
0.0
 20
1.0
 30
0.0
  9
$PUCSNAME
  2

  9
$PUCSORG
 10
0.0
 20
0.0
 30
0.0
  9
$PUCSXDIR
 10
1.0
 20
0.0
 30
0.0
  9
$PUCSYDIR
 10
0.0
 20
1.0
 30
0.0
  9
$USERI1
 70
     0
  9
$USERI2
 70
     0
  9
$USERI3
 70
     0
  9
$USERI4
 70
     0
  9
$USERI5
 70
     0
  9
$USERR1
 40
0.0
  9
$USERR2
 40
0.0
  9
$USERR3
 40
0.0
  9
$USERR4
 40
0.0
  9
$USERR5
 40
0.0
  9
$WORLDVIEW
 70
     1
  9
$SHADEDGE
 70
     3
  9
$SHADEDIF
 70
    70
  9
$TILEMODE
 70
     1
  9
$MAXACTVP
 70
    64
  9
$PLIMCHECK
 70
     0
  9
$PEXTMIN
 10
1.0000000000E+20
 20
1.0000000000E+20
 30
1.0000000000E+20
  9
$PEXTMAX
 10
-1.0000000000E+20
 20
-1.0000000000E+20
 30
-1.0000000000E+20
  9
$PLIMMIN
 10
0.0
 20
0.0
  9
$PLIMMAX
 10
420.0
 20
297.0
  9
$UNITMODE
 70
     0
  9
$VISRETAIN
 70
     1
  9
$PLINEGEN
 70
     0
  9
$PSLTSCALE
 70
     1
  0
ENDSEC
  0
SECTION
  2
TABLES
  0
TABLE
  2
VPORT
 70
     1
  0
VPORT
  2
*ACTIVE
 70
     0
 10
0.0
 20
0.0
 11
1.0
 21
1.0
 12
210.0
 22
148.5
 13
0.0
 23
0.0
 14
10.0
 24
10.0
 15
10.0
 25
10.0
 16
0.0
 26
0.0
 36
1.0
 17
0.0
 27
0.0
 37
0.0
 40
297.0
 41
1.4141414141
 42
50.0
 43
0.0
 44
0.0
 50
0.0
 51
0.0
 71
     0
 72
  2000
 73
     1
 74
     3
 75
     0
 76
     0
 77
     0
 78
     0
  0
ENDTAB
  0
TABLE
  2
LTYPE
 70
     6
  0
LTYPE
  2
CONTINUOUS
 70
     0
  3
Solid line
 72
    65
 73
     0
 40
0.0
  0
LTYPE
  2
HIDDEN
 70
     0
  3
Hidden __ __ __ __ __ __ __ __ __ __ __ __ __ __
 72
    65
 73
     2
 40
1.905
 49
1.27
 49
-0.635
  0
LTYPE
  2
PHANTOM
 70
     0
  3
Phantom ______  __  __  ______  __  __  ______
 72
    65
 73
     6
 40
12.7
 49
6.35
 49
-1.27
 49
1.27
 49
-1.27
 49
1.27
 49
-1.27
  0
LTYPE
  2
CENTER
 70
     0
  3
Center ____ _ ____ _ ____ _ ____ _ ____ _ ____
 72
    65
 73
     4
 40
10.16
 49
6.35
 49
-1.27
 49
1.27
 49
-1.27
  0
LTYPE
  2
CENTERX2
 70
     0
  3
Center (2x) ________  __  ________  __  _____
 72
    65
 73
     4
 40
20.32
 49
12.7
 49
-2.54
 49
2.54
 49
-2.54
  0
LTYPE
  2
DOT2
 70
     0
  3
Dot (.5x) ........................................
 72
    65
 73
     2
 40
0.635
 49
0.0
 49
-0.635
  0
ENDTAB
  0
TABLE
  2
LAYER
 70
     2
  0
LAYER
  2
0
 70
     0
 62
     7
  6
CONTINUOUS
  0
LAYER
  2
FORMAT
 70
     0
 62
     7
  6
CONTINUOUS
  0
ENDTAB
  0
TABLE
  2
STYLE
 70
     1
  0
STYLE
  2
STANDARD
 70
     0
 40
0.0
 41
1.0
 50
0.0
 71
     0
 42
3.5
  3
txt
  4

  0
ENDTAB
  0
TABLE
  2
VIEW
 70
     0
  0
ENDTAB
  0
TABLE
  2
UCS
 70
     0
  0
ENDTAB
  0
TABLE
  2
APPID
 70
     1
  0
APPID
  2
ACAD
 70
     0
  0
ENDTAB
  0
TABLE
  2
DIMSTYLE
 70
     1
  0
DIMSTYLE
  2
ISO-25
 70
     0
  3

  4

  5

  6

  7

 40
1.0
 41
2.5
 42
0.625
 43
3.75
 44
1.25
 45
0.0
 46
0.0
 47
0.0
 48
0.0
140
2.5
141
2.5
142
0.0
143
0.0393700787
144
1.0
145
0.0
146
1.0
147
0.625
 71
     0
 72
     0
 73
     0
 74
     0
 75
     0
 76
     0
 77
     1
 78
     8
170
     0
171
     3
172
     1
173
     0
174
     0
175
     0
176
     0
177
     0
178
     0
  0
ENDTAB
  0
ENDSEC
  0
SECTION
  2
BLOCKS
  0
BLOCK
  8
0
  2
$MODEL_SPACE
 70
     0
 10
0.0
 20
0.0
 30
0.0
  3
$MODEL_SPACE
  1

  0
ENDBLK
  5
21
  8
0
  0
BLOCK
 67
     1
  8
0
  2
$PAPER_SPACE
 70
     0
 10
0.0
 20
0.0
 30
0.0
  3
$PAPER_SPACE
  1

  0
ENDBLK
  5
1D
 67
     1
  8
0
  0
ENDSEC
  0
SECTION
  2
ENTITIES
  0
ARC
  5
45
  8
0
  6
CONTINUOUS
 62
     7
 10
93.3831192988
 20
182.8342478232
 30
0.0
 40
15.10054150829806
 50
271.1941136686
 51
0.2074254998
  0
ARC
  5
46
  8
0
  6
CONTINUOUS
 62
     7
 10
43.479404343
 20
182.8304062809
 30
0.0
 40
15.0976685732243
 50
179.7787705677
 51
268.8139347625
  0
LINE
  5
47
  8
0
  6
CONTINUOUS
 62
     7
 10
28.3735275047
 20
222.59100916
 30
0.0
 11
28.3735275047
 21
182.8891658983
 31
0.0
  0
LINE
  5
48
  8
0
  6
CONTINUOUS
 62
     7
 10
108.4910422342
 20
182.8891658983
 30
0.0
 11
108.4910422342
 21
222.59100916
 31
0.0
  0
POLYLINE
  5
49
  8
0
  6
CONTINUOUS
 62
     7
 66
     1
 10
0.0
 20
0.0
 30
0.0
  0
VERTEX
  5
2CD
  8
0
  6
CONTINUOUS
 62
     7
 10
43.1667446869
 20
167.7284622393
 30
0.0
  0
VERTEX
  5
2CE
  8
0
  6
CONTINUOUS
 62
     7
 10
44.9585497158
 20
167.699649354
 30
0.0
  0
VERTEX
  5
2CF
  8
0
  6
CONTINUOUS
 62
     7
 10
48.3691215294
 20
167.6507616243
 30
0.0
  0
VERTEX
  5
2D0
  8
0
  6
CONTINUOUS
 62
     7
 10
51.7864882725
 20
167.6095271311
 30
0.0
  0
VERTEX
  5
2D1
  8
0
  6
CONTINUOUS
 62
     7
 10
55.2094518917
 20
167.575981637
 30
0.0
  0
VERTEX
  5
2D2
  8
0
  6
CONTINUOUS
 62
     7
 10
58.6368679779
 20
167.550137063
 30
0.0
  0
VERTEX
  5
2D3
  8
0
  6
CONTINUOUS
 62
     7
 10
62.0675742405
 20
167.5319934091
 30
0.0
  0
VERTEX
  5
2D4
  8
0
  6
CONTINUOUS
 62
     7
 10
65.5004262703
 20
167.5215506754
 30
0.0
  0
VERTEX
  5
2D5
  8
0
  6
CONTINUOUS
 62
     7
 10
68.9342617767
 20
167.5188207827
 30
0.0
  0
VERTEX
  5
2D6
  8
0
  6
CONTINUOUS
 62
     7
 10
72.3679244297
 20
167.523803731
 30
0.0
  0
VERTEX
  5
2D7
  8
0
  6
CONTINUOUS
 62
     7
 10
75.8002519386
 20
167.5364995203
 30
0.0
  0
VERTEX
  5
2D8
  8
0
  6
CONTINUOUS
 62
     7
 10
79.2300998943
 20
167.5568962297
 30
0.0
  0
VERTEX
  5
2D9
  8
0
  6
CONTINUOUS
 62
     7
 10
82.6563060062
 20
167.5849938593
 30
0.0
  0
VERTEX
  5
2DA
  8
0
  6
CONTINUOUS
 62
     7
 10
86.0777199047
 20
167.6207924089
 30
0.0
  0
VERTEX
  5
2DB
  8
0
  6
CONTINUOUS
 62
     7
 10
89.4931822794
 20
167.6642561159
 30
0.0
  0
VERTEX
  5
2DC
  8
0
  6
CONTINUOUS
 62
     7
 10
92.7224069612
 20
167.7125120363
 30
0.0
  0
VERTEX
  5
2DD
  8
0
  6
CONTINUOUS
 62
     7
 10
93.6978280323
 20
167.7284622393
 30
0.0
  0
SEQEND
  5
694
  8
0
  6
CONTINUOUS
 62
     7
  0
ARC
  5
4A
  8
0
  6
CONTINUOUS
 62
     7
 10
42.8920328567
 20
222.9887760743
 30
0.0
 40
14.25376704277386
 50
88.5351640956
 51
113.3276889279
  0
ARC
  5
4B
  8
0
  6
CONTINUOUS
 62
     7
 10
93.9711398626
 20
222.951414912
 30
0.0
 40
14.29230839019054
 50
66.7644782449
 51
91.4553543428
  0
POLYLINE
  5
4C
  8
0
  6
CONTINUOUS
 62
     7
 66
     1
 10
0.0
 20
0.0
 30
0.0
  0
VERTEX
  5
2DE
  8
0
  6
CONTINUOUS
 62
     7
 10
34.5558702724
 20
234.5916176042
 30
0.0
  0
VERTEX
  5
2DF
  8
0
  6
CONTINUOUS
 62
     7
 10
34.5104813354
 20
234.56179144
 30
0.0
  0
VERTEX
  5
2E0
  8
0
  6
CONTINUOUS
 62
     7
 10
34.1786980408
 20
234.3108678064
 30
0.0
  0
SEQEND
  5
693
  8
0
  6
CONTINUOUS
 62
     7
  0
ARC
  5
4D
  8
0
  6
CONTINUOUS
 62
     7
 10
42.9387466515
 20
222.6881804593
 30
0.0
 40
14.55833199556978
 50
128.466586022
 51
180.3828525126
  0
ARC
  5
4E
  8
0
  6
CONTINUOUS
 62
     7
 10
93.9033025626
 20
222.6834507012
 30
0.0
 40
14.57975902578253
 50
359.6361570838
 51
54.8680401908
  0
POLYLINE
  5
4F
  8
0
  6
CONTINUOUS
 62
     7
 66
     1
 10
0.0
 20
0.0
 30
0.0
  0
VERTEX
  5
2E1
  8
0
  6
CONTINUOUS
 62
     7
 10
93.6081081408
 20
237.2460508547
 30
0.0
  0
VERTEX
  5
2E2
  8
0
  6
CONTINUOUS
 62
     7
 10
91.8227672356
 20
237.2173452578
 30
0.0
  0
VERTEX
  5
2E3
  8
0
  6
CONTINUOUS
 62
     7
 10
88.4245544451
 20
237.1686244211
 30
0.0
  0
VERTEX
  5
2E4
  8
0
  6
CONTINUOUS
 62
     7
 10
85.0194602983
 20
237.1275448999
 30
0.0
  0
VERTEX
  5
2E5
  8
0
  6
CONTINUOUS
 62
     7
 10
81.6086798685
 20
237.0941186151
 30
0.0
  0
VERTEX
  5
2E6
  8
0
  6
CONTINUOUS
 62
     7
 10
78.1933784264
 20
237.0683574877
 30
0.0
  0
VERTEX
  5
2E7
  8
0
  6
CONTINUOUS
 62
     7
 10
74.7747301834
 20
237.0502734384
 30
0.0
  0
VERTEX
  5
2E8
  8
0
  6
CONTINUOUS
 62
     7
 10
71.3539063709
 20
237.0398664675
 30
0.0
  0
VERTEX
  5
2E9
  8
0
  6
CONTINUOUS
 62
     7
 10
67.9320752399
 20
237.0371484957
 30
0.0
  0
VERTEX
  5
2EA
  8
0
  6
CONTINUOUS
 62
     7
 10
64.5104050415
 20
237.042119523
 30
0.0
  0
VERTEX
  5
2EB
  8
0
  6
CONTINUOUS
 62
     7
 10
61.090081908
 20
237.0547676287
 30
0.0
  0
VERTEX
  5
2EC
  8
0
  6
CONTINUOUS
 62
     7
 10
57.6722681301
 20
237.0750928125
 30
0.0
  0
VERTEX
  5
2ED
  8
0
  6
CONTINUOUS
 62
     7
 10
54.2581379192
 20
237.1030950746
 30
0.0
  0
VERTEX
  5
2EE
  8
0
  6
CONTINUOUS
 62
     7
 10
50.8488595264
 20
237.1387624941
 30
0.0
  0
VERTEX
  5
2EF
  8
0
  6
CONTINUOUS
 62
     7
 10
47.4456071632
 20
237.1820831499
 30
0.0
  0
VERTEX
  5
2F0
  8
0
  6
CONTINUOUS
 62
     7
 10
44.2280828732
 20
237.2301602564
 30
0.0
  0
VERTEX
  5
2F1
  8
0
  6
CONTINUOUS
 62
     7
 10
43.2564615982
 20
237.2460508547
 30
0.0
  0
SEQEND
  5
692
  8
0
  6
CONTINUOUS
 62
     7
  0
ARC
  5
50
  8
0
  6
CONTINUOUS
 62
     7
 10
213.3831233592
 20
182.8342397275
 30
0.0
 40
15.10053330490874
 50
271.1940943835
 51
0.20745633
  0
ARC
  5
51
  8
0
  6
CONTINUOUS
 62
     7
 10
163.4794137832
 20
182.8304211092
 30
0.0
 40
15.09768361845966
 50
179.7788270622
 51
268.8138955865
  0
LINE
  5
52
  8
0
  6
CONTINUOUS
 62
     7
 10
148.3735292929
 20
222.59100916
 30
0.0
 11
148.3735292929
 21
182.8891658983
 31
0.0
  0
LINE
  5
53
  8
0
  6
CONTINUOUS
 62
     7
 10
228.4910440224
 20
182.8891658983
 30
0.0
 11
228.4910440224
 21
222.59100916
 31
0.0
  0
POLYLINE
  5
54
  8
0
  6
CONTINUOUS
 62
     7
 66
     1
 10
0.0
 20
0.0
 30
0.0
  0
VERTEX
  5
2F2
  8
0
  6
CONTINUOUS
 62
     7
 10
163.1667434948
 20
167.7284622393
 30
0.0
  0
VERTEX
  5
2F3
  8
0
  6
CONTINUOUS
 62
     7
 10
164.9585515039
 20
167.699649354
 30
0.0
  0
VERTEX
  5
2F4
  8
0
  6
CONTINUOUS
 62
     7
 10
168.3691233175
 20
167.6507616243
 30
0.0
  0
VERTEX
  5
2F5
  8
0
  6
CONTINUOUS
 62
     7
 10
171.7864870804
 20
167.6095271311
 30
0.0
  0
VERTEX
  5
2F6
  8
0
  6
CONTINUOUS
 62
     7
 10
175.2094506996
 20
167.575981637
 30
0.0
  0
VERTEX
  5
2F7
  8
0
  6
CONTINUOUS
 62
     7
 10
178.6368667858
 20
167.550137063
 30
0.0
  0
VERTEX
  5
2F8
  8
0
  6
CONTINUOUS
 62
     7
 10
182.0675730484
 20
167.5319934091
 30
0.0
  0
VERTEX
  5
2F9
  8
0
  6
CONTINUOUS
 62
     7
 10
185.5004250782
 20
167.5215506754
 30
0.0
  0
VERTEX
  5
2FA
  8
0
  6
CONTINUOUS
 62
     7
 10
188.9342605846
 20
167.5188207827
 30
0.0
  0
VERTEX
  5
2FB
  8
0
  6
CONTINUOUS
 62
     7
 10
192.3679232376
 20
167.523803731
 30
0.0
  0
VERTEX
  5
2FC
  8
0
  6
CONTINUOUS
 62
     7
 10
195.800256707
 20
167.5364995203
 30
0.0
  0
VERTEX
  5
2FD
  8
0
  6
CONTINUOUS
 62
     7
 10
199.2300987022
 20
167.5568962297
 30
0.0
  0
VERTEX
  5
2FE
  8
0
  6
CONTINUOUS
 62
     7
 10
202.6563048141
 20
167.5849938593
 30
0.0
  0
VERTEX
  5
2FF
  8
0
  6
CONTINUOUS
 62
     7
 10
206.0777187126
 20
167.6207924089
 30
0.0
  0
VERTEX
  5
300
  8
0
  6
CONTINUOUS
 62
     7
 10
209.4931840675
 20
167.6642561159
 30
0.0
  0
VERTEX
  5
301
  8
0
  6
CONTINUOUS
 62
     7
 10
212.7224087494
 20
167.7125120363
 30
0.0
  0
VERTEX
  5
302
  8
0
  6
CONTINUOUS
 62
     7
 10
213.6978268402
 20
167.7284622393
 30
0.0
  0
SEQEND
  5
691
  8
0
  6
CONTINUOUS
 62
     7
  0
ARC
  5
55
  8
0
  6
CONTINUOUS
 62
     7
 10
162.8920249022
 20
222.9888110874
 30
0.0
 40
14.2537322139942
 50
88.5351333239
 51
113.3277196996
  0
ARC
  5
56
  8
0
  6
CONTINUOUS
 62
     7
 10
213.971140099
 20
222.9514068463
 30
0.0
 40
14.29231641385417
 50
66.7644852849
 51
91.4553473028
  0
POLYLINE
  5
57
  8
0
  6
CONTINUOUS
 62
     7
 66
     1
 10
0.0
 20
0.0
 30
0.0
  0
VERTEX
  5
303
  8
0
  6
CONTINUOUS
 62
     7
 10
154.5558690803
 20
234.5916176042
 30
0.0
  0
VERTEX
  5
304
  8
0
  6
CONTINUOUS
 62
     7
 10
154.5104801434
 20
234.56179144
 30
0.0
  0
VERTEX
  5
305
  8
0
  6
CONTINUOUS
 62
     7
 10
154.1786968487
 20
234.3108678064
 30
0.0
  0
SEQEND
  5
690
  8
0
  6
CONTINUOUS
 62
     7
  0
ARC
  5
58
  8
0
  6
CONTINUOUS
 62
     7
 10
162.9387345357
 20
222.6881890006
 30
0.0
 40
14.55831665883452
 50
128.4665640879
 51
180.382886532
  0
ARC
  5
59
  8
0
  6
CONTINUOUS
 62
     7
 10
213.9033055788
 20
222.6834453641
 30
0.0
 40
14.57975925395776
 50
359.636178064
 51
54.8680753639
  0
POLYLINE
  5
5A
  8
0
  6
CONTINUOUS
 62
     7
 66
     1
 10
0.0
 20
0.0
 30
0.0
  0
VERTEX
  5
306
  8
0
  6
CONTINUOUS
 62
     7
 10
213.6081099289
 20
237.2460508547
 30
0.0
  0
VERTEX
  5
307
  8
0
  6
CONTINUOUS
 62
     7
 10
211.8227660435
 20
237.2173452578
 30
0.0
  0
VERTEX
  5
308
  8
0
  6
CONTINUOUS
 62
     7
 10
208.4245562332
 20
237.1686244211
 30
0.0
  0
VERTEX
  5
309
  8
0
  6
CONTINUOUS
 62
     7
 10
205.0194620865
 20
237.1275448999
 30
0.0
  0
VERTEX
  5
30A
  8
0
  6
CONTINUOUS
 62
     7
 10
201.6086816566
 20
237.0941186151
 30
0.0
  0
VERTEX
  5
30B
  8
0
  6
CONTINUOUS
 62
     7
 10
198.1933831947
 20
237.0683574877
 30
0.0
  0
VERTEX
  5
30C
  8
0
  6
CONTINUOUS
 62
     7
 10
194.7747349518
 20
237.0502734384
 30
0.0
  0
VERTEX
  5
30D
  8
0
  6
CONTINUOUS
 62
     7
 10
191.3539051788
 20
237.0398664675
 30
0.0
  0
VERTEX
  5
30E
  8
0
  6
CONTINUOUS
 62
     7
 10
187.9320740478
 20
237.0371484957
 30
0.0
  0
VERTEX
  5
30F
  8
0
  6
CONTINUOUS
 62
     7
 10
184.5104098099
 20
237.042119523
 30
0.0
  0
VERTEX
  5
310
  8
0
  6
CONTINUOUS
 62
     7
 10
181.0900807159
 20
237.0547676287
 30
0.0
  0
VERTEX
  5
311
  8
0
  6
CONTINUOUS
 62
     7
 10
177.6722699182
 20
237.0750928125
 30
0.0
  0
VERTEX
  5
312
  8
0
  6
CONTINUOUS
 62
     7
 10
174.2581367271
 20
237.1030950746
 30
0.0
  0
VERTEX
  5
313
  8
0
  6
CONTINUOUS
 62
     7
 10
170.8488613146
 20
237.1387624941
 30
0.0
  0
VERTEX
  5
314
  8
0
  6
CONTINUOUS
 62
     7
 10
167.4456059711
 20
237.1820831499
 30
0.0
  0
VERTEX
  5
315
  8
0
  6
CONTINUOUS
 62
     7
 10
164.2280846613
 20
237.2301602564
 30
0.0
  0
VERTEX
  5
316
  8
0
  6
CONTINUOUS
 62
     7
 10
163.2564633863
 20
237.2460508547
 30
0.0
  0
SEQEND
  5
68F
  8
0
  6
CONTINUOUS
 62
     7
  0
POLYLINE
  5
5B
  8
0
  6
CONTINUOUS
 62
     7
 66
     1
 10
0.0
 20
0.0
 30
0.0
  0
VERTEX
  5
317
  8
0
  6
CONTINUOUS
 62
     7
 10
105.33210931
 20
145.428993722
 30
0.0
  0
VERTEX
  5
318
  8
0
  6
CONTINUOUS
 62
     7
 10
105.3265496867
 20
145.4280281267
 30
0.0
  0
VERTEX
  5
319
  8
0
  6
CONTINUOUS
 62
     7
 10
105.3254946845
 20
145.4278373918
 30
0.0
  0
SEQEND
  5
68E
  8
0
  6
CONTINUOUS
 62
     7
  0
POLYLINE
  5
5C
  8
0
  6
CONTINUOUS
 62
     7
 66
     1
 10
0.0
 20
0.0
 30
0.0
  0
VERTEX
  5
31A
  8
0
  6
CONTINUOUS
 62
     7
 10
31.5394043701
 20
145.4277479849
 30
0.0
  0
VERTEX
  5
31B
  8
0
  6
CONTINUOUS
 62
     7
 10
31.5384089725
 20
145.4279327593
 30
0.0
  0
VERTEX
  5
31C
  8
0
  6
CONTINUOUS
 62
     7
 10
31.5274894016
 20
145.4298162661
 30
0.0
  0
SEQEND
  5
68D
  8
0
  6
CONTINUOUS
 62
     7
  0
LINE
  5
5D
  8
0
  6
CONTINUOUS
 62
     7
 10
31.5391540306
 20
145.4278075895
 30
0.0
 11
31.5317749756
 21
145.4291188917
 31
0.0
  0
LINE
  5
5E
  8
0
  6
CONTINUOUS
 62
     7
 10
106.2498152035
 20
140.1266241274
 30
0.0
 11
106.3064574974
 21
140.1380503378
 31
0.0
  0
ARC
  5
5F
  8
0
  6
CONTINUOUS
 62
     7
 10
14.4974980204
 20
60.324298498
 30
0.0
 40
81.41361840337912
 50
78.4974998085
 51
78.6268720826
  0
LINE
  5
60
  8
0
  6
CONTINUOUS
 62
     7
 10
30.5465996044
 20
140.1403510771
 30
0.0
 11
30.5510639923
 21
140.1394629679
 31
0.0
  0
POLYLINE
  5
61
  8
0
  6
CONTINUOUS
 62
     7
 66
     1
 10
0.0
 20
0.0
 30
0.0
  0
VERTEX
  5
31D
  8
0
  6
CONTINUOUS
 62
     7
 10
225.3321110981
 20
145.428993722
 30
0.0
  0
VERTEX
  5
31E
  8
0
  6
CONTINUOUS
 62
     7
 10
225.3265499847
 20
145.4280281267
 30
0.0
  0
VERTEX
  5
31F
  8
0
  6
CONTINUOUS
 62
     7
 10
225.3254949825
 20
145.4278373918
 30
0.0
  0
SEQEND
  5
68C
  8
0
  6
CONTINUOUS
 62
     7
  0
POLYLINE
  5
62
  8
0
  6
CONTINUOUS
 62
     7
 66
     1
 10
0.0
 20
0.0
 30
0.0
  0
VERTEX
  5
320
  8
0
  6
CONTINUOUS
 62
     7
 10
151.5394016879
 20
145.4277479849
 30
0.0
  0
VERTEX
  5
321
  8
0
  6
CONTINUOUS
 62
     7
 10
151.5384092706
 20
145.4279327593
 30
0.0
  0
VERTEX
  5
322
  8
0
  6
CONTINUOUS
 62
     7
 10
151.5274911898
 20
145.4298162661
 30
0.0
  0
SEQEND
  5
68B
  8
0
  6
CONTINUOUS
 62
     7
  0
LINE
  5
63
  8
0
  6
CONTINUOUS
 62
     7
 10
151.5391513484
 20
145.4278075895
 30
0.0
 11
151.5317722934
 21
145.4291188917
 31
0.0
  0
ARC
  5
64
  8
0
  6
CONTINUOUS
 62
     7
 10
134.4267519434
 20
59.973301135
 30
0.0
 40
81.77167422044114
 50
78.4979662251
 51
78.6267740599
  0
LINE
  5
65
  8
0
  6
CONTINUOUS
 62
     7
 10
150.5465969222
 20
140.1403510771
 30
0.0
 11
150.5510628002
 21
140.1394629679
 31
0.0
  0
LINE
  5
66
  8
0
  6
CONTINUOUS
 62
     7
 10
226.2498140114
 20
140.1266241274
 30
0.0
 11
226.3064563053
 21
140.1380503378
 31
0.0
  0
POLYLINE
  5
67
  8
0
  6
CONTINUOUS
 62
     7
 66
     1
 10
0.0
 20
0.0
 30
0.0
  0
VERTEX
  5
323
  8
0
  6
CONTINUOUS
 62
     7
 10
93.4660613316
 20
172.8773021898
 30
0.0
  0
VERTEX
  5
324
  8
0
  6
CONTINUOUS
 62
     7
 10
94.3065821903
 20
172.8989744387
 30
0.0
  0
VERTEX
  5
325
  8
0
  6
CONTINUOUS
 62
     7
 10
95.1328396576
 20
172.9333424768
 30
0.0
  0
SEQEND
  5
68A
  8
0
  6
CONTINUOUS
 62
     7
  0
ARC
  5
68
  8
0
  6
CONTINUOUS
 62
     7
 10
93.1083668611
 20
182.9912174747
 30
0.0
 40
10.25959743735742
 50
281.3805628125
 51
0.2107921984
  0
ARC
  5
69
  8
0
  6
CONTINUOUS
 62
     7
 10
44.3911031572
 20
227.214563133
 30
0.0
 40
54.3463261428395
 50
267.1951819377
 51
268.9534806573
  0
ARC
  5
6A
  8
0
  6
CONTINUOUS
 62
     7
 10
43.7436372513
 20
182.9809651901
 30
0.0
 40
10.24707180890118
 50
179.7316247056
 51
258.6770202835
  0
POLYLINE
  5
6B
  8
0
  6
CONTINUOUS
 62
     7
 66
     1
 10
0.0
 20
0.0
 30
0.0
  0
VERTEX
  5
326
  8
0
  6
CONTINUOUS
 62
     7
 10
41.7317330616
 20
172.9333424768
 30
0.0
  0
VERTEX
  5
327
  8
0
  6
CONTINUOUS
 62
     7
 10
45.5246925133
 20
172.8705907068
 30
0.0
  0
VERTEX
  5
328
  8
0
  6
CONTINUOUS
 62
     7
 10
49.3275224941
 20
172.8174472055
 30
0.0
  0
VERTEX
  5
329
  8
0
  6
CONTINUOUS
 62
     7
 10
53.1385898369
 20
172.7739358148
 30
0.0
  0
VERTEX
  5
32A
  8
0
  6
CONTINUOUS
 62
     7
 10
56.9562434929
 20
172.7400684557
 30
0.0
  0
VERTEX
  5
32B
  8
0
  6
CONTINUOUS
 62
     7
 10
60.7788443344
 20
172.7158689699
 30
0.0
  0
VERTEX
  5
32C
  8
0
  6
CONTINUOUS
 62
     7
 10
64.6047413128
 20
172.7013492784
 30
0.0
  0
VERTEX
  5
32D
  8
0
  6
CONTINUOUS
 62
     7
 10
68.4322833794
 20
172.6965093813
 30
0.0
  0
VERTEX
  5
32E
  8
0
  6
CONTINUOUS
 62
     7
 10
72.2598314064
 20
172.7013492784
 30
0.0
  0
VERTEX
  5
32F
  8
0
  6
CONTINUOUS
 62
     7
 10
76.0857283848
 20
172.7158689699
 30
0.0
  0
VERTEX
  5
330
  8
0
  6
CONTINUOUS
 62
     7
 10
79.9083292263
 20
172.7400684557
 30
0.0
  0
VERTEX
  5
331
  8
0
  6
CONTINUOUS
 62
     7
 10
83.7259828823
 20
172.7739358148
 30
0.0
  0
VERTEX
  5
332
  8
0
  6
CONTINUOUS
 62
     7
 10
87.5370472448
 20
172.8174472055
 30
0.0
  0
VERTEX
  5
333
  8
0
  6
CONTINUOUS
 62
     7
 10
91.3398772257
 20
172.8705907068
 30
0.0
  0
VERTEX
  5
334
  8
0
  6
CONTINUOUS
 62
     7
 10
95.1328396576
 20
172.9333424768
 30
0.0
  0
SEQEND
  5
689
  8
0
  6
CONTINUOUS
 62
     7
  0
LINE
  5
6C
  8
0
  6
CONTINUOUS
 62
     7
 10
33.4966778534
 20
222.7308178148
 30
0.0
 11
33.4966778534
 21
183.0289626322
 31
0.0
  0
ARC
  5
6D
  8
0
  6
CONTINUOUS
 62
     7
 10
43.279835331
 20
222.8257470677
 30
0.0
 40
9.78361803195582
 50
99.1044135448
 51
180.5559426864
  0
POLYLINE
  5
6E
  8
0
  6
CONTINUOUS
 62
     7
 66
     1
 10
0.0
 20
0.0
 30
0.0
  0
VERTEX
  5
335
  8
0
  6
CONTINUOUS
 62
     7
 10
41.7317330616
 20
232.4861073694
 30
0.0
  0
VERTEX
  5
336
  8
0
  6
CONTINUOUS
 62
     7
 10
45.5246925133
 20
232.4233555994
 30
0.0
  0
VERTEX
  5
337
  8
0
  6
CONTINUOUS
 62
     7
 10
49.3275224941
 20
232.3702120981
 30
0.0
  0
VERTEX
  5
338
  8
0
  6
CONTINUOUS
 62
     7
 10
53.1385898369
 20
232.3267007074
 30
0.0
  0
VERTEX
  5
339
  8
0
  6
CONTINUOUS
 62
     7
 10
56.9562434929
 20
232.2928452692
 30
0.0
  0
VERTEX
  5
33A
  8
0
  6
CONTINUOUS
 62
     7
 10
60.7788443344
 20
232.2686457834
 30
0.0
  0
VERTEX
  5
33B
  8
0
  6
CONTINUOUS
 62
     7
 10
64.6047413128
 20
232.254114171
 30
0.0
  0
VERTEX
  5
33C
  8
0
  6
CONTINUOUS
 62
     7
 10
68.4322833794
 20
232.2492742739
 30
0.0
  0
VERTEX
  5
33D
  8
0
  6
CONTINUOUS
 62
     7
 10
72.2598314064
 20
232.254114171
 30
0.0
  0
VERTEX
  5
33E
  8
0
  6
CONTINUOUS
 62
     7
 10
76.0857283848
 20
232.2686457834
 30
0.0
  0
VERTEX
  5
33F
  8
0
  6
CONTINUOUS
 62
     7
 10
79.9083292263
 20
232.2928452692
 30
0.0
  0
VERTEX
  5
340
  8
0
  6
CONTINUOUS
 62
     7
 10
83.7259828823
 20
232.3267007074
 30
0.0
  0
VERTEX
  5
341
  8
0
  6
CONTINUOUS
 62
     7
 10
87.5370472448
 20
232.3702120981
 30
0.0
  0
VERTEX
  5
342
  8
0
  6
CONTINUOUS
 62
     7
 10
91.3398772257
 20
232.4233555994
 30
0.0
  0
VERTEX
  5
343
  8
0
  6
CONTINUOUS
 62
     7
 10
95.1328396576
 20
232.4861073694
 30
0.0
  0
SEQEND
  5
688
  8
0
  6
CONTINUOUS
 62
     7
  0
ARC
  5
6F
  8
0
  6
CONTINUOUS
 62
     7
 10
93.5961723557
 20
222.8354000451
 30
0.0
 40
9.772282141696751
 50
359.3868131615
 51
80.9528306073
  0
LINE
  5
70
  8
0
  6
CONTINUOUS
 62
     7
 10
103.3678948658
 20
183.0289626322
 30
0.0
 11
103.3678948658
 21
222.7308178148
 31
0.0
  0
POLYLINE
  5
71
  8
0
  6
CONTINUOUS
 62
     7
 66
     1
 10
0.0
 20
0.0
 30
0.0
  0
VERTEX
  5
344
  8
0
  6
CONTINUOUS
 62
     7
 10
43.3985113876
 20
172.8773021898
 30
0.0
  0
VERTEX
  5
345
  8
0
  6
CONTINUOUS
 62
     7
 10
47.2312807816
 20
172.8183531961
 30
0.0
  0
VERTEX
  5
346
  8
0
  6
CONTINUOUS
 62
     7
 10
51.0733365791
 20
172.7691793642
 30
0.0
  0
VERTEX
  5
347
  8
0
  6
CONTINUOUS
 62
     7
 10
54.9229919689
 20
172.7298164568
 30
0.0
  0
VERTEX
  5
348
  8
0
  6
CONTINUOUS
 62
     7
 10
58.7785660999
 20
172.7002883158
 30
0.0
  0
VERTEX
  5
349
  8
0
  6
CONTINUOUS
 62
     7
 10
62.6383602398
 20
172.6805830202
 30
0.0
  0
VERTEX
  5
34A
  8
0
  6
CONTINUOUS
 62
     7
 10
66.5006935375
 20
172.6707363329
 30
0.0
  0
VERTEX
  5
34B
  8
0
  6
CONTINUOUS
 62
     7
 10
70.3638732212
 20
172.6707363329
 30
0.0
  0
VERTEX
  5
34C
  8
0
  6
CONTINUOUS
 62
     7
 10
74.2262124794
 20
172.6805830202
 30
0.0
  0
VERTEX
  5
34D
  8
0
  6
CONTINUOUS
 62
     7
 10
78.0860066193
 20
172.7002883158
 30
0.0
  0
VERTEX
  5
34E
  8
0
  6
CONTINUOUS
 62
     7
 10
81.94157777
 20
172.7298164568
 30
0.0
  0
VERTEX
  5
34F
  8
0
  6
CONTINUOUS
 62
     7
 10
85.7912361401
 20
172.7691793642
 30
0.0
  0
VERTEX
  5
350
  8
0
  6
CONTINUOUS
 62
     7
 10
89.6332889574
 20
172.8183531961
 30
0.0
  0
VERTEX
  5
351
  8
0
  6
CONTINUOUS
 62
     7
 10
93.4660613316
 20
172.8773021898
 30
0.0
  0
SEQEND
  5
687
  8
0
  6
CONTINUOUS
 62
     7
  0
ARC
  5
72
  8
0
  6
CONTINUOUS
 62
     7
 10
41.4678716649
 20
225.3517236255
 30
0.0
 40
11.53050570870245
 50
111.5477753418
 51
126.7244895617
  0
ARC
  5
73
  8
0
  6
CONTINUOUS
 62
     7
 10
95.0116217536
 20
224.5821579364
 30
0.0
 40
12.38089171755958
 50
54.0747620571
 51
68.1456013588
  0
POLYLINE
  5
74
  8
0
  6
CONTINUOUS
 62
     7
 66
     1
 10
0.0
 20
0.0
 30
0.0
  0
VERTEX
  5
352
  8
0
  6
CONTINUOUS
 62
     7
 10
213.4660601395
 20
172.8773021898
 30
0.0
  0
VERTEX
  5
353
  8
0
  6
CONTINUOUS
 62
     7
 10
214.3065809982
 20
172.8989744387
 30
0.0
  0
VERTEX
  5
354
  8
0
  6
CONTINUOUS
 62
     7
 10
215.1328384655
 20
172.9333424768
 30
0.0
  0
SEQEND
  5
686
  8
0
  6
CONTINUOUS
 62
     7
  0
ARC
  5
75
  8
0
  6
CONTINUOUS
 62
     7
 10
213.1083605195
 20
182.9912216751
 30
0.0
 40
10.25960257132046
 50
281.3805863759
 51
0.210768635
  0
ARC
  5
76
  8
0
  6
CONTINUOUS
 62
     7
 10
164.3911367615
 20
227.2155980649
 30
0.0
 40
54.3473615376343
 50
267.1951986881
 51
268.953463907
  0
ARC
  5
77
  8
0
  6
CONTINUOUS
 62
     7
 10
163.7436384919
 20
182.9809671745
 30
0.0
 40
10.24707423228381
 50
179.7316358646
 51
258.6770091245
  0
POLYLINE
  5
78
  8
0
  6
CONTINUOUS
 62
     7
 66
     1
 10
0.0
 20
0.0
 30
0.0
  0
VERTEX
  5
355
  8
0
  6
CONTINUOUS
 62
     7
 10
161.7317318695
 20
172.9333424768
 30
0.0
  0
VERTEX
  5
356
  8
0
  6
CONTINUOUS
 62
     7
 10
165.5246943014
 20
172.8705907068
 30
0.0
  0
VERTEX
  5
357
  8
0
  6
CONTINUOUS
 62
     7
 10
169.3275242823
 20
172.8174472055
 30
0.0
  0
VERTEX
  5
358
  8
0
  6
CONTINUOUS
 62
     7
 10
173.1385886448
 20
172.7739358148
 30
0.0
  0
VERTEX
  5
359
  8
0
  6
CONTINUOUS
 62
     7
 10
176.9562423008
 20
172.7400684557
 30
0.0
  0
VERTEX
  5
35A
  8
0
  6
CONTINUOUS
 62
     7
 10
180.7788431423
 20
172.7158689699
 30
0.0
  0
VERTEX
  5
35B
  8
0
  6
CONTINUOUS
 62
     7
 10
184.6047401207
 20
172.7013492784
 30
0.0
  0
VERTEX
  5
35C
  8
0
  6
CONTINUOUS
 62
     7
 10
188.4322881477
 20
172.6965093813
 30
0.0
  0
VERTEX
  5
35D
  8
0
  6
CONTINUOUS
 62
     7
 10
192.2598302143
 20
172.7013492784
 30
0.0
  0
VERTEX
  5
35E
  8
0
  6
CONTINUOUS
 62
     7
 10
196.0857271927
 20
172.7158689699
 30
0.0
  0
VERTEX
  5
35F
  8
0
  6
CONTINUOUS
 62
     7
 10
199.9083280342
 20
172.7400684557
 30
0.0
  0
VERTEX
  5
360
  8
0
  6
CONTINUOUS
 62
     7
 10
203.7259816902
 20
172.7739358148
 30
0.0
  0
VERTEX
  5
361
  8
0
  6
CONTINUOUS
 62
     7
 10
207.537049033
 20
172.8174472055
 30
0.0
  0
VERTEX
  5
362
  8
0
  6
CONTINUOUS
 62
     7
 10
211.3398790138
 20
172.8705907068
 30
0.0
  0
VERTEX
  5
363
  8
0
  6
CONTINUOUS
 62
     7
 10
215.1328384655
 20
172.9333424768
 30
0.0
  0
SEQEND
  5
685
  8
0
  6
CONTINUOUS
 62
     7
  0
LINE
  5
79
  8
0
  6
CONTINUOUS
 62
     7
 10
153.4966766613
 20
222.7308178148
 30
0.0
 11
153.4966766613
 21
183.0289626322
 31
0.0
  0
ARC
  5
7A
  8
0
  6
CONTINUOUS
 62
     7
 10
163.2798293926
 20
222.8257510744
 30
0.0
 40
9.783613324751963
 50
99.1043898121
 51
180.5559664191
  0
POLYLINE
  5
7B
  8
0
  6
CONTINUOUS
 62
     7
 66
     1
 10
0.0
 20
0.0
 30
0.0
  0
VERTEX
  5
364
  8
0
  6
CONTINUOUS
 62
     7
 10
161.7317318695
 20
232.4861073694
 30
0.0
  0
VERTEX
  5
365
  8
0
  6
CONTINUOUS
 62
     7
 10
165.5246943014
 20
232.4233555994
 30
0.0
  0
VERTEX
  5
366
  8
0
  6
CONTINUOUS
 62
     7
 10
169.3275242823
 20
232.3702120981
 30
0.0
  0
VERTEX
  5
367
  8
0
  6
CONTINUOUS
 62
     7
 10
173.1385886448
 20
232.3267007074
 30
0.0
  0
VERTEX
  5
368
  8
0
  6
CONTINUOUS
 62
     7
 10
176.9562423008
 20
232.2928452692
 30
0.0
  0
VERTEX
  5
369
  8
0
  6
CONTINUOUS
 62
     7
 10
180.7788431423
 20
232.2686457834
 30
0.0
  0
VERTEX
  5
36A
  8
0
  6
CONTINUOUS
 62
     7
 10
184.6047401207
 20
232.254114171
 30
0.0
  0
VERTEX
  5
36B
  8
0
  6
CONTINUOUS
 62
     7
 10
188.4322881477
 20
232.2492742739
 30
0.0
  0
VERTEX
  5
36C
  8
0
  6
CONTINUOUS
 62
     7
 10
192.2598302143
 20
232.254114171
 30
0.0
  0
VERTEX
  5
36D
  8
0
  6
CONTINUOUS
 62
     7
 10
196.0857271927
 20
232.2686457834
 30
0.0
  0
VERTEX
  5
36E
  8
0
  6
CONTINUOUS
 62
     7
 10
199.9083280342
 20
232.2928452692
 30
0.0
  0
VERTEX
  5
36F
  8
0
  6
CONTINUOUS
 62
     7
 10
203.7259816902
 20
232.3267007074
 30
0.0
  0
VERTEX
  5
370
  8
0
  6
CONTINUOUS
 62
     7
 10
207.537049033
 20
232.3702120981
 30
0.0
  0
VERTEX
  5
371
  8
0
  6
CONTINUOUS
 62
     7
 10
211.3398790138
 20
232.4233555994
 30
0.0
  0
VERTEX
  5
372
  8
0
  6
CONTINUOUS
 62
     7
 10
215.1328384655
 20
232.4861073694
 30
0.0
  0
SEQEND
  5
684
  8
0
  6
CONTINUOUS
 62
     7
  0
ARC
  5
7C
  8
0
  6
CONTINUOUS
 62
     7
 10
213.5961732829
 20
222.8354018341
 30
0.0
 40
9.772280041685457
 50
359.3868025399
 51
80.9528412289
  0
LINE
  5
7D
  8
0
  6
CONTINUOUS
 62
     7
 10
223.3678936737
 20
183.0289626322
 30
0.0
 11
223.3678936737
 21
222.7308178148
 31
0.0
  0
POLYLINE
  5
7E
  8
0
  6
CONTINUOUS
 62
     7
 66
     1
 10
0.0
 20
0.0
 30
0.0
  0
VERTEX
  5
373
  8
0
  6
CONTINUOUS
 62
     7
 10
163.3985101955
 20
172.8773021898
 30
0.0
  0
VERTEX
  5
374
  8
0
  6
CONTINUOUS
 62
     7
 10
167.2312825697
 20
172.8183531961
 30
0.0
  0
VERTEX
  5
375
  8
0
  6
CONTINUOUS
 62
     7
 10
171.073335387
 20
172.7691793642
 30
0.0
  0
VERTEX
  5
376
  8
0
  6
CONTINUOUS
 62
     7
 10
174.9229937571
 20
172.7298164568
 30
0.0
  0
VERTEX
  5
377
  8
0
  6
CONTINUOUS
 62
     7
 10
178.7785649078
 20
172.7002883158
 30
0.0
  0
VERTEX
  5
378
  8
0
  6
CONTINUOUS
 62
     7
 10
182.6383590477
 20
172.6805830202
 30
0.0
  0
VERTEX
  5
379
  8
0
  6
CONTINUOUS
 62
     7
 10
186.5006983059
 20
172.6707363329
 30
0.0
  0
VERTEX
  5
37A
  8
0
  6
CONTINUOUS
 62
     7
 10
190.3638779896
 20
172.6707363329
 30
0.0
  0
VERTEX
  5
37B
  8
0
  6
CONTINUOUS
 62
     7
 10
194.2262112873
 20
172.6805830202
 30
0.0
  0
VERTEX
  5
37C
  8
0
  6
CONTINUOUS
 62
     7
 10
198.0860054272
 20
172.7002883158
 30
0.0
  0
VERTEX
  5
37D
  8
0
  6
CONTINUOUS
 62
     7
 10
201.9415795582
 20
172.7298164568
 30
0.0
  0
VERTEX
  5
37E
  8
0
  6
CONTINUOUS
 62
     7
 10
205.791234948
 20
172.7691793642
 30
0.0
  0
VERTEX
  5
37F
  8
0
  6
CONTINUOUS
 62
     7
 10
209.6332907455
 20
172.8183531961
 30
0.0
  0
VERTEX
  5
380
  8
0
  6
CONTINUOUS
 62
     7
 10
213.4660601395
 20
172.8773021898
 30
0.0
  0
SEQEND
  5
683
  8
0
  6
CONTINUOUS
 62
     7
  0
ARC
  5
7F
  8
0
  6
CONTINUOUS
 62
     7
 10
161.4677010681
 20
225.352032881
 30
0.0
 40
11.53015475365679
 50
111.5475430072
 51
126.7247218963
  0
ARC
  5
80
  8
0
  6
CONTINUOUS
 62
     7
 10
215.0115128496
 20
224.5819573338
 30
0.0
 40
12.3811191085465
 50
54.0748919226
 51
68.1454714933
  0
LINE
  5
81
  8
0
  6
CONTINUOUS
 62
     7
 10
86.4322870748
 20
126.3002896509
 30
0.0
 11
86.4322870748
 21
119.5002877912
 31
0.0
  0
ARC
  5
82
  8
0
  6
CONTINUOUS
 62
     7
 10
83.4322857635
 20
119.500287076
 30
0.0
 40
3.0
 50
270.0
 51
0.0
  0
LINE
  5
83
  8
0
  6
CONTINUOUS
 62
     7
 10
83.4322869556
 20
116.5002846918
 30
0.0
 11
53.4322857635
 21
116.5002846918
 31
0.0
  0
ARC
  5
84
  8
0
  6
CONTINUOUS
 62
     7
 10
53.4322857635
 20
119.500287076
 30
0.0
 40
3.000000000000007
 50
180.0
 51
270.0
  0
LINE
  5
85
  8
0
  6
CONTINUOUS
 62
     7
 10
50.4322886246
 20
126.3002896509
 30
0.0
 11
50.4322886246
 21
119.5002877912
 31
0.0
  0
CIRCLE
  5
86
  8
0
  6
CONTINUOUS
 62
     7
 10
53.4322857635
 20
120.700287076
 30
0.0
 40
1.099999999999994
  0
CIRCLE
  5
87
  8
0
  6
CONTINUOUS
 62
     7
 10
83.4322857635
 20
120.700287076
 30
0.0
 40
1.100000000000009
  0
LINE
  5
88
  8
0
  6
CONTINUOUS
 62
     7
 10
86.4322870748
 20
127.3002886972
 30
0.0
 11
50.4322886246
 21
127.3002886972
 31
0.0
  0
LINE
  5
89
  8
0
  6
CONTINUOUS
 62
     7
 10
86.4322870748
 20
127.3002886972
 30
0.0
 11
86.4322870748
 21
126.3002896509
 31
0.0
  0
LINE
  5
8A
  8
0
  6
CONTINUOUS
 62
     7
 10
50.4322886246
 20
127.3002886972
 30
0.0
 11
50.4322886246
 21
126.3002896509
 31
0.0
  0
LINE
  5
8B
  8
0
  6
CONTINUOUS
 62
     7
 10
65.4322862404
 20
133.2450473509
 30
0.0
 11
65.4322862404
 21
127.3002886972
 31
0.0
  0
LINE
  5
8C
  8
0
  6
CONTINUOUS
 62
     7
 10
71.4322864788
 20
133.2450473509
 30
0.0
 11
71.4322864788
 21
127.3002886972
 31
0.0
  0
LINE
  5
8D
  8
0
  6
CONTINUOUS
 62
     7
 10
71.4322864788
 20
136.3221490583
 30
0.0
 11
71.4322864788
 21
133.2450473509
 31
0.0
  0
LINE
  5
8E
  8
0
  6
CONTINUOUS
 62
     7
 10
65.4322862404
 20
136.3221490583
 30
0.0
 11
65.4322862404
 21
133.2450473509
 31
0.0
  0
LINE
  5
8F
  8
0
  6
CONTINUOUS
 62
     7
 10
71.4322864788
 20
157.6721692285
 30
0.0
 11
71.4322864788
 21
141.7028510771
 31
0.0
  0
LINE
  5
90
  8
0
  6
CONTINUOUS
 62
     7
 10
65.4322862404
 20
157.6721692285
 30
0.0
 11
65.4322862404
 21
141.7028510771
 31
0.0
  0
LINE
  5
91
  8
0
  6
CONTINUOUS
 62
     7
 10
65.4322862404
 20
161.4362383089
 30
0.0
 11
65.4322862404
 21
157.6721692285
 31
0.0
  0
LINE
  5
92
  8
0
  6
CONTINUOUS
 62
     7
 10
71.4322864788
 20
161.4362383089
 30
0.0
 11
71.4322864788
 21
157.6721692285
 31
0.0
  0
LINE
  5
93
  8
0
  6
CONTINUOUS
 62
     7
 10
65.4322862404
 20
161.4362383089
 30
0.0
 11
65.4322862404
 21
167.5217533312
 31
0.0
  0
LINE
  5
94
  8
0
  6
CONTINUOUS
 62
     7
 10
71.4322864788
 20
161.4362383089
 30
0.0
 11
71.4322864788
 21
167.5224447451
 31
0.0
  0
LINE
  5
95
  8
0
  6
CONTINUOUS
 62
     7
 10
206.4322829025
 20
126.3002896509
 30
0.0
 11
206.4322829025
 21
119.5002877912
 31
0.0
  0
ARC
  5
96
  8
0
  6
CONTINUOUS
 62
     7
 10
203.4322857635
 20
119.500287076
 30
0.0
 40
3.000000000000028
 50
270.0
 51
0.0
  0
LINE
  5
97
  8
0
  6
CONTINUOUS
 62
     7
 10
203.4322857635
 20
116.5002846918
 30
0.0
 11
173.4322845715
 21
116.5002846918
 31
0.0
  0
ARC
  5
98
  8
0
  6
CONTINUOUS
 62
     7
 10
173.4322857635
 20
119.500287076
 30
0.0
 40
3.0
 50
180.0
 51
270.0
  0
LINE
  5
99
  8
0
  6
CONTINUOUS
 62
     7
 10
170.4322844522
 20
126.3002896509
 30
0.0
 11
170.4322844522
 21
119.5002877912
 31
0.0
  0
CIRCLE
  5
9A
  8
0
  6
CONTINUOUS
 62
     7
 10
173.4322857635
 20
120.700287076
 30
0.0
 40
1.099999999999994
  0
CIRCLE
  5
9B
  8
0
  6
CONTINUOUS
 62
     7
 10
203.4322857635
 20
120.700287076
 30
0.0
 40
1.100000000000009
  0
LINE
  5
9C
  8
0
  6
CONTINUOUS
 62
     7
 10
206.4322829025
 20
127.3002886972
 30
0.0
 11
170.4322844522
 21
127.3002886972
 31
0.0
  0
LINE
  5
9D
  8
0
  6
CONTINUOUS
 62
     7
 10
170.4322844522
 20
127.3002886972
 30
0.0
 11
170.4322844522
 21
126.3002896509
 31
0.0
  0
LINE
  5
9E
  8
0
  6
CONTINUOUS
 62
     7
 10
206.4322829025
 20
127.3002886972
 30
0.0
 11
206.4322829025
 21
126.3002896509
 31
0.0
  0
LINE
  5
9F
  8
0
  6
CONTINUOUS
 62
     7
 10
191.4322852867
 20
133.2450473509
 30
0.0
 11
191.4322852867
 21
127.3002886972
 31
0.0
  0
LINE
  5
A0
  8
0
  6
CONTINUOUS
 62
     7
 10
185.4322850483
 20
133.2450473509
 30
0.0
 11
185.4322850483
 21
127.3002886972
 31
0.0
  0
LINE
  5
A1
  8
0
  6
CONTINUOUS
 62
     7
 10
191.4322852867
 20
136.3221490583
 30
0.0
 11
191.4322852867
 21
133.2450473509
 31
0.0
  0
LINE
  5
A2
  8
0
  6
CONTINUOUS
 62
     7
 10
185.4322850483
 20
136.3221490583
 30
0.0
 11
185.4322850483
 21
133.2450473509
 31
0.0
  0
LINE
  5
A3
  8
0
  6
CONTINUOUS
 62
     7
 10
191.4322852867
 20
157.6721692285
 30
0.0
 11
191.4322852867
 21
141.7028510771
 31
0.0
  0
LINE
  5
A4
  8
0
  6
CONTINUOUS
 62
     7
 10
185.4322850483
 20
157.6721692285
 30
0.0
 11
185.4322850483
 21
141.7028510771
 31
0.0
  0
LINE
  5
A5
  8
0
  6
CONTINUOUS
 62
     7
 10
185.4322850483
 20
161.4362383089
 30
0.0
 11
185.4322850483
 21
157.6721692285
 31
0.0
  0
LINE
  5
A6
  8
0
  6
CONTINUOUS
 62
     7
 10
191.4322852867
 20
161.4362383089
 30
0.0
 11
191.4322852867
 21
157.6721692285
 31
0.0
  0
LINE
  5
A7
  8
0
  6
CONTINUOUS
 62
     7
 10
191.4322852867
 20
161.4362383089
 30
0.0
 11
191.4322852867
 21
167.5224447451
 31
0.0
  0
LINE
  5
A8
  8
0
  6
CONTINUOUS
 62
     7
 10
185.4322850483
 20
161.4362383089
 30
0.0
 11
185.4322850483
 21
167.5217533312
 31
0.0
  0
ARC
  5
A9
  8
0
  6
CONTINUOUS
 62
     7
 10
68.4322178559
 20
324.9886328097
 30
0.0
 40
183.31034110179
 50
277.7930374791
 51
281.5887932061
  0
ARC
  5
AA
  8
0
  6
CONTINUOUS
 62
     7
 10
105.8010423964
 20
142.7807901965
 30
0.0
 40
2.69000000000001
 50
12.4186815058
 51
100.0467259554
  0
ARC
  5
AB
  8
0
  6
CONTINUOUS
 62
     7
 10
68.4452804437
 20
324.9123078357
 30
0.0
 40
188.6129499063102
 50
277.7922496498
 51
281.5895398168
  0
ARC
  5
AC
  8
0
  6
CONTINUOUS
 62
     7
 10
105.8010423964
 20
142.7807901965
 30
0.0
 40
2.689999999999996
 50
281.5900201068
 51
12.4186815058
  0
ARC
  5
AD
  8
0
  6
CONTINUOUS
 62
     7
 10
68.4517410491
 20
325.1022626757
 30
0.0
 40
188.8055507068944
 50
258.4125210951
 51
262.2058088669
  0
ARC
  5
AE
  8
0
  6
CONTINUOUS
 62
     7
 10
31.0635291307
 20
142.7807901965
 30
0.0
 40
2.690000000000006
 50
167.5813184942
 51
258.4099798932
  0
ARC
  5
AF
  8
0
  6
CONTINUOUS
 62
     7
 10
31.0635291307
 20
142.7807901965
 30
0.0
 40
2.69000000000002
 50
80.0567778886
 51
167.5813184942
  0
ARC
  5
B0
  8
0
  6
CONTINUOUS
 62
     7
 10
68.4523861217
 20
325.1064360676
 30
0.0
 40
183.4297729541026
 50
258.4125714562
 51
262.2057519284
  0
ARC
  5
B1
  8
0
  6
CONTINUOUS
 62
     7
 10
68.4322857635
 20
324.9882983505
 30
0.0
 40
188.69
 50
262.2069690737
 51
277.7930309263
  0
ARC
  5
B2
  8
0
  6
CONTINUOUS
 62
     7
 10
68.4322857635
 20
324.9882983505
 30
0.0
 40
183.31
 50
262.2069690737
 51
277.7930309263
  0
LINE
  5
B3
  8
0
  6
CONTINUOUS
 62
     7
 10
105.1322862285
 20
139.6402859888
 30
0.0
 11
105.1322862285
 21
135.1733410559
 31
0.0
  0
LINE
  5
B4
  8
0
  6
CONTINUOUS
 62
     7
 10
105.1322862285
 20
139.6402859888
 30
0.0
 11
106.1322852748
 21
139.6402859888
 31
0.0
  0
LINE
  5
B5
  8
0
  6
CONTINUOUS
 62
     7
 10
106.1322852748
 20
139.6402859888
 30
0.0
 11
106.1322852748
 21
135.1733410559
 31
0.0
  0
LINE
  5
B6
  8
0
  6
CONTINUOUS
 62
     7
 10
31.7322850006
 20
139.6402859888
 30
0.0
 11
30.7322859543
 21
139.6402859888
 31
0.0
  0
LINE
  5
B7
  8
0
  6
CONTINUOUS
 62
     7
 10
30.7322859543
 20
140.1112640104
 30
0.0
 11
30.7322859543
 21
139.6402859888
 31
0.0
  0
LINE
  5
B8
  8
0
  6
CONTINUOUS
 62
     7
 10
31.7322850006
 20
139.9017596445
 30
0.0
 11
31.7322850006
 21
139.6402859888
 31
0.0
  0
LINE
  5
B9
  8
0
  6
CONTINUOUS
 62
     7
 10
105.1322862285
 20
139.9017358026
 30
0.0
 11
105.1322862285
 21
139.6402859888
 31
0.0
  0
LINE
  5
BA
  8
0
  6
CONTINUOUS
 62
     7
 10
106.1322852748
 20
140.1112640104
 30
0.0
 11
106.1322852748
 21
139.6402859888
 31
0.0
  0
LINE
  5
BB
  8
0
  6
CONTINUOUS
 62
     7
 10
30.7322859543
 20
139.6402859888
 30
0.0
 11
30.7322859543
 21
135.1733410559
 31
0.0
  0
LINE
  5
BC
  8
0
  6
CONTINUOUS
 62
     7
 10
31.7322850006
 20
139.6402859888
 30
0.0
 11
31.7322850006
 21
135.1733410559
 31
0.0
  0
LINE
  5
BD
  8
0
  6
CONTINUOUS
 62
     7
 10
31.6039681213
 20
145.4159403047
 30
0.0
 11
31.607890107
 21
145.415135642
 31
0.0
  0
LINE
  5
BE
  8
0
  6
CONTINUOUS
 62
     7
 10
105.2563681977
 20
145.4150700769
 30
0.0
 11
105.2606016176
 21
145.4159403047
 31
0.0
  0
LINE
  5
BF
  8
0
  6
CONTINUOUS
 62
     7
 10
105.1322862285
 20
135.1733410559
 30
0.0
 11
105.1322862285
 21
134.3198025427
 31
0.0
  0
LINE
  5
C0
  8
0
  6
CONTINUOUS
 62
     7
 10
106.1322852748
 20
135.1733410559
 30
0.0
 11
106.1322852748
 21
134.3198025427
 31
0.0
  0
LINE
  5
C1
  8
0
  6
CONTINUOUS
 62
     7
 10
30.7322859543
 20
135.1733410559
 30
0.0
 11
30.7322859543
 21
134.3198025427
 31
0.0
  0
LINE
  5
C2
  8
0
  6
CONTINUOUS
 62
     7
 10
31.7322850006
 20
135.1733410559
 30
0.0
 11
31.7322850006
 21
134.3198025427
 31
0.0
  0
LINE
  5
C3
  8
0
  6
CONTINUOUS
 62
     7
 10
105.1322862285
 20
134.3198025427
 30
0.0
 11
105.1322862285
 21
126.4653706751
 31
0.0
  0
LINE
  5
C4
  8
0
  6
CONTINUOUS
 62
     7
 10
106.1322852748
 20
134.3198025427
 30
0.0
 11
106.1322852748
 21
126.4653706751
 31
0.0
  0
LINE
  5
C5
  8
0
  6
CONTINUOUS
 62
     7
 10
30.7322859543
 20
134.3198025427
 30
0.0
 11
30.7322859543
 21
126.4653706751
 31
0.0
  0
LINE
  5
C6
  8
0
  6
CONTINUOUS
 62
     7
 10
31.7322850006
 20
134.3198025427
 30
0.0
 11
31.7322850006
 21
126.4653706751
 31
0.0
  0
LINE
  5
C7
  8
0
  6
CONTINUOUS
 62
     7
 10
31.7322850006
 20
123.7002873621
 30
0.0
 11
30.7322859543
 21
123.7002873621
 31
0.0
  0
LINE
  5
C8
  8
0
  6
CONTINUOUS
 62
     7
 10
30.7322859543
 20
125.7002854547
 30
0.0
 11
30.7322859543
 21
123.7002873621
 31
0.0
  0
LINE
  5
C9
  8
0
  6
CONTINUOUS
 62
     7
 10
31.7322850006
 20
125.7002854547
 30
0.0
 11
31.7322850006
 21
123.7002873621
 31
0.0
  0
LINE
  5
CA
  8
0
  6
CONTINUOUS
 62
     7
 10
105.1322862285
 20
126.4653706751
 30
0.0
 11
105.1322862285
 21
125.7002854547
 31
0.0
  0
LINE
  5
CB
  8
0
  6
CONTINUOUS
 62
     7
 10
106.1322852748
 20
126.4653706751
 30
0.0
 11
106.1322852748
 21
125.7002854547
 31
0.0
  0
LINE
  5
CC
  8
0
  6
CONTINUOUS
 62
     7
 10
30.7322859543
 20
126.4653706751
 30
0.0
 11
30.7322859543
 21
125.7002854547
 31
0.0
  0
LINE
  5
CD
  8
0
  6
CONTINUOUS
 62
     7
 10
31.7322850006
 20
126.4653706751
 30
0.0
 11
31.7322850006
 21
125.7002854547
 31
0.0
  0
LINE
  5
CE
  8
0
  6
CONTINUOUS
 62
     7
 10
105.1322862285
 20
123.7002873621
 30
0.0
 11
106.1322852748
 21
123.7002873621
 31
0.0
  0
LINE
  5
CF
  8
0
  6
CONTINUOUS
 62
     7
 10
105.1322862285
 20
125.7002854547
 30
0.0
 11
105.1322862285
 21
123.7002873621
 31
0.0
  0
LINE
  5
D0
  8
0
  6
CONTINUOUS
 62
     7
 10
106.1322852748
 20
125.7002854547
 30
0.0
 11
106.1322852748
 21
123.7002873621
 31
0.0
  0
LINE
  5
D1
  8
0
  6
CONTINUOUS
 62
     7
 10
110.9322860616
 20
126.500287076
 30
0.0
 11
110.9322860616
 21
127.5002861223
 31
0.0
  0
LINE
  5
D2
  8
0
  6
CONTINUOUS
 62
     7
 10
110.9322860616
 20
127.5002861223
 30
0.0
 11
106.1322852748
 21
127.5002861223
 31
0.0
  0
LINE
  5
D3
  8
0
  6
CONTINUOUS
 62
     7
 10
25.9322881477
 20
126.500287076
 30
0.0
 11
25.9322881477
 21
127.5002861223
 31
0.0
  0
LINE
  5
D4
  8
0
  6
CONTINUOUS
 62
     7
 10
30.7322859543
 20
127.5002861223
 30
0.0
 11
25.9322881477
 21
127.5002861223
 31
0.0
  0
LINE
  5
D5
  8
0
  6
CONTINUOUS
 62
     7
 10
35.9322845715
 20
119.5002877912
 30
0.0
 11
35.9322845715
 21
126.500287076
 31
0.0
  0
LINE
  5
D6
  8
0
  6
CONTINUOUS
 62
     7
 10
33.9322864788
 20
117.5002896986
 30
0.0
 11
27.9322862404
 21
117.5002896986
 31
0.0
  0
ARC
  5
D7
  8
0
  6
CONTINUOUS
 62
     7
 10
27.9322857635
 20
119.500287076
 30
0.0
 40
2.000000000000004
 50
180.0
 51
270.0
  0
CIRCLE
  5
D8
  8
0
  6
CONTINUOUS
 62
     7
 10
30.9322857635
 20
120.900287076
 30
0.0
 40
1.000000000000014
  0
LINE
  5
D9
  8
0
  6
CONTINUOUS
 62
     7
 10
25.9322881477
 20
119.5002877912
 30
0.0
 11
25.9322881477
 21
126.500287076
 31
0.0
  0
ARC
  5
DA
  8
0
  6
CONTINUOUS
 62
     7
 10
33.9322857635
 20
119.500287076
 30
0.0
 40
2.000000000000007
 50
270.0
 51
0.0
  0
CIRCLE
  5
DB
  8
0
  6
CONTINUOUS
 62
     7
 10
105.9322857635
 20
120.900287076
 30
0.0
 40
1.0
  0
LINE
  5
DC
  8
0
  6
CONTINUOUS
 62
     7
 10
110.9322860616
 20
119.5002877912
 30
0.0
 11
110.9322860616
 21
126.500287076
 31
0.0
  0
ARC
  5
DD
  8
0
  6
CONTINUOUS
 62
     7
 10
108.9322857635
 20
119.500287076
 30
0.0
 40
2.0
 50
270.0
 51
0.0
  0
LINE
  5
DE
  8
0
  6
CONTINUOUS
 62
     7
 10
108.9322864788
 20
117.5002896986
 30
0.0
 11
102.9322862404
 21
117.5002896986
 31
0.0
  0
LINE
  5
DF
  8
0
  6
CONTINUOUS
 62
     7
 10
100.9322851675
 20
126.500287076
 30
0.0
 11
100.9322851675
 21
119.5002877912
 31
0.0
  0
ARC
  5
E0
  8
0
  6
CONTINUOUS
 62
     7
 10
102.9322857635
 20
119.500287076
 30
0.0
 40
2.000000000000014
 50
180.0
 51
270.0
  0
LINE
  5
E1
  8
0
  6
CONTINUOUS
 62
     7
 10
105.1322862285
 20
127.5002861223
 30
0.0
 11
100.9322851675
 21
127.5002861223
 31
0.0
  0
LINE
  5
E2
  8
0
  6
CONTINUOUS
 62
     7
 10
100.9322851675
 20
126.500287076
 30
0.0
 11
100.9322851675
 21
127.5002861223
 31
0.0
  0
LINE
  5
E3
  8
0
  6
CONTINUOUS
 62
     7
 10
35.9322845715
 20
127.5002861223
 30
0.0
 11
31.7322850006
 21
127.5002861223
 31
0.0
  0
LINE
  5
E4
  8
0
  6
CONTINUOUS
 62
     7
 10
35.9322845715
 20
127.5002861223
 30
0.0
 11
35.9322845715
 21
126.500287076
 31
0.0
  0
ARC
  5
E5
  8
0
  6
CONTINUOUS
 62
     7
 10
188.4321107178
 20
324.9892706637
 30
0.0
 40
183.3109878346437
 50
277.7930441774
 51
281.5887865078
  0
ARC
  5
E6
  8
0
  6
CONTINUOUS
 62
     7
 10
225.8010423964
 20
142.7807901965
 30
0.0
 40
2.690000000000005
 50
12.4186815058
 51
100.0467259554
  0
ARC
  5
E7
  8
0
  6
CONTINUOUS
 62
     7
 10
188.4447296326
 20
324.9155437707
 30
0.0
 40
188.6162308835828
 50
277.7922826888
 51
281.5895067778
  0
ARC
  5
E8
  8
0
  6
CONTINUOUS
 62
     7
 10
225.8010423964
 20
142.7807901965
 30
0.0
 40
2.689999999999998
 50
281.5900201068
 51
12.4186815058
  0
ARC
  5
E9
  8
0
  6
CONTINUOUS
 62
     7
 10
151.0635291307
 20
142.7807901965
 30
0.0
 40
2.690000000000019
 50
80.0567778886
 51
167.5813184942
  0
ARC
  5
EA
  8
0
  6
CONTINUOUS
 62
     7
 10
188.4517238602
 20
325.1025206113
 30
0.0
 40
183.4258036151341
 50
258.4125294448
 51
262.2057915725
  0
ARC
  5
EB
  8
0
  6
CONTINUOUS
 62
     7
 10
188.4515335612
 20
325.1010371799
 30
0.0
 40
188.8043081517395
 50
258.4125086084
 51
262.2058213536
  0
ARC
  5
EC
  8
0
  6
CONTINUOUS
 62
     7
 10
151.0635291307
 20
142.7807901965
 30
0.0
 40
2.690000000000002
 50
167.5813184942
 51
258.4099798932
  0
ARC
  5
ED
  8
0
  6
CONTINUOUS
 62
     7
 10
188.4322857635
 20
324.9882983505
 30
0.0
 40
188.69
 50
262.2069690737
 51
277.7930309263
  0
ARC
  5
EE
  8
0
  6
CONTINUOUS
 62
     7
 10
188.4322857635
 20
324.9882983505
 30
0.0
 40
183.31
 50
262.2069690737
 51
277.7930309263
  0
LINE
  5
EF
  8
0
  6
CONTINUOUS
 62
     7
 10
225.1322865265
 20
139.6402859888
 30
0.0
 11
226.1322855728
 21
139.6402859888
 31
0.0
  0
LINE
  5
F0
  8
0
  6
CONTINUOUS
 62
     7
 10
225.1322865265
 20
139.9017358026
 30
0.0
 11
225.1322865265
 21
139.6402859888
 31
0.0
  0
LINE
  5
F1
  8
0
  6
CONTINUOUS
 62
     7
 10
226.1322855728
 20
140.1112640104
 30
0.0
 11
226.1322855728
 21
139.6402859888
 31
0.0
  0
LINE
  5
F2
  8
0
  6
CONTINUOUS
 62
     7
 10
225.1322865265
 20
139.6402859888
 30
0.0
 11
225.1322865265
 21
135.1733410559
 31
0.0
  0
LINE
  5
F3
  8
0
  6
CONTINUOUS
 62
     7
 10
226.1322855728
 20
139.6402859888
 30
0.0
 11
226.1322855728
 21
135.1733410559
 31
0.0
  0
LINE
  5
F4
  8
0
  6
CONTINUOUS
 62
     7
 10
151.7322852986
 20
139.6402859888
 30
0.0
 11
150.7322862523
 21
139.6402859888
 31
0.0
  0
LINE
  5
F5
  8
0
  6
CONTINUOUS
 62
     7
 10
150.7322862523
 20
139.6402859888
 30
0.0
 11
150.7322862523
 21
135.1733410559
 31
0.0
  0
LINE
  5
F6
  8
0
  6
CONTINUOUS
 62
     7
 10
151.7322852986
 20
139.6402859888
 30
0.0
 11
151.7322852986
 21
135.1733410559
 31
0.0
  0
LINE
  5
F7
  8
0
  6
CONTINUOUS
 62
     7
 10
150.7322862523
 20
140.1112640104
 30
0.0
 11
150.7322862523
 21
139.6402859888
 31
0.0
  0
LINE
  5
F8
  8
0
  6
CONTINUOUS
 62
     7
 10
151.7322852986
 20
139.9017596445
 30
0.0
 11
151.7322852986
 21
139.6402859888
 31
0.0
  0
LINE
  5
F9
  8
0
  6
CONTINUOUS
 62
     7
 10
151.6039699095
 20
145.4159403047
 30
0.0
 11
151.6078918951
 21
145.415135642
 31
0.0
  0
LINE
  5
FA
  8
0
  6
CONTINUOUS
 62
     7
 10
225.256371476
 20
145.4150700769
 30
0.0
 11
225.2606034058
 21
145.4159403047
 31
0.0
  0
LINE
  5
FB
  8
0
  6
CONTINUOUS
 62
     7
 10
225.1322865265
 20
135.1733410559
 30
0.0
 11
225.1322865265
 21
134.3198025427
 31
0.0
  0
LINE
  5
FC
  8
0
  6
CONTINUOUS
 62
     7
 10
226.1322855728
 20
135.1733410559
 30
0.0
 11
226.1322855728
 21
134.3198025427
 31
0.0
  0
LINE
  5
FD
  8
0
  6
CONTINUOUS
 62
     7
 10
150.7322862523
 20
135.1733410559
 30
0.0
 11
150.7322862523
 21
134.3198025427
 31
0.0
  0
LINE
  5
FE
  8
0
  6
CONTINUOUS
 62
     7
 10
151.7322852986
 20
135.1733410559
 30
0.0
 11
151.7322852986
 21
134.3198025427
 31
0.0
  0
LINE
  5
FF
  8
0
  6
CONTINUOUS
 62
     7
 10
150.7322862523
 20
134.3198025427
 30
0.0
 11
150.7322862523
 21
126.4653706751
 31
0.0
  0
LINE
  5
100
  8
0
  6
CONTINUOUS
 62
     7
 10
151.7322852986
 20
134.3198025427
 30
0.0
 11
151.7322852986
 21
126.4653706751
 31
0.0
  0
LINE
  5
101
  8
0
  6
CONTINUOUS
 62
     7
 10
225.1322865265
 20
134.3198025427
 30
0.0
 11
225.1322865265
 21
126.4653706751
 31
0.0
  0
LINE
  5
102
  8
0
  6
CONTINUOUS
 62
     7
 10
226.1322855728
 20
134.3198025427
 30
0.0
 11
226.1322855728
 21
126.4653706751
 31
0.0
  0
LINE
  5
103
  8
0
  6
CONTINUOUS
 62
     7
 10
151.7322852986
 20
123.7002873621
 30
0.0
 11
150.7322862523
 21
123.7002873621
 31
0.0
  0
LINE
  5
104
  8
0
  6
CONTINUOUS
 62
     7
 10
150.7322862523
 20
125.7002854547
 30
0.0
 11
150.7322862523
 21
123.7002873621
 31
0.0
  0
LINE
  5
105
  8
0
  6
CONTINUOUS
 62
     7
 10
151.7322852986
 20
125.7002854547
 30
0.0
 11
151.7322852986
 21
123.7002873621
 31
0.0
  0
LINE
  5
106
  8
0
  6
CONTINUOUS
 62
     7
 10
150.7322862523
 20
126.4653706751
 30
0.0
 11
150.7322862523
 21
125.7002854547
 31
0.0
  0
LINE
  5
107
  8
0
  6
CONTINUOUS
 62
     7
 10
151.7322852986
 20
126.4653706751
 30
0.0
 11
151.7322852986
 21
125.7002854547
 31
0.0
  0
LINE
  5
108
  8
0
  6
CONTINUOUS
 62
     7
 10
225.1322865265
 20
126.4653706751
 30
0.0
 11
225.1322865265
 21
125.7002854547
 31
0.0
  0
LINE
  5
109
  8
0
  6
CONTINUOUS
 62
     7
 10
226.1322855728
 20
126.4653706751
 30
0.0
 11
226.1322855728
 21
125.7002854547
 31
0.0
  0
LINE
  5
10A
  8
0
  6
CONTINUOUS
 62
     7
 10
225.1322865265
 20
123.7002873621
 30
0.0
 11
226.1322855728
 21
123.7002873621
 31
0.0
  0
LINE
  5
10B
  8
0
  6
CONTINUOUS
 62
     7
 10
225.1322865265
 20
125.7002854547
 30
0.0
 11
225.1322865265
 21
123.7002873621
 31
0.0
  0
LINE
  5
10C
  8
0
  6
CONTINUOUS
 62
     7
 10
226.1322855728
 20
125.7002854547
 30
0.0
 11
226.1322855728
 21
123.7002873621
 31
0.0
  0
LINE
  5
10D
  8
0
  6
CONTINUOUS
 62
     7
 10
230.9322833794
 20
126.500287076
 30
0.0
 11
230.9322833794
 21
127.5002861223
 31
0.0
  0
LINE
  5
10E
  8
0
  6
CONTINUOUS
 62
     7
 10
230.9322833794
 20
127.5002861223
 30
0.0
 11
226.1322855728
 21
127.5002861223
 31
0.0
  0
LINE
  5
10F
  8
0
  6
CONTINUOUS
 62
     7
 10
230.9322833794
 20
119.5002877912
 30
0.0
 11
230.9322833794
 21
126.500287076
 31
0.0
  0
ARC
  5
110
  8
0
  6
CONTINUOUS
 62
     7
 10
228.9322857635
 20
119.500287076
 30
0.0
 40
2.0
 50
270.0
 51
0.0
  0
ARC
  5
111
  8
0
  6
CONTINUOUS
 62
     7
 10
222.9322857635
 20
119.500287076
 30
0.0
 40
2.0
 50
180.0
 51
270.0
  0
LINE
  5
112
  8
0
  6
CONTINUOUS
 62
     7
 10
220.9322869556
 20
126.500287076
 30
0.0
 11
220.9322869556
 21
119.5002877912
 31
0.0
  0
CIRCLE
  5
113
  8
0
  6
CONTINUOUS
 62
     7
 10
225.9322857635
 20
120.900287076
 30
0.0
 40
1.0
  0
LINE
  5
114
  8
0
  6
CONTINUOUS
 62
     7
 10
228.9322852867
 20
117.5002896986
 30
0.0
 11
222.9322850483
 21
117.5002896986
 31
0.0
  0
LINE
  5
115
  8
0
  6
CONTINUOUS
 62
     7
 10
155.9322863596
 20
127.5002861223
 30
0.0
 11
151.7322852986
 21
127.5002861223
 31
0.0
  0
LINE
  5
116
  8
0
  6
CONTINUOUS
 62
     7
 10
155.9322863596
 20
127.5002861223
 30
0.0
 11
155.9322863596
 21
126.500287076
 31
0.0
  0
LINE
  5
117
  8
0
  6
CONTINUOUS
 62
     7
 10
145.9322854655
 20
126.500287076
 30
0.0
 11
145.9322854655
 21
127.5002861223
 31
0.0
  0
LINE
  5
118
  8
0
  6
CONTINUOUS
 62
     7
 10
150.7322862523
 20
127.5002861223
 30
0.0
 11
145.9322854655
 21
127.5002861223
 31
0.0
  0
LINE
  5
119
  8
0
  6
CONTINUOUS
 62
     7
 10
225.1322865265
 20
127.5002861223
 30
0.0
 11
220.9322869556
 21
127.5002861223
 31
0.0
  0
LINE
  5
11A
  8
0
  6
CONTINUOUS
 62
     7
 10
220.9322869556
 20
126.500287076
 30
0.0
 11
220.9322869556
 21
127.5002861223
 31
0.0
  0
LINE
  5
11B
  8
0
  6
CONTINUOUS
 62
     7
 10
145.9322854655
 20
119.5002877912
 30
0.0
 11
145.9322854655
 21
126.500287076
 31
0.0
  0
ARC
  5
11C
  8
0
  6
CONTINUOUS
 62
     7
 10
153.9322857635
 20
119.500287076
 30
0.0
 40
2.0
 50
270.0
 51
0.0
  0
LINE
  5
11D
  8
0
  6
CONTINUOUS
 62
     7
 10
155.9322863596
 20
119.5002877912
 30
0.0
 11
155.9322863596
 21
126.500287076
 31
0.0
  0
ARC
  5
11E
  8
0
  6
CONTINUOUS
 62
     7
 10
147.9322857635
 20
119.500287076
 30
0.0
 40
2.000000000000028
 50
180.0
 51
270.0
  0
CIRCLE
  5
11F
  8
0
  6
CONTINUOUS
 62
     7
 10
150.9322857635
 20
120.900287076
 30
0.0
 40
1.0
  0
LINE
  5
120
  8
0
  6
CONTINUOUS
 62
     7
 10
153.9322852867
 20
117.5002896986
 30
0.0
 11
147.9322850483
 21
117.5002896986
 31
0.0
  0
LINE
  5
121
  8
0
  6
CONTINUOUS
 62
     7
 10
46.2593555229
 20
52.7002870864
 30
0.0
 11
50.0180005806
 21
52.7002870864
 31
0.0
  0
LINE
  5
122
  8
0
  6
CONTINUOUS
 62
     7
 10
50.0180005806
 20
51.500287076
 30
0.0
 11
46.2593555229
 21
51.500287076
 31
0.0
  0
LINE
  5
123
  8
0
  6
CONTINUOUS
 62
     7
 10
56.8465709465
 20
52.7002870864
 30
0.0
 11
60.6052160042
 21
52.7002870864
 31
0.0
  0
LINE
  5
124
  8
0
  6
CONTINUOUS
 62
     7
 10
60.6052160042
 20
51.500287076
 30
0.0
 11
56.8465709465
 21
51.500287076
 31
0.0
  0
LINE
  5
125
  8
0
  6
CONTINUOUS
 62
     7
 10
50.0180005806
 20
52.7002870864
 30
0.0
 11
56.8465709465
 21
52.7002870864
 31
0.0
  0
LINE
  5
126
  8
0
  6
CONTINUOUS
 62
     7
 10
50.0180005806
 20
51.500287076
 30
0.0
 11
56.8465709465
 21
51.500287076
 31
0.0
  0
LINE
  5
127
  8
0
  6
CONTINUOUS
 62
     7
 10
200.0180005806
 20
51.500287076
 30
0.0
 11
196.2593555229
 21
51.500287076
 31
0.0
  0
LINE
  5
128
  8
0
  6
CONTINUOUS
 62
     7
 10
196.2593555229
 20
52.7002870864
 30
0.0
 11
200.0180005806
 21
52.7002870864
 31
0.0
  0
LINE
  5
129
  8
0
  6
CONTINUOUS
 62
     7
 10
200.0180005806
 20
51.500287076
 30
0.0
 11
206.8465709465
 21
51.500287076
 31
0.0
  0
LINE
  5
12A
  8
0
  6
CONTINUOUS
 62
     7
 10
200.0180005806
 20
52.7002870864
 30
0.0
 11
206.8465709465
 21
52.7002870864
 31
0.0
  0
LINE
  5
12B
  8
0
  6
CONTINUOUS
 62
     7
 10
210.6052160042
 20
51.500287076
 30
0.0
 11
206.8465709465
 21
51.500287076
 31
0.0
  0
LINE
  5
12C
  8
0
  6
CONTINUOUS
 62
     7
 10
206.8465709465
 20
52.7002870864
 30
0.0
 11
210.6052160042
 21
52.7002870864
 31
0.0
  0
LINE
  5
12D
  8
0
  6
CONTINUOUS
 62
     7
 10
41.4322852867
 20
51.500287076
 30
0.0
 11
41.4322852867
 21
52.7002870864
 31
0.0
  0
LINE
  5
12E
  8
0
  6
CONTINUOUS
 62
     7
 10
46.2593555229
 20
52.7002870864
 30
0.0
 11
41.4322852867
 21
52.7002870864
 31
0.0
  0
LINE
  5
12F
  8
0
  6
CONTINUOUS
 62
     7
 10
41.4322852867
 20
51.500287076
 30
0.0
 11
46.2593555229
 21
51.500287076
 31
0.0
  0
LINE
  5
130
  8
0
  6
CONTINUOUS
 62
     7
 10
65.4322862404
 20
51.500287076
 30
0.0
 11
65.4322862404
 21
52.7002870864
 31
0.0
  0
LINE
  5
131
  8
0
  6
CONTINUOUS
 62
     7
 10
65.4322862404
 20
52.7002870864
 30
0.0
 11
60.6052160042
 21
52.7002870864
 31
0.0
  0
LINE
  5
132
  8
0
  6
CONTINUOUS
 62
     7
 10
60.6052160042
 20
51.500287076
 30
0.0
 11
65.4322862404
 21
51.500287076
 31
0.0
  0
LINE
  5
133
  8
0
  6
CONTINUOUS
 62
     7
 10
191.4322852867
 20
51.500287076
 30
0.0
 11
191.4322852867
 21
52.7002870864
 31
0.0
  0
LINE
  5
134
  8
0
  6
CONTINUOUS
 62
     7
 10
191.4322852867
 20
51.500287076
 30
0.0
 11
196.2593555229
 21
51.500287076
 31
0.0
  0
LINE
  5
135
  8
0
  6
CONTINUOUS
 62
     7
 10
196.2593555229
 20
52.7002870864
 30
0.0
 11
191.4322852867
 21
52.7002870864
 31
0.0
  0
LINE
  5
136
  8
0
  6
CONTINUOUS
 62
     7
 10
215.4322862404
 20
51.500287076
 30
0.0
 11
215.4322862404
 21
52.7002870864
 31
0.0
  0
LINE
  5
137
  8
0
  6
CONTINUOUS
 62
     7
 10
210.6052160042
 20
51.500287076
 30
0.0
 11
215.4322862404
 21
51.500287076
 31
0.0
  0
LINE
  5
138
  8
0
  6
CONTINUOUS
 62
     7
 10
215.4322862404
 20
52.7002870864
 30
0.0
 11
210.6052160042
 21
52.7002870864
 31
0.0
  0
LINE
  5
139
  8
0
  6
CONTINUOUS
 62
     7
 10
24.8322844284
 20
117.7002871237
 30
0.0
 11
24.8322844284
 21
125.7002854547
 31
0.0
  0
LINE
  5
13A
  8
0
  6
CONTINUOUS
 62
     7
 10
24.8322844284
 20
117.100288888
 30
0.0
 11
24.8322844284
 21
117.7002871237
 31
0.0
  0
ARC
  5
13B
  8
0
  6
CONTINUOUS
 62
     7
 10
25.2322857635
 20
117.100287076
 30
0.0
 40
0.3999999999999986
 50
180.0
 51
270.0
  0
LINE
  5
13C
  8
0
  6
CONTINUOUS
 62
     7
 10
172.3552524822
 20
116.7002880773
 30
0.0
 11
84.5093190449
 21
116.7002880773
 31
0.0
  0
LINE
  5
13D
  8
0
  6
CONTINUOUS
 62
     7
 10
232.0322870987
 20
117.7002871237
 30
0.0
 11
232.0322870987
 21
117.100288888
 31
0.0
  0
ARC
  5
13E
  8
0
  6
CONTINUOUS
 62
     7
 10
231.6322857635
 20
117.100287076
 30
0.0
 40
0.4000000000000057
 50
270.0
 51
0.0
  0
LINE
  5
13F
  8
0
  6
CONTINUOUS
 62
     7
 10
25.2322911995
 20
126.7002845011
 30
0.0
 11
25.9322881477
 21
126.7002845011
 31
0.0
  0
LINE
  5
140
  8
0
  6
CONTINUOUS
 62
     7
 10
35.9322845715
 20
126.7002845011
 30
0.0
 11
50.4322886246
 21
126.7002845011
 31
0.0
  0
LINE
  5
141
  8
0
  6
CONTINUOUS
 62
     7
 10
86.4322870748
 20
126.7002845011
 30
0.0
 11
100.9322851675
 21
126.7002845011
 31
0.0
  0
LINE
  5
142
  8
0
  6
CONTINUOUS
 62
     7
 10
110.9322860616
 20
126.7002845011
 30
0.0
 11
145.9322854655
 21
126.7002845011
 31
0.0
  0
LINE
  5
143
  8
0
  6
CONTINUOUS
 62
     7
 10
155.9322863596
 20
126.7002845011
 30
0.0
 11
170.4322844522
 21
126.7002845011
 31
0.0
  0
LINE
  5
144
  8
0
  6
CONTINUOUS
 62
     7
 10
206.4322829025
 20
126.7002845011
 30
0.0
 11
220.9322869556
 21
126.7002845011
 31
0.0
  0
LINE
  5
145
  8
0
  6
CONTINUOUS
 62
     7
 10
230.9322833794
 20
126.7002845011
 30
0.0
 11
231.6322803276
 21
126.7002845011
 31
0.0
  0
LINE
  5
146
  8
0
  6
CONTINUOUS
 62
     7
 10
58.4322869556
 20
116.5002846918
 30
0.0
 11
58.4322869556
 21
52.7002870864
 31
0.0
  0
POLYLINE
  5
147
  8
0
  6
CONTINUOUS
 62
     7
 66
     1
 10
0.0
 20
0.0
 30
0.0
  0
VERTEX
  5
381
  8
0
  6
CONTINUOUS
 62
     7
 10
208.4322869556
 20
116.7002880773
 30
0.0
  0
VERTEX
  5
382
  8
0
  6
CONTINUOUS
 62
     7
 10
208.4130704182
 20
116.7195046148
 30
0.0
  0
VERTEX
  5
383
  8
0
  6
CONTINUOUS
 62
     7
 10
208.3561658638
 20
116.7764091692
 30
0.0
  0
VERTEX
  5
384
  8
0
  6
CONTINUOUS
 62
     7
 10
208.2637548225
 20
116.8688202104
 30
0.0
  0
VERTEX
  5
385
  8
0
  6
CONTINUOUS
 62
     7
 10
208.1393897312
 20
116.9931793413
 30
0.0
  0
VERTEX
  5
386
  8
0
  6
CONTINUOUS
 62
     7
 10
207.9878568428
 20
117.1447181902
 30
0.0
  0
VERTEX
  5
387
  8
0
  6
CONTINUOUS
 62
     7
 10
207.8149676102
 20
117.3176014624
 30
0.0
  0
VERTEX
  5
388
  8
0
  6
CONTINUOUS
 62
     7
 10
207.6273739117
 20
117.5051951609
 30
0.0
  0
VERTEX
  5
389
  8
0
  6
CONTINUOUS
 62
     7
 10
207.4322879093
 20
117.7002871237
 30
0.0
  0
SEQEND
  5
682
  8
0
  6
CONTINUOUS
 62
     7
  0
LINE
  5
148
  8
0
  6
CONTINUOUS
 62
     7
 10
208.4322869556
 20
116.7002880773
 30
0.0
 11
208.4322869556
 21
52.7002870864
 31
0.0
  0
LINE
  5
149
  8
0
  6
CONTINUOUS
 62
     7
 10
48.4322845715
 20
52.7002870864
 30
0.0
 11
48.4322845715
 21
116.7002880773
 31
0.0
  0
POLYLINE
  5
14A
  8
0
  6
CONTINUOUS
 62
     7
 66
     1
 10
0.0
 20
0.0
 30
0.0
  0
VERTEX
  5
38A
  8
0
  6
CONTINUOUS
 62
     7
 10
48.4322845715
 20
116.7002880773
 30
0.0
  0
VERTEX
  5
38B
  8
0
  6
CONTINUOUS
 62
     7
 10
48.4515011089
 20
116.7195046148
 30
0.0
  0
VERTEX
  5
38C
  8
0
  6
CONTINUOUS
 62
     7
 10
48.5084056633
 20
116.7764091692
 30
0.0
  0
VERTEX
  5
38D
  8
0
  6
CONTINUOUS
 62
     7
 10
48.6008167046
 20
116.8688202104
 30
0.0
  0
VERTEX
  5
38E
  8
0
  6
CONTINUOUS
 62
     7
 10
48.7251817959
 20
116.9931793413
 30
0.0
  0
VERTEX
  5
38F
  8
0
  6
CONTINUOUS
 62
     7
 10
48.8767146843
 20
117.1447181902
 30
0.0
  0
VERTEX
  5
390
  8
0
  6
CONTINUOUS
 62
     7
 10
49.0496039169
 20
117.3176014624
 30
0.0
  0
VERTEX
  5
391
  8
0
  6
CONTINUOUS
 62
     7
 10
49.2371976154
 20
117.5051951609
 30
0.0
  0
VERTEX
  5
392
  8
0
  6
CONTINUOUS
 62
     7
 10
49.4322836178
 20
117.7002871237
 30
0.0
  0
SEQEND
  5
681
  8
0
  6
CONTINUOUS
 62
     7
  0
ARC
  5
14B
  8
0
  6
CONTINUOUS
 62
     7
 10
231.6322857635
 20
126.300287076
 30
0.0
 40
0.4000000000000199
 50
0.0
 51
90.0
  0
LINE
  5
14C
  8
0
  6
CONTINUOUS
 62
     7
 10
232.0322870987
 20
126.3002896509
 30
0.0
 11
232.0322870987
 21
125.7002854547
 31
0.0
  0
LINE
  5
14D
  8
0
  6
CONTINUOUS
 62
     7
 10
24.8322844284
 20
125.7002854547
 30
0.0
 11
24.8322844284
 21
126.3002896509
 31
0.0
  0
ARC
  5
14E
  8
0
  6
CONTINUOUS
 62
     7
 10
25.2322857635
 20
126.300287076
 30
0.0
 40
0.4000000000000199
 50
90.0
 51
180.0
  0
LINE
  5
14F
  8
0
  6
CONTINUOUS
 62
     7
 10
48.4322845715
 20
116.7002880773
 30
0.0
 11
25.2322911995
 21
116.7002880773
 31
0.0
  0
LINE
  5
150
  8
0
  6
CONTINUOUS
 62
     7
 10
198.4322845715
 20
52.7002870864
 30
0.0
 11
198.4322845715
 21
116.5002846918
 31
0.0
  0
LINE
  5
151
  8
0
  6
CONTINUOUS
 62
     7
 10
232.0322870987
 20
125.7002854547
 30
0.0
 11
232.0322870987
 21
117.7002871237
 31
0.0
  0
LINE
  5
152
  8
0
  6
CONTINUOUS
 62
     7
 10
231.6322803276
 20
116.7002880773
 30
0.0
 11
208.4322869556
 21
116.7002880773
 31
0.0
  0
POLYLINE
  5
153
  8
0
  6
CONTINUOUS
 62
     7
 66
     1
 10
0.0
 20
0.0
 30
0.0
  0
VERTEX
  5
393
  8
0
  6
CONTINUOUS
 62
     7
 10
309.5419503263
 20
222.9187631807
 30
0.0
  0
VERTEX
  5
394
  8
0
  6
CONTINUOUS
 62
     7
 10
309.4478494934
 20
223.6587190828
 30
0.0
  0
VERTEX
  5
395
  8
0
  6
CONTINUOUS
 62
     7
 10
309.3190393857
 20
224.5673084459
 30
0.0
  0
VERTEX
  5
396
  8
0
  6
CONTINUOUS
 62
     7
 10
309.1778151206
 20
225.4685902796
 30
0.0
  0
VERTEX
  5
397
  8
0
  6
CONTINUOUS
 62
     7
 10
309.0249962619
 20
226.3567352495
 30
0.0
  0
VERTEX
  5
398
  8
0
  6
CONTINUOUS
 62
     7
 10
308.8634497932
 20
227.2175574503
 30
0.0
  0
VERTEX
  5
399
  8
0
  6
CONTINUOUS
 62
     7
 10
308.6923531703
 20
228.0584597788
 30
0.0
  0
VERTEX
  5
39A
  8
0
  6
CONTINUOUS
 62
     7
 10
308.5122160128
 20
228.8780236444
 30
0.0
  0
VERTEX
  5
39B
  8
0
  6
CONTINUOUS
 62
     7
 10
308.324002426
 20
229.67243435
 30
0.0
  0
VERTEX
  5
39C
  8
0
  6
CONTINUOUS
 62
     7
 10
308.1286347917
 20
230.438079854
 30
0.0
  0
VERTEX
  5
39D
  8
0
  6
CONTINUOUS
 62
     7
 10
307.9269073418
 20
231.1717295847
 30
0.0
  0
VERTEX
  5
39E
  8
0
  6
CONTINUOUS
 62
     7
 10
307.7193475774
 20
231.8708086214
 30
0.0
  0
VERTEX
  5
39F
  8
0
  6
CONTINUOUS
 62
     7
 10
307.5062058381
 20
232.5331354341
 30
0.0
  0
VERTEX
  5
3A0
  8
0
  6
CONTINUOUS
 62
     7
 10
307.2903848699
 20
233.1495189867
 30
0.0
  0
VERTEX
  5
3A1
  8
0
  6
CONTINUOUS
 62
     7
 10
307.066867452
 20
233.7328100405
 30
0.0
  0
VERTEX
  5
3A2
  8
0
  6
CONTINUOUS
 62
     7
 10
306.8298480919
 20
234.2916274271
 30
0.0
  0
VERTEX
  5
3A3
  8
0
  6
CONTINUOUS
 62
     7
 10
306.5700925401
 20
234.8342204294
 30
0.0
  0
VERTEX
  5
3A4
  8
0
  6
CONTINUOUS
 62
     7
 10
306.2629706672
 20
235.3826308451
 30
0.0
  0
VERTEX
  5
3A5
  8
0
  6
CONTINUOUS
 62
     7
 10
306.0112080983
 20
235.7596421442
 30
0.0
  0
VERTEX
  5
3A6
  8
0
  6
CONTINUOUS
 62
     7
 10
305.7576991132
 20
236.0787296495
 30
0.0
  0
VERTEX
  5
3A7
  8
0
  6
CONTINUOUS
 62
     7
 10
305.5090866498
 20
236.3400483332
 30
0.0
  0
VERTEX
  5
3A8
  8
0
  6
CONTINUOUS
 62
     7
 10
305.2403740099
 20
236.5737104616
 30
0.0
  0
VERTEX
  5
3A9
  8
0
  6
CONTINUOUS
 62
     7
 10
304.9458480886
 20
236.7805147371
 30
0.0
  0
VERTEX
  5
3AA
  8
0
  6
CONTINUOUS
 62
     7
 10
304.6210877112
 20
236.9578385553
 30
0.0
  0
VERTEX
  5
3AB
  8
0
  6
CONTINUOUS
 62
     7
 10
304.2663432172
 20
237.0991015634
 30
0.0
  0
VERTEX
  5
3AC
  8
0
  6
CONTINUOUS
 62
     7
 10
303.8864276818
 20
237.196495553
 30
0.0
  0
VERTEX
  5
3AD
  8
0
  6
CONTINUOUS
 62
     7
 10
303.4893877319
 20
237.2433924875
 30
0.0
  0
VERTEX
  5
3AE
  8
0
  6
CONTINUOUS
 62
     7
 10
303.0409134439
 20
237.2312808237
 30
0.0
  0
VERTEX
  5
3AF
  8
0
  6
CONTINUOUS
 62
     7
 10
302.987954717
 20
237.2217083177
 30
0.0
  0
SEQEND
  5
680
  8
0
  6
CONTINUOUS
 62
     7
  0
POLYLINE
  5
154
  8
0
  6
CONTINUOUS
 62
     7
 66
     1
 10
0.0
 20
0.0
 30
0.0
  0
VERTEX
  5
3B0
  8
0
  6
CONTINUOUS
 62
     7
 10
311.5191995612
 20
167.755355855
 30
0.0
  0
VERTEX
  5
3B1
  8
0
  6
CONTINUOUS
 62
     7
 10
311.7858863882
 20
167.7934909067
 30
0.0
  0
VERTEX
  5
3B2
  8
0
  6
CONTINUOUS
 62
     7
 10
312.1815680972
 20
167.9097795687
 30
0.0
  0
VERTEX
  5
3B3
  8
0
  6
CONTINUOUS
 62
     7
 10
312.5432244948
 20
168.0726433
 30
0.0
  0
VERTEX
  5
3B4
  8
0
  6
CONTINUOUS
 62
     7
 10
312.8672532252
 20
168.2727360926
 30
0.0
  0
VERTEX
  5
3B5
  8
0
  6
CONTINUOUS
 62
     7
 10
313.1521954647
 20
168.5009145937
 30
0.0
  0
VERTEX
  5
3B6
  8
0
  6
CONTINUOUS
 62
     7
 10
313.3990972749
 20
168.7493229113
 30
0.0
  0
VERTEX
  5
3B7
  8
0
  6
CONTINUOUS
 62
     7
 10
313.6116943768
 20
169.0131092272
 30
0.0
  0
VERTEX
  5
3B8
  8
0
  6
CONTINUOUS
 62
     7
 10
313.795947235
 20
169.2922139368
 30
0.0
  0
VERTEX
  5
3B9
  8
0
  6
CONTINUOUS
 62
     7
 10
313.9593146256
 20
169.5935154161
 30
0.0
  0
VERTEX
  5
3BA
  8
0
  6
CONTINUOUS
 62
     7
 10
314.1109689585
 20
169.9364805422
 30
0.0
  0
VERTEX
  5
3BB
  8
0
  6
CONTINUOUS
 62
     7
 10
314.2550587169
 20
170.3424954615
 30
0.0
  0
VERTEX
  5
3BC
  8
0
  6
CONTINUOUS
 62
     7
 10
314.4024870804
 20
170.8760881624
 30
0.0
  0
VERTEX
  5
3BD
  8
0
  6
CONTINUOUS
 62
     7
 10
314.5275689176
 20
171.4702511034
 30
0.0
  0
VERTEX
  5
3BE
  8
0
  6
CONTINUOUS
 62
     7
 10
314.6231919042
 20
172.0612669191
 30
0.0
  0
VERTEX
  5
3BF
  8
0
  6
CONTINUOUS
 62
     7
 10
314.7061429432
 20
172.7319026194
 30
0.0
  0
VERTEX
  5
3C0
  8
0
  6
CONTINUOUS
 62
     7
 10
314.7693685702
 20
173.4188938341
 30
0.0
  0
VERTEX
  5
3C1
  8
0
  6
CONTINUOUS
 62
     7
 10
314.8161909989
 20
174.130191823
 30
0.0
  0
VERTEX
  5
3C2
  8
0
  6
CONTINUOUS
 62
     7
 10
314.8471563569
 20
174.8516822061
 30
0.0
  0
VERTEX
  5
3C3
  8
0
  6
CONTINUOUS
 62
     7
 10
314.8646004013
 20
175.6229901514
 30
0.0
  0
VERTEX
  5
3C4
  8
0
  6
CONTINUOUS
 62
     7
 10
314.8678905777
 20
176.4260077677
 30
0.0
  0
VERTEX
  5
3C5
  8
0
  6
CONTINUOUS
 62
     7
 10
314.8570410422
 20
177.2571110926
 30
0.0
  0
VERTEX
  5
3C6
  8
0
  6
CONTINUOUS
 62
     7
 10
314.8320041111
 20
178.1113529406
 30
0.0
  0
VERTEX
  5
3C7
  8
0
  6
CONTINUOUS
 62
     7
 10
314.7927686087
 20
178.9829874239
 30
0.0
  0
VERTEX
  5
3C8
  8
0
  6
CONTINUOUS
 62
     7
 10
314.7394045702
 20
179.8657918177
 30
0.0
  0
VERTEX
  5
3C9
  8
0
  6
CONTINUOUS
 62
     7
 10
314.6721444539
 20
180.7531380854
 30
0.0
  0
VERTEX
  5
3CA
  8
0
  6
CONTINUOUS
 62
     7
 10
314.5910672358
 20
181.6464925013
 30
0.0
  0
VERTEX
  5
3CB
  8
0
  6
CONTINUOUS
 62
     7
 10
314.4951745382
 20
182.5568580828
 30
0.0
  0
VERTEX
  5
3CC
  8
0
  6
CONTINUOUS
 62
     7
 10
314.4161462298
 20
183.2166576586
 30
0.0
  0
SEQEND
  5
67F
  8
0
  6
CONTINUOUS
 62
     7
  0
LINE
  5
155
  8
0
  6
CONTINUOUS
 62
     7
 10
314.4182614497
 20
183.2169914446
 30
0.0
 11
309.5434881261
 21
222.9188466272
 31
0.0
  0
POLYLINE
  5
156
  8
0
  6
CONTINUOUS
 62
     7
 66
     1
 10
0.0
 20
0.0
 30
0.0
  0
VERTEX
  5
3CD
  8
0
  6
CONTINUOUS
 62
     7
 10
309.0768090895
 20
182.5612807474
 30
0.0
  0
VERTEX
  5
3CE
  8
0
  6
CONTINUOUS
 62
     7
 10
309.161960285
 20
181.8383479319
 30
0.0
  0
VERTEX
  5
3CF
  8
0
  6
CONTINUOUS
 62
     7
 10
309.248336356
 20
181.0019755564
 30
0.0
  0
VERTEX
  5
3D0
  8
0
  6
CONTINUOUS
 62
     7
 10
309.3214846662
 20
180.1754379473
 30
0.0
  0
VERTEX
  5
3D1
  8
0
  6
CONTINUOUS
 62
     7
 10
309.3808955959
 20
179.3647194109
 30
0.0
  0
VERTEX
  5
3D2
  8
0
  6
CONTINUOUS
 62
     7
 10
309.4266391805
 20
178.5753751001
 30
0.0
  0
VERTEX
  5
3D3
  8
0
  6
CONTINUOUS
 62
     7
 10
309.459727209
 20
177.8003835878
 30
0.0
  0
VERTEX
  5
3D4
  8
0
  6
CONTINUOUS
 62
     7
 10
309.4802326969
 20
177.044942399
 30
0.0
  0
VERTEX
  5
3D5
  8
0
  6
CONTINUOUS
 62
     7
 10
309.4882495216
 20
176.318063756
 30
0.0
  0
VERTEX
  5
3D6
  8
0
  6
CONTINUOUS
 62
     7
 10
309.4841725639
 20
175.6300234995
 30
0.0
  0
VERTEX
  5
3D7
  8
0
  6
CONTINUOUS
 62
     7
 10
309.4687677434
 20
174.9893927774
 30
0.0
  0
VERTEX
  5
3D8
  8
0
  6
CONTINUOUS
 62
     7
 10
309.4431451968
 20
174.404206296
 30
0.0
  0
VERTEX
  5
3D9
  8
0
  6
CONTINUOUS
 62
     7
 10
309.4087711981
 20
173.8774323664
 30
0.0
  0
VERTEX
  5
3DA
  8
0
  6
CONTINUOUS
 62
     7
 10
309.3657202533
 20
173.3911538324
 30
0.0
  0
VERTEX
  5
3DB
  8
0
  6
CONTINUOUS
 62
     7
 10
309.3169383219
 20
172.9670667849
 30
0.0
  0
VERTEX
  5
3DC
  8
0
  6
CONTINUOUS
 62
     7
 10
309.2648140601
 20
172.6085448465
 30
0.0
  0
VERTEX
  5
3DD
  8
0
  6
CONTINUOUS
 62
     7
 10
309.2128850034
 20
172.3214411936
 30
0.0
  0
VERTEX
  5
3DE
  8
0
  6
CONTINUOUS
 62
     7
 10
309.1708518079
 20
172.1308732233
 30
0.0
  0
VERTEX
  5
3DF
  8
0
  6
CONTINUOUS
 62
     7
 10
309.1374374441
 20
172.0043087206
 30
0.0
  0
VERTEX
  5
3E0
  8
0
  6
CONTINUOUS
 62
     7
 10
309.1167158893
 20
171.9382071695
 30
0.0
  0
VERTEX
  5
3E1
  8
0
  6
CONTINUOUS
 62
     7
 10
309.1137952617
 20
171.9299459658
 30
0.0
  0
SEQEND
  5
67E
  8
0
  6
CONTINUOUS
 62
     7
  0
POLYLINE
  5
157
  8
0
  6
CONTINUOUS
 62
     7
 66
     1
 10
0.0
 20
0.0
 30
0.0
  0
VERTEX
  5
3E2
  8
0
  6
CONTINUOUS
 62
     7
 10
301.6640297583
 20
232.5899863443
 30
0.0
  0
VERTEX
  5
3E3
  8
0
  6
CONTINUOUS
 62
     7
 10
301.6627542189
 20
232.5915837488
 30
0.0
  0
VERTEX
  5
3E4
  8
0
  6
CONTINUOUS
 62
     7
 10
301.6881010941
 20
232.5514221392
 30
0.0
  0
VERTEX
  5
3E5
  8
0
  6
CONTINUOUS
 62
     7
 10
301.7400450519
 20
232.4603581629
 30
0.0
  0
VERTEX
  5
3E6
  8
0
  6
CONTINUOUS
 62
     7
 10
301.8169991187
 20
232.3114299974
 30
0.0
  0
VERTEX
  5
3E7
  8
0
  6
CONTINUOUS
 62
     7
 10
301.9167817644
 20
232.0992851458
 30
0.0
  0
VERTEX
  5
3E8
  8
0
  6
CONTINUOUS
 62
     7
 10
302.0364425591
 20
231.8210864267
 30
0.0
  0
VERTEX
  5
3E9
  8
0
  6
CONTINUOUS
 62
     7
 10
302.1724216155
 20
231.4768696031
 30
0.0
  0
VERTEX
  5
3EA
  8
0
  6
CONTINUOUS
 62
     7
 10
302.3208476118
 20
231.0692334375
 30
0.0
  0
VERTEX
  5
3EB
  8
0
  6
CONTINUOUS
 62
     7
 10
302.4778387955
 20
230.6028151712
 30
0.0
  0
VERTEX
  5
3EC
  8
0
  6
CONTINUOUS
 62
     7
 10
302.6398457101
 20
230.0832176409
 30
0.0
  0
VERTEX
  5
3ED
  8
0
  6
CONTINUOUS
 62
     7
 10
302.803780835
 20
229.5171880922
 30
0.0
  0
VERTEX
  5
3EE
  8
0
  6
CONTINUOUS
 62
     7
 10
302.9702357462
 20
228.8995409212
 30
0.0
  0
VERTEX
  5
3EF
  8
0
  6
CONTINUOUS
 62
     7
 10
303.1367532424
 20
228.2355690203
 30
0.0
  0
VERTEX
  5
3F0
  8
0
  6
CONTINUOUS
 62
     7
 10
303.3011205009
 20
227.5306606493
 30
0.0
  0
VERTEX
  5
3F1
  8
0
  6
CONTINUOUS
 62
     7
 10
303.4612707308
 20
226.7904663286
 30
0.0
  0
VERTEX
  5
3F2
  8
0
  6
CONTINUOUS
 62
     7
 10
303.6152891329
 20
226.0208392343
 30
0.0
  0
VERTEX
  5
3F3
  8
0
  6
CONTINUOUS
 62
     7
 10
303.7613994888
 20
225.2279186449
 30
0.0
  0
VERTEX
  5
3F4
  8
0
  6
CONTINUOUS
 62
     7
 10
303.8978687933
 20
224.4188094339
 30
0.0
  0
VERTEX
  5
3F5
  8
0
  6
CONTINUOUS
 62
     7
 10
304.0234006456
 20
223.6009264192
 30
0.0
  0
VERTEX
  5
3F6
  8
0
  6
CONTINUOUS
 62
     7
 10
304.138515096
 20
222.7711701593
 30
0.0
  0
VERTEX
  5
3F7
  8
0
  6
CONTINUOUS
 62
     7
 10
304.2016483358
 20
222.2629094324
 30
0.0
  0
SEQEND
  5
67D
  8
0
  6
CONTINUOUS
 62
     7
  0
LINE
  5
158
  8
0
  6
CONTINUOUS
 62
     7
 10
304.2035899571
 20
222.2631836138
 30
0.0
 11
309.0783632806
 21
182.561340352
 31
0.0
  0
LINE
  5
159
  8
0
  6
CONTINUOUS
 62
     7
 10
303.6861873678
 20
225.6360912523
 30
0.0
 11
309.3927807621
 21
179.1596079073
 31
0.0
  0
ARC
  5
15A
  8
0
  6
CONTINUOUS
 62
     7
 10
301.6091038665
 20
234.3470687281
 30
0.0
 40
2.689999999999995
 50
97.0
 51
165.4352045702
  0
ARC
  5
15B
  8
0
  6
CONTINUOUS
 62
     7
 10
301.6091038665
 20
234.3470687281
 30
0.0
 40
2.690000000000031
 50
208.5742842993
 51
277.0
  0
ARC
  5
15C
  8
0
  6
CONTINUOUS
 62
     7
 10
309.4843008373
 20
170.208736409
 30
0.0
 40
2.690000000000055
 50
208.5742842993
 51
277.0
  0
ARC
  5
15D
  8
0
  6
CONTINUOUS
 62
     7
 10
309.4843008373
 20
170.208736409
 30
0.0
 40
2.689999999999995
 50
97.0
 51
165.4352045702
  0
LINE
  5
15E
  8
0
  6
CONTINUOUS
 62
     7
 10
298.7056813649
 20
232.9830670557
 30
0.0
 11
299.2482505253
 21
233.0496812067
 31
0.0
  0
LINE
  5
15F
  8
0
  6
CONTINUOUS
 62
     7
 10
299.0045122317
 20
235.0347781382
 30
0.0
 11
298.4619430712
 21
234.9681520662
 31
0.0
  0
LINE
  5
160
  8
0
  6
CONTINUOUS
 62
     7
 10
306.5808780006
 20
168.8447261057
 30
0.0
 11
307.1234486512
 21
168.9113521776
 31
0.0
  0
LINE
  5
161
  8
0
  6
CONTINUOUS
 62
     7
 10
306.8797088674
 20
170.8964371881
 30
0.0
 11
306.3371397069
 21
170.8298230371
 31
0.0
  0
POLYLINE
  5
162
  8
0
  6
CONTINUOUS
 62
     7
 66
     1
 10
0.0
 20
0.0
 30
0.0
  0
VERTEX
  5
3F8
  8
0
  6
CONTINUOUS
 62
     7
 10
403.9988912157
 20
140.7090389929
 30
0.0
  0
VERTEX
  5
3F9
  8
0
  6
CONTINUOUS
 62
     7
 10
403.9935387186
 20
140.9783864221
 30
0.0
  0
VERTEX
  5
3FA
  8
0
  6
CONTINUOUS
 62
     7
 10
403.926340442
 20
141.3852894506
 30
0.0
  0
VERTEX
  5
3FB
  8
0
  6
CONTINUOUS
 62
     7
 10
403.8087583593
 20
141.7640948496
 30
0.0
  0
VERTEX
  5
3FC
  8
0
  6
CONTINUOUS
 62
     7
 10
403.649655681
 20
142.110093852
 30
0.0
  0
VERTEX
  5
3FD
  8
0
  6
CONTINUOUS
 62
     7
 10
403.4579015783
 20
142.4207234583
 30
0.0
  0
VERTEX
  5
3FE
  8
0
  6
CONTINUOUS
 62
     7
 10
403.2414294294
 20
142.6960551939
 30
0.0
  0
VERTEX
  5
3FF
  8
0
  6
CONTINUOUS
 62
     7
 10
403.0055261663
 20
142.9392183027
 30
0.0
  0
VERTEX
  5
400
  8
0
  6
CONTINUOUS
 62
     7
 10
402.7509547285
 20
143.1561076841
 30
0.0
  0
VERTEX
  5
401
  8
0
  6
CONTINUOUS
 62
     7
 10
402.4718142561
 20
143.3549785814
 30
0.0
  0
VERTEX
  5
402
  8
0
  6
CONTINUOUS
 62
     7
 10
402.1498836092
 20
143.5472989283
 30
0.0
  0
VERTEX
  5
403
  8
0
  6
CONTINUOUS
 62
     7
 10
401.7644501737
 20
143.739798089
 30
0.0
  0
VERTEX
  5
404
  8
0
  6
CONTINUOUS
 62
     7
 10
401.252803903
 20
143.9511561594
 30
0.0
  0
VERTEX
  5
405
  8
0
  6
CONTINUOUS
 62
     7
 10
400.6783164552
 20
144.1477143965
 30
0.0
  0
VERTEX
  5
406
  8
0
  6
CONTINUOUS
 62
     7
 10
400.1033640913
 20
144.3146491251
 30
0.0
  0
VERTEX
  5
407
  8
0
  6
CONTINUOUS
 62
     7
 10
399.4478262476
 20
144.4787168703
 30
0.0
  0
VERTEX
  5
408
  8
0
  6
CONTINUOUS
 62
     7
 10
398.7736679128
 20
144.6251893244
 30
0.0
  0
VERTEX
  5
409
  8
0
  6
CONTINUOUS
 62
     7
 10
398.0733729414
 20
144.7583520613
 30
0.0
  0
VERTEX
  5
40A
  8
0
  6
CONTINUOUS
 62
     7
 10
397.3610378316
 20
144.8770129881
 30
0.0
  0
VERTEX
  5
40B
  8
0
  6
CONTINUOUS
 62
     7
 10
396.59760366
 20
144.9883246622
 30
0.0
  0
VERTEX
  5
40C
  8
0
  6
CONTINUOUS
 62
     7
 10
395.8009756616
 20
145.089455863
 30
0.0
  0
VERTEX
  5
40D
  8
0
  6
CONTINUOUS
 62
     7
 10
394.9747479967
 20
145.1799714765
 30
0.0
  0
VERTEX
  5
40E
  8
0
  6
CONTINUOUS
 62
     7
 10
394.123808246
 20
145.2592277727
 30
0.0
  0
VERTEX
  5
40F
  8
0
  6
CONTINUOUS
 62
     7
 10
393.2539022974
 20
145.3265094957
 30
0.0
  0
VERTEX
  5
410
  8
0
  6
CONTINUOUS
 62
     7
 10
392.3711634687
 20
145.3811311922
 30
0.0
  0
VERTEX
  5
411
  8
0
  6
CONTINUOUS
 62
     7
 10
391.4822436384
 20
145.4225087366
 30
0.0
  0
VERTEX
  5
412
  8
0
  6
CONTINUOUS
 62
     7
 10
390.5856646112
 20
145.4509103498
 30
0.0
  0
VERTEX
  5
413
  8
0
  6
CONTINUOUS
 62
     7
 10
389.6703935674
 20
145.4666817388
 30
0.0
  0
VERTEX
  5
414
  8
0
  6
CONTINUOUS
 62
     7
 10
389.0058792642
 20
145.4686486921
 30
0.0
  0
SEQEND
  5
67C
  8
0
  6
CONTINUOUS
 62
     7
  0
ARC
  5
163
  8
0
  6
CONTINUOUS
 62
     7
 10
348.7072090189
 20
90.3158069317
 30
0.0
 40
55.15425742299352
 50
89.689920985
 51
97.9477118465
  0
LINE
  5
164
  8
0
  6
CONTINUOUS
 62
     7
 10
389.0058077386
 20
145.4707884989
 30
0.0
 11
349.0058071426
 21
145.4707884989
 31
0.0
  0
POLYLINE
  5
165
  8
0
  6
CONTINUOUS
 62
     7
 66
     1
 10
0.0
 20
0.0
 30
0.0
  0
VERTEX
  5
415
  8
0
  6
CONTINUOUS
 62
     7
 10
389.0056766084
 20
140.0892400942
 30
0.0
  0
VERTEX
  5
416
  8
0
  6
CONTINUOUS
 62
     7
 10
389.7335983327
 20
140.0856518946
 30
0.0
  0
VERTEX
  5
417
  8
0
  6
CONTINUOUS
 62
     7
 10
390.5742682031
 20
140.0694573126
 30
0.0
  0
VERTEX
  5
418
  8
0
  6
CONTINUOUS
 62
     7
 10
391.4035535863
 20
140.0413298807
 30
0.0
  0
VERTEX
  5
419
  8
0
  6
CONTINUOUS
 62
     7
 10
392.2154701761
 20
140.0014960966
 30
0.0
  0
VERTEX
  5
41A
  8
0
  6
CONTINUOUS
 62
     7
 10
393.0045045427
 20
139.9507010183
 30
0.0
  0
VERTEX
  5
41B
  8
0
  6
CONTINUOUS
 62
     7
 10
393.7777496389
 20
139.8890996179
 30
0.0
  0
VERTEX
  5
41C
  8
0
  6
CONTINUOUS
 62
     7
 10
394.5300615839
 20
139.8173833094
 30
0.0
  0
VERTEX
  5
41D
  8
0
  6
CONTINUOUS
 62
     7
 10
395.2524996809
 20
139.7367561064
 30
0.0
  0
VERTEX
  5
41E
  8
0
  6
CONTINUOUS
 62
     7
 10
395.9349192194
 20
139.6488571367
 30
0.0
  0
VERTEX
  5
41F
  8
0
  6
CONTINUOUS
 62
     7
 10
396.5688861421
 20
139.5554983816
 30
0.0
  0
VERTEX
  5
420
  8
0
  6
CONTINUOUS
 62
     7
 10
397.1465922407
 20
139.4587481222
 30
0.0
  0
VERTEX
  5
421
  8
0
  6
CONTINUOUS
 62
     7
 10
397.6652539781
 20
139.3604302606
 30
0.0
  0
VERTEX
  5
422
  8
0
  6
CONTINUOUS
 62
     7
 10
398.14265142
 20
139.258440753
 30
0.0
  0
VERTEX
  5
423
  8
0
  6
CONTINUOUS
 62
     7
 10
398.5576368383
 20
139.1583407125
 30
0.0
  0
VERTEX
  5
424
  8
0
  6
CONTINUOUS
 62
     7
 10
398.9071346334
 20
139.0629077158
 30
0.0
  0
VERTEX
  5
425
  8
0
  6
CONTINUOUS
 62
     7
 10
399.1857744268
 20
138.976379653
 30
0.0
  0
VERTEX
  5
426
  8
0
  6
CONTINUOUS
 62
     7
 10
399.3697978071
 20
138.911434432
 30
0.0
  0
VERTEX
  5
427
  8
0
  6
CONTINUOUS
 62
     7
 10
399.4913435987
 20
138.8628447256
 30
0.0
  0
VERTEX
  5
428
  8
0
  6
CONTINUOUS
 62
     7
 10
399.5544231943
 20
138.8342225752
 30
0.0
  0
VERTEX
  5
429
  8
0
  6
CONTINUOUS
 62
     7
 10
399.562273126
 20
138.8303184709
 30
0.0
  0
SEQEND
  5
67B
  8
0
  6
CONTINUOUS
 62
     7
  0
LINE
  5
166
  8
0
  6
CONTINUOUS
 62
     7
 10
360.0058055929
 20
140.0907898149
 30
0.0
 11
389.0058077386
 21
140.0907898149
 31
0.0
  0
LINE
  5
167
  8
0
  6
CONTINUOUS
 62
     7
 10
360.0058055929
 20
139.9882996282
 30
0.0
 11
392.4204982332
 21
139.9882996282
 31
0.0
  0
ARC
  5
168
  8
0
  6
CONTINUOUS
 62
     7
 10
401.3158064035
 20
138.9882983505
 30
0.0
 40
2.690000000000055
 50
180.0
 51
270.0
  0
ARC
  5
169
  8
0
  6
CONTINUOUS
 62
     7
 10
401.3158064035
 20
138.9882983505
 30
0.0
 40
2.689999999999998
 50
270.0
 51
0.0
  0
POLYLINE
  5
16A
  8
0
  6
CONTINUOUS
 62
     7
 66
     1
 10
0.0
 20
0.0
 30
0.0
  0
VERTEX
  5
42A
  8
0
  6
CONTINUOUS
 62
     7
 10
302.9863036684
 20
237.226369401
 30
0.0
  0
VERTEX
  5
42B
  8
0
  6
CONTINUOUS
 62
     7
 10
302.5344617179
 20
237.1708893976
 30
0.0
  0
VERTEX
  5
42C
  8
0
  6
CONTINUOUS
 62
     7
 10
302.151844602
 20
237.1239090166
 30
0.0
  0
VERTEX
  5
42D
  8
0
  6
CONTINUOUS
 62
     7
 10
301.8385983518
 20
237.0854520998
 30
0.0
  0
VERTEX
  5
42E
  8
0
  6
CONTINUOUS
 62
     7
 10
301.5948377064
 20
237.0555186472
 30
0.0
  0
VERTEX
  5
42F
  8
0
  6
CONTINUOUS
 62
     7
 10
301.4206580332
 20
237.0341325006
 30
0.0
  0
VERTEX
  5
430
  8
0
  6
CONTINUOUS
 62
     7
 10
301.3161248973
 20
237.0212936602
 30
0.0
  0
VERTEX
  5
431
  8
0
  6
CONTINUOUS
 62
     7
 10
301.2812755517
 20
237.0170140467
 30
0.0
  0
SEQEND
  5
67A
  8
0
  6
CONTINUOUS
 62
     7
  0
ARC
  5
16B
  8
0
  6
CONTINUOUS
 62
     7
 10
301.6331593859
 20
234.3524067141
 30
0.0
 40
2.711877846184557
 50
165.6589414935
 51
187.0498969926
  0
POLYLINE
  5
16C
  8
0
  6
CONTINUOUS
 62
     7
 66
     1
 10
0.0
 20
0.0
 30
0.0
  0
VERTEX
  5
432
  8
0
  6
CONTINUOUS
 62
     7
 10
301.9369326046
 20
231.6771173677
 30
0.0
  0
VERTEX
  5
433
  8
0
  6
CONTINUOUS
 62
     7
 10
301.9717819503
 20
231.6813969812
 30
0.0
  0
VERTEX
  5
434
  8
0
  6
CONTINUOUS
 62
     7
 10
302.0523257068
 20
231.6912913523
 30
0.0
  0
SEQEND
  5
679
  8
0
  6
CONTINUOUS
 62
     7
  0
POLYLINE
  5
16D
  8
0
  6
CONTINUOUS
 62
     7
 66
     1
 10
0.0
 20
0.0
 30
0.0
  0
VERTEX
  5
435
  8
0
  6
CONTINUOUS
 62
     7
 10
299.2469153813
 20
233.0603146753
 30
0.0
  0
VERTEX
  5
436
  8
0
  6
CONTINUOUS
 62
     7
 10
299.2504633478
 20
233.0536985598
 30
0.0
  0
VERTEX
  5
437
  8
0
  6
CONTINUOUS
 62
     7
 10
299.2130733541
 20
233.125140687
 30
0.0
  0
VERTEX
  5
438
  8
0
  6
CONTINUOUS
 62
     7
 10
299.1389102748
 20
233.2848453722
 30
0.0
  0
VERTEX
  5
439
  8
0
  6
CONTINUOUS
 62
     7
 10
299.0465588382
 20
233.5353636942
 30
0.0
  0
VERTEX
  5
43A
  8
0
  6
CONTINUOUS
 62
     7
 10
298.9677823595
 20
233.8513755999
 30
0.0
  0
VERTEX
  5
43B
  8
0
  6
CONTINUOUS
 62
     7
 10
298.9417843035
 20
234.0195679865
 30
0.0
  0
SEQEND
  5
678
  8
0
  6
CONTINUOUS
 62
     7
  0
POLYLINE
  5
16E
  8
0
  6
CONTINUOUS
 62
     7
 66
     1
 10
0.0
 20
0.0
 30
0.0
  0
VERTEX
  5
43C
  8
0
  6
CONTINUOUS
 62
     7
 10
309.8121292404
 20
167.5387883387
 30
0.0
  0
VERTEX
  5
43D
  8
0
  6
CONTINUOUS
 62
     7
 10
309.8469785861
 20
167.5430679521
 30
0.0
  0
VERTEX
  5
43E
  8
0
  6
CONTINUOUS
 62
     7
 10
309.9515132121
 20
167.5559067926
 30
0.0
  0
VERTEX
  5
43F
  8
0
  6
CONTINUOUS
 62
     7
 10
310.1256928853
 20
167.5772929392
 30
0.0
  0
VERTEX
  5
440
  8
0
  6
CONTINUOUS
 62
     7
 10
310.3694520405
 20
167.6072144709
 30
0.0
  0
VERTEX
  5
441
  8
0
  6
CONTINUOUS
 62
     7
 10
310.6826990357
 20
167.6456833086
 30
0.0
  0
VERTEX
  5
442
  8
0
  6
CONTINUOUS
 62
     7
 10
311.0653154067
 20
167.6926636896
 30
0.0
  0
VERTEX
  5
443
  8
0
  6
CONTINUOUS
 62
     7
 10
311.5171573571
 20
167.748143693
 30
0.0
  0
SEQEND
  5
677
  8
0
  6
CONTINUOUS
 62
     7
  0
POLYLINE
  5
16F
  8
0
  6
CONTINUOUS
 62
     7
 66
     1
 10
0.0
 20
0.0
 30
0.0
  0
VERTEX
  5
444
  8
0
  6
CONTINUOUS
 62
     7
 10
307.1221135071
 20
168.9219856462
 30
0.0
  0
VERTEX
  5
445
  8
0
  6
CONTINUOUS
 62
     7
 10
307.1256599835
 20
168.9153576097
 30
0.0
  0
VERTEX
  5
446
  8
0
  6
CONTINUOUS
 62
     7
 10
307.0882699898
 20
168.9868116579
 30
0.0
  0
VERTEX
  5
447
  8
0
  6
CONTINUOUS
 62
     7
 10
307.0141084007
 20
169.1465163431
 30
0.0
  0
VERTEX
  5
448
  8
0
  6
CONTINUOUS
 62
     7
 10
306.9217554739
 20
169.3970346651
 30
0.0
  0
VERTEX
  5
449
  8
0
  6
CONTINUOUS
 62
     7
 10
306.8429789952
 20
169.7130465708
 30
0.0
  0
VERTEX
  5
44A
  8
0
  6
CONTINUOUS
 62
     7
 10
306.8169824294
 20
169.8812270365
 30
0.0
  0
SEQEND
  5
676
  8
0
  6
CONTINUOUS
 62
     7
  0
POLYLINE
  5
170
  8
0
  6
CONTINUOUS
 62
     7
 66
     1
 10
0.0
 20
0.0
 30
0.0
  0
VERTEX
  5
44B
  8
0
  6
CONTINUOUS
 62
     7
 10
309.2731602005
 20
172.8930139742
 30
0.0
  0
VERTEX
  5
44C
  8
0
  6
CONTINUOUS
 62
     7
 10
309.1913215331
 20
172.8829646311
 30
0.0
  0
VERTEX
  5
44D
  8
0
  6
CONTINUOUS
 62
     7
 10
309.1564721874
 20
172.8786850176
 30
0.0
  0
SEQEND
  5
675
  8
0
  6
CONTINUOUS
 62
     7
  0
ARC
  5
171
  8
0
  6
CONTINUOUS
 62
     7
 10
309.5094210808
 20
170.2140098714
 30
0.0
 40
2.712926520727876
 50
165.6631254354
 51
187.0459686315
  0
LINE
  5
172
  8
0
  6
CONTINUOUS
 62
     7
 10
311.5171573571
 20
167.748143693
 30
0.0
 11
311.5650020054
 21
167.7544617853
 31
0.0
  0
LINE
  5
173
  8
0
  6
CONTINUOUS
 62
     7
 10
300.7462523392
 20
167.1308899126
 30
0.0
 11
292.3860139659
 21
235.2195644579
 31
0.0
  0
POLYLINE
  5
174
  8
0
  6
CONTINUOUS
 62
     7
 66
     1
 10
0.0
 20
0.0
 30
0.0
  0
VERTEX
  5
44E
  8
0
  6
CONTINUOUS
 62
     7
 10
301.7387978247
 20
167.2527694902
 30
0.0
  0
VERTEX
  5
44F
  8
0
  6
CONTINUOUS
 62
     7
 10
301.5451617054
 20
167.228987237
 30
0.0
  0
VERTEX
  5
450
  8
0
  6
CONTINUOUS
 62
     7
 10
301.3589672259
 20
167.2061228952
 30
0.0
  0
VERTEX
  5
451
  8
0
  6
CONTINUOUS
 62
     7
 10
301.1873684338
 20
167.1850586138
 30
0.0
  0
VERTEX
  5
452
  8
0
  6
CONTINUOUS
 62
     7
 10
301.0369620732
 20
167.1665930948
 30
0.0
  0
VERTEX
  5
453
  8
0
  6
CONTINUOUS
 62
     7
 10
300.9135268143
 20
167.1514296732
 30
0.0
  0
VERTEX
  5
454
  8
0
  6
CONTINUOUS
 62
     7
 10
300.8218056968
 20
167.1401763163
 30
0.0
  0
VERTEX
  5
455
  8
0
  6
CONTINUOUS
 62
     7
 10
300.7653228453
 20
167.1332383356
 30
0.0
  0
VERTEX
  5
456
  8
0
  6
CONTINUOUS
 62
     7
 10
300.7462523392
 20
167.1308899126
 30
0.0
  0
SEQEND
  5
674
  8
0
  6
CONTINUOUS
 62
     7
  0
POLYLINE
  5
175
  8
0
  6
CONTINUOUS
 62
     7
 66
     1
 10
0.0
 20
0.0
 30
0.0
  0
VERTEX
  5
457
  8
0
  6
CONTINUOUS
 62
     7
 10
292.3860139659
 20
235.2195644579
 30
0.0
  0
VERTEX
  5
458
  8
0
  6
CONTINUOUS
 62
     7
 10
292.4050874523
 20
235.22190096
 30
0.0
  0
VERTEX
  5
459
  8
0
  6
CONTINUOUS
 62
     7
 10
292.4615688137
 20
235.2288389406
 30
0.0
  0
VERTEX
  5
45A
  8
0
  6
CONTINUOUS
 62
     7
 10
292.553288441
 20
235.2401042185
 30
0.0
  0
VERTEX
  5
45B
  8
0
  6
CONTINUOUS
 62
     7
 10
292.6767236999
 20
235.2552557192
 30
0.0
  0
VERTEX
  5
45C
  8
0
  6
CONTINUOUS
 62
     7
 10
292.8271330408
 20
235.2737212381
 30
0.0
  0
VERTEX
  5
45D
  8
0
  6
CONTINUOUS
 62
     7
 10
292.9987288526
 20
235.2947974405
 30
0.0
  0
VERTEX
  5
45E
  8
0
  6
CONTINUOUS
 62
     7
 10
293.1849248222
 20
235.3176498613
 30
0.0
  0
VERTEX
  5
45F
  8
0
  6
CONTINUOUS
 62
     7
 10
293.3785624317
 20
235.3414321146
 30
0.0
  0
SEQEND
  5
673
  8
0
  6
CONTINUOUS
 62
     7
  0
LINE
  5
176
  8
0
  6
CONTINUOUS
 62
     7
 10
305.7089827469
 20
167.7402401171
 30
0.0
 11
301.7387978247
 21
167.2527694902
 31
0.0
  0
LINE
  5
177
  8
0
  6
CONTINUOUS
 62
     7
 10
297.3487443737
 20
235.8289027414
 30
0.0
 11
293.3785624317
 21
235.3414321146
 31
0.0
  0
LINE
  5
178
  8
0
  6
CONTINUOUS
 62
     7
 10
298.3412913493
 20
235.9507823191
 30
0.0
 11
306.7015282324
 21
167.8621077738
 31
0.0
  0
POLYLINE
  5
179
  8
0
  6
CONTINUOUS
 62
     7
 66
     1
 10
0.0
 20
0.0
 30
0.0
  0
VERTEX
  5
460
  8
0
  6
CONTINUOUS
 62
     7
 10
306.7015282324
 20
167.8621077738
 30
0.0
  0
VERTEX
  5
461
  8
0
  6
CONTINUOUS
 62
     7
 10
306.6824577263
 20
167.8597712717
 30
0.0
  0
VERTEX
  5
462
  8
0
  6
CONTINUOUS
 62
     7
 10
306.6259763649
 20
167.852833291
 30
0.0
  0
VERTEX
  5
463
  8
0
  6
CONTINUOUS
 62
     7
 10
306.5342552475
 20
167.8415680132
 30
0.0
  0
VERTEX
  5
464
  8
0
  6
CONTINUOUS
 62
     7
 10
306.4108184985
 20
167.8264165125
 30
0.0
  0
VERTEX
  5
465
  8
0
  6
CONTINUOUS
 62
     7
 10
306.2604121378
 20
167.8079509935
 30
0.0
  0
VERTEX
  5
466
  8
0
  6
CONTINUOUS
 62
     7
 10
306.0888133458
 20
167.7868747911
 30
0.0
  0
VERTEX
  5
467
  8
0
  6
CONTINUOUS
 62
     7
 10
305.9026188663
 20
167.7640223703
 30
0.0
  0
VERTEX
  5
468
  8
0
  6
CONTINUOUS
 62
     7
 10
305.7089827469
 20
167.7402401171
 30
0.0
  0
SEQEND
  5
672
  8
0
  6
CONTINUOUS
 62
     7
  0
POLYLINE
  5
17A
  8
0
  6
CONTINUOUS
 62
     7
 66
     1
 10
0.0
 20
0.0
 30
0.0
  0
VERTEX
  5
469
  8
0
  6
CONTINUOUS
 62
     7
 10
297.3487443737
 20
235.8289027414
 30
0.0
  0
VERTEX
  5
46A
  8
0
  6
CONTINUOUS
 62
     7
 10
297.5423819831
 20
235.8526849947
 30
0.0
  0
VERTEX
  5
46B
  8
0
  6
CONTINUOUS
 62
     7
 10
297.7285779527
 20
235.8755493364
 30
0.0
  0
VERTEX
  5
46C
  8
0
  6
CONTINUOUS
 62
     7
 10
297.9001737646
 20
235.8966136179
 30
0.0
  0
VERTEX
  5
46D
  8
0
  6
CONTINUOUS
 62
     7
 10
298.0505816153
 20
235.9150791368
 30
0.0
  0
VERTEX
  5
46E
  8
0
  6
CONTINUOUS
 62
     7
 10
298.1740183643
 20
235.9302425585
 30
0.0
  0
VERTEX
  5
46F
  8
0
  6
CONTINUOUS
 62
     7
 10
298.2657394818
 20
235.9414959154
 30
0.0
  0
VERTEX
  5
470
  8
0
  6
CONTINUOUS
 62
     7
 10
298.3222208432
 20
235.9484338961
 30
0.0
  0
VERTEX
  5
471
  8
0
  6
CONTINUOUS
 62
     7
 10
298.3412913493
 20
235.9507823191
 30
0.0
  0
SEQEND
  5
671
  8
0
  6
CONTINUOUS
 62
     7
  0
LINE
  5
17B
  8
0
  6
CONTINUOUS
 62
     7
 10
317.905806329
 20
116.5002846918
 30
0.0
 11
317.3058062306
 21
116.5002846918
 31
0.0
  0
LINE
  5
17C
  8
0
  6
CONTINUOUS
 62
     7
 10
317.3058062306
 20
116.5002846918
 30
0.0
 11
317.3058062306
 21
117.5002896986
 31
0.0
  0
ARC
  5
17D
  8
0
  6
CONTINUOUS
 62
     7
 10
318.3058064035
 20
126.300287076
 30
0.0
 40
0.4000000000000341
 50
90.0
 51
180.0
  0
LINE
  5
17E
  8
0
  6
CONTINUOUS
 62
     7
 10
328.9058062694
 20
117.5002896986
 30
0.0
 11
328.9058062694
 21
116.5002846918
 31
0.0
  0
LINE
  5
17F
  8
0
  6
CONTINUOUS
 62
     7
 10
328.9058062694
 20
116.5002846918
 30
0.0
 11
328.3058065436
 21
116.5002846918
 31
0.0
  0
LINE
  5
180
  8
0
  6
CONTINUOUS
 62
     7
 10
328.3058065436
 20
116.5002846918
 30
0.0
 11
328.3058065436
 21
117.5002896986
 31
0.0
  0
LINE
  5
181
  8
0
  6
CONTINUOUS
 62
     7
 10
316.3058064393
 20
116.5002846918
 30
0.0
 11
312.3058065287
 21
116.5002846918
 31
0.0
  0
LINE
  5
182
  8
0
  6
CONTINUOUS
 62
     7
 10
301.520287197
 20
160.8268881044
 30
0.0
 11
300.7462523392
 21
167.1308899126
 31
0.0
  0
POLYLINE
  5
183
  8
0
  6
CONTINUOUS
 62
     7
 66
     1
 10
0.0
 20
0.0
 30
0.0
  0
VERTEX
  5
472
  8
0
  6
CONTINUOUS
 62
     7
 10
301.7387978247
 20
167.2527694902
 30
0.0
  0
VERTEX
  5
473
  8
0
  6
CONTINUOUS
 62
     7
 10
301.5451617054
 20
167.228987237
 30
0.0
  0
VERTEX
  5
474
  8
0
  6
CONTINUOUS
 62
     7
 10
301.3589672259
 20
167.2061228952
 30
0.0
  0
VERTEX
  5
475
  8
0
  6
CONTINUOUS
 62
     7
 10
301.1873684338
 20
167.1850586138
 30
0.0
  0
VERTEX
  5
476
  8
0
  6
CONTINUOUS
 62
     7
 10
301.0369620732
 20
167.1665930948
 30
0.0
  0
VERTEX
  5
477
  8
0
  6
CONTINUOUS
 62
     7
 10
300.9135268143
 20
167.1514296732
 30
0.0
  0
VERTEX
  5
478
  8
0
  6
CONTINUOUS
 62
     7
 10
300.8218056968
 20
167.1401763163
 30
0.0
  0
VERTEX
  5
479
  8
0
  6
CONTINUOUS
 62
     7
 10
300.7653228453
 20
167.1332383356
 30
0.0
  0
VERTEX
  5
47A
  8
0
  6
CONTINUOUS
 62
     7
 10
300.7462523392
 20
167.1308899126
 30
0.0
  0
SEQEND
  5
670
  8
0
  6
CONTINUOUS
 62
     7
  0
ARC
  5
184
  8
0
  6
CONTINUOUS
 62
     7
 10
320.3786633867
 20
163.1424072288
 30
0.0
 40
19.00000000000005
 50
187.0
 51
203.0
  0
LINE
  5
185
  8
0
  6
CONTINUOUS
 62
     7
 10
302.8890706113
 20
155.7185197077
 30
0.0
 11
310.2723694852
 21
138.3245551786
 31
0.0
  0
ARC
  5
186
  8
0
  6
CONTINUOUS
 62
     7
 10
320.3786633867
 20
163.1424072288
 30
0.0
 40
13.00000000000003
 50
187.0
 51
203.0
  0
LINE
  5
187
  8
0
  6
CONTINUOUS
 62
     7
 10
307.4755630902
 20
161.5581059656
 30
0.0
 11
306.7015282324
 21
167.8621077738
 31
0.0
  0
POLYLINE
  5
188
  8
0
  6
CONTINUOUS
 62
     7
 66
     1
 10
0.0
 20
0.0
 30
0.0
  0
VERTEX
  5
47B
  8
0
  6
CONTINUOUS
 62
     7
 10
306.7015282324
 20
167.8621077738
 30
0.0
  0
VERTEX
  5
47C
  8
0
  6
CONTINUOUS
 62
     7
 10
306.6824577263
 20
167.8597712717
 30
0.0
  0
VERTEX
  5
47D
  8
0
  6
CONTINUOUS
 62
     7
 10
306.6259763649
 20
167.852833291
 30
0.0
  0
VERTEX
  5
47E
  8
0
  6
CONTINUOUS
 62
     7
 10
306.5342552475
 20
167.8415680132
 30
0.0
  0
VERTEX
  5
47F
  8
0
  6
CONTINUOUS
 62
     7
 10
306.4108184985
 20
167.8264165125
 30
0.0
  0
VERTEX
  5
480
  8
0
  6
CONTINUOUS
 62
     7
 10
306.2604121378
 20
167.8079509935
 30
0.0
  0
VERTEX
  5
481
  8
0
  6
CONTINUOUS
 62
     7
 10
306.0888133458
 20
167.7868747911
 30
0.0
  0
VERTEX
  5
482
  8
0
  6
CONTINUOUS
 62
     7
 10
305.9026188663
 20
167.7640223703
 30
0.0
  0
VERTEX
  5
483
  8
0
  6
CONTINUOUS
 62
     7
 10
305.7089827469
 20
167.7402401171
 30
0.0
  0
SEQEND
  5
66F
  8
0
  6
CONTINUOUS
 62
     7
  0
LINE
  5
189
  8
0
  6
CONTINUOUS
 62
     7
 10
308.4120995811
 20
158.0629015169
 30
0.0
 11
315.795398455
 21
140.6689429483
 31
0.0
  0
ARC
  5
18A
  8
0
  6
CONTINUOUS
 62
     7
 10
298.3058064035
 20
133.2450502852
 30
0.0
 40
13.00000000000002
 50
0.0
 51
23.0
  0
LINE
  5
18B
  8
0
  6
CONTINUOUS
 62
     7
 10
311.3058067373
 20
133.2450473509
 30
0.0
 11
311.3058067373
 21
116.5002846918
 31
0.0
  0
LINE
  5
18C
  8
0
  6
CONTINUOUS
 62
     7
 10
312.3058065287
 20
116.5002846918
 30
0.0
 11
311.3058067373
 21
116.5002846918
 31
0.0
  0
LINE
  5
18D
  8
0
  6
CONTINUOUS
 62
     7
 10
317.3058062306
 20
116.5002846918
 30
0.0
 11
316.3058064393
 21
116.5002846918
 31
0.0
  0
ARC
  5
18E
  8
0
  6
CONTINUOUS
 62
     7
 10
298.3058064035
 20
133.2450502852
 30
0.0
 40
19.00000000000005
 50
4.1945718162
 51
23.0
  0
ARC
  5
18F
  8
0
  6
CONTINUOUS
 62
     7
 10
327.9058064035
 20
126.500287076
 30
0.0
 40
0.2000000000000171
 50
0.0
 51
90.0
  0
LINE
  5
190
  8
0
  6
CONTINUOUS
 62
     7
 10
327.905806478
 20
126.7002845011
 30
0.0
 11
326.9058063141
 21
126.7002845011
 31
0.0
  0
LINE
  5
191
  8
0
  6
CONTINUOUS
 62
     7
 10
318.9058064929
 20
126.7002845011
 30
0.0
 11
318.1058063618
 21
126.7002845011
 31
0.0
  0
LINE
  5
192
  8
0
  6
CONTINUOUS
 62
     7
 10
317.905806329
 20
126.500287076
 30
0.0
 11
317.905806329
 21
125.7002854547
 31
0.0
  0
LINE
  5
193
  8
0
  6
CONTINUOUS
 62
     7
 10
317.1058065704
 20
126.500287076
 30
0.0
 11
317.1058065704
 21
119.5002877912
 31
0.0
  0
ARC
  5
194
  8
0
  6
CONTINUOUS
 62
     7
 10
318.1058064035
 20
126.500287076
 30
0.0
 40
1.0
 50
90.0
 51
180.0
  0
ARC
  5
195
  8
0
  6
CONTINUOUS
 62
     7
 10
327.9058064035
 20
126.500287076
 30
0.0
 40
1.0
 50
0.0
 51
90.0
  0
LINE
  5
196
  8
0
  6
CONTINUOUS
 62
     7
 10
328.9058062694
 20
119.5002877912
 30
0.0
 11
328.9058062694
 21
126.500287076
 31
0.0
  0
LINE
  5
197
  8
0
  6
CONTINUOUS
 62
     7
 10
328.1058065108
 20
119.5002877912
 30
0.0
 11
328.1058065108
 21
126.500287076
 31
0.0
  0
LINE
  5
198
  8
0
  6
CONTINUOUS
 62
     7
 10
327.905806478
 20
127.5002861223
 30
0.0
 11
318.1058063618
 21
127.5002861223
 31
0.0
  0
ARC
  5
199
  8
0
  6
CONTINUOUS
 62
     7
 10
318.1058064035
 20
126.500287076
 30
0.0
 40
0.2000000000000455
 50
90.0
 51
180.0
  0
LINE
  5
19A
  8
0
  6
CONTINUOUS
 62
     7
 10
317.905806329
 20
117.5002896986
 30
0.0
 11
317.1058065704
 21
117.5002896986
 31
0.0
  0
LINE
  5
19B
  8
0
  6
CONTINUOUS
 62
     7
 10
317.905806329
 20
117.7002871237
 30
0.0
 11
317.905806329
 21
117.5002896986
 31
0.0
  0
LINE
  5
19C
  8
0
  6
CONTINUOUS
 62
     7
 10
317.1058065704
 20
117.5002896986
 30
0.0
 11
317.1058065704
 21
119.5002877912
 31
0.0
  0
LINE
  5
19D
  8
0
  6
CONTINUOUS
 62
     7
 10
328.9058062694
 20
117.5002896986
 30
0.0
 11
328.1058065108
 21
117.5002896986
 31
0.0
  0
LINE
  5
19E
  8
0
  6
CONTINUOUS
 62
     7
 10
328.9058062694
 20
119.5002877912
 30
0.0
 11
328.9058062694
 21
117.5002896986
 31
0.0
  0
LINE
  5
19F
  8
0
  6
CONTINUOUS
 62
     7
 10
328.1058065108
 20
117.5002896986
 30
0.0
 11
328.1058065108
 21
119.5002877912
 31
0.0
  0
POLYLINE
  5
1A0
  8
0
  6
CONTINUOUS
 62
     7
 66
     1
 10
0.0
 20
0.0
 30
0.0
  0
VERTEX
  5
484
  8
0
  6
CONTINUOUS
 62
     7
 10
340.9567124656
 20
142.8923809729
 30
0.0
  0
VERTEX
  5
485
  8
0
  6
CONTINUOUS
 62
     7
 10
341.1266795805
 20
143.2568514547
 30
0.0
  0
VERTEX
  5
486
  8
0
  6
CONTINUOUS
 62
     7
 10
341.3742042593
 20
143.5950899324
 30
0.0
  0
VERTEX
  5
487
  8
0
  6
CONTINUOUS
 62
     7
 10
341.7662150672
 20
143.9681136808
 30
0.0
  0
VERTEX
  5
488
  8
0
  6
CONTINUOUS
 62
     7
 10
342.2238312176
 20
144.2838990889
 30
0.0
  0
VERTEX
  5
489
  8
0
  6
CONTINUOUS
 62
     7
 10
342.9978258422
 20
144.6625137529
 30
0.0
  0
VERTEX
  5
48A
  8
0
  6
CONTINUOUS
 62
     7
 10
343.8319973162
 20
144.940289279
 30
0.0
  0
SEQEND
  5
66E
  8
0
  6
CONTINUOUS
 62
     7
  0
POLYLINE
  5
1A1
  8
0
  6
CONTINUOUS
 62
     7
 66
     1
 10
0.0
 20
0.0
 30
0.0
  0
VERTEX
  5
48B
  8
0
  6
CONTINUOUS
 62
     7
 10
346.7392660192
 20
140.1028597555
 30
0.0
  0
VERTEX
  5
48C
  8
0
  6
CONTINUOUS
 62
     7
 10
344.7078741601
 20
140.1596272192
 30
0.0
  0
VERTEX
  5
48D
  8
0
  6
CONTINUOUS
 62
     7
 10
343.6170182637
 20
140.2877593241
 30
0.0
  0
VERTEX
  5
48E
  8
0
  6
CONTINUOUS
 62
     7
 10
342.5570494941
 20
140.5610048971
 30
0.0
  0
VERTEX
  5
48F
  8
0
  6
CONTINUOUS
 62
     7
 10
341.8657786659
 20
140.8846759996
 30
0.0
  0
VERTEX
  5
490
  8
0
  6
CONTINUOUS
 62
     7
 10
341.550072234
 20
141.106107255
 30
0.0
  0
VERTEX
  5
491
  8
0
  6
CONTINUOUS
 62
     7
 10
341.273233991
 20
141.3735175333
 30
0.0
  0
VERTEX
  5
492
  8
0
  6
CONTINUOUS
 62
     7
 10
340.9842289499
 20
141.8359303675
 30
0.0
  0
VERTEX
  5
493
  8
0
  6
CONTINUOUS
 62
     7
 10
340.8725700787
 20
142.372956296
 30
0.0
  0
VERTEX
  5
494
  8
0
  6
CONTINUOUS
 62
     7
 10
340.9567124656
 20
142.8923809729
 30
0.0
  0
SEQEND
  5
66D
  8
0
  6
CONTINUOUS
 62
     7
  0
LINE
  5
1A2
  8
0
  6
CONTINUOUS
 62
     7
 10
349.0058071426
 20
140.1112640104
 30
0.0
 11
346.7392660192
 21
140.1028597555
 31
0.0
  0
LINE
  5
1A3
  8
0
  6
CONTINUOUS
 62
     7
 10
360.0058055929
 20
140.1112640104
 30
0.0
 11
349.0058071426
 21
140.1112640104
 31
0.0
  0
ARC
  5
1A4
  8
0
  6
CONTINUOUS
 62
     7
 10
320.6117881613
 20
252.9897966767
 30
0.0
 40
120.0
 50
280.9468409701
 51
289.1646231125
  0
LINE
  5
1A5
  8
0
  6
CONTINUOUS
 62
     7
 10
343.3995671085
 20
135.1733410559
 30
0.0
 11
338.9866210035
 21
134.3198025427
 31
0.0
  0
ARC
  5
1A6
  8
0
  6
CONTINUOUS
 62
     7
 10
340.5058064035
 20
126.4653695276
 30
0.0
 40
8.000000000000014
 50
100.9468409701
 51
180.0
  0
LINE
  5
1A7
  8
0
  6
CONTINUOUS
 62
     7
 10
332.5058064869
 20
126.4653706751
 30
0.0
 11
332.5058064869
 21
125.7002854547
 31
0.0
  0
ARC
  5
1A8
  8
0
  6
CONTINUOUS
 62
     7
 10
330.5058064035
 20
125.700287076
 30
0.0
 40
2.000000000000014
 50
270.0
 51
0.0
  0
LINE
  5
1A9
  8
0
  6
CONTINUOUS
 62
     7
 10
330.5058061591
 20
123.7002873621
 30
0.0
 11
328.9058062694
 21
123.7002873621
 31
0.0
  0
LINE
  5
1AA
  8
0
  6
CONTINUOUS
 62
     7
 10
317.1058065704
 20
123.7002873621
 30
0.0
 11
316.3058064393
 21
123.7002873621
 31
0.0
  0
ARC
  5
1AB
  8
0
  6
CONTINUOUS
 62
     7
 10
316.3058064035
 20
125.700287076
 30
0.0
 40
2.000000000000014
 50
180.0
 51
270.0
  0
LINE
  5
1AC
  8
0
  6
CONTINUOUS
 62
     7
 10
314.3058061114
 20
125.7002854547
 30
0.0
 11
314.3058061114
 21
128.2613122663
 31
0.0
  0
ARC
  5
1AD
  8
0
  6
CONTINUOUS
 62
     7
 10
322.3058064035
 20
128.2613115264
 30
0.0
 40
8.000000000000007
 50
140.3596923241
 51
180.0
  0
ARC
  5
1AE
  8
0
  6
CONTINUOUS
 62
     7
 10
340.7873573629
 20
112.9501301828
 30
0.0
 40
32.00000000000001
 50
91.4211498515
 51
140.3596923241
  0
LINE
  5
1AF
  8
0
  6
CONTINUOUS
 62
     7
 10
339.993718963
 20
144.940289279
 30
0.0
 11
343.8319973162
 21
144.940289279
 31
0.0
  0
LINE
  5
1B0
  8
0
  6
CONTINUOUS
 62
     7
 10
360.0058055929
 20
140.1112640104
 30
0.0
 11
360.0058055929
 21
139.6402859888
 31
0.0
  0
LINE
  5
1B1
  8
0
  6
CONTINUOUS
 62
     7
 10
398.6258066705
 20
139.1049468717
 30
0.0
 11
398.6258066705
 21
138.9883005819
 31
0.0
  0
LINE
  5
1B2
  8
0
  6
CONTINUOUS
 62
     7
 10
404.0058053545
 20
138.9883005819
 30
0.0
 11
404.0058053545
 21
140.7061302862
 31
0.0
  0
LINE
  5
1B3
  8
0
  6
CONTINUOUS
 62
     7
 10
404.0058053545
 20
140.7061302862
 30
0.0
 11
404.0053642801
 21
140.7543862066
 31
0.0
  0
LINE
  5
1B4
  8
0
  6
CONTINUOUS
 62
     7
 10
326.9058063141
 20
116.7002880773
 30
0.0
 11
318.9058064929
 21
116.7002880773
 31
0.0
  0
LINE
  5
1B5
  8
0
  6
CONTINUOUS
 62
     7
 10
318.9058064929
 20
126.7002845011
 30
0.0
 11
326.9058063141
 21
126.7002845011
 31
0.0
  0
ARC
  5
1B6
  8
0
  6
CONTINUOUS
 62
     7
 10
318.9058064035
 20
117.700287076
 30
0.0
 40
1.0
 50
180.0
 51
270.0
  0
ARC
  5
1B7
  8
0
  6
CONTINUOUS
 62
     7
 10
318.9058064035
 20
125.700287076
 30
0.0
 40
1.000000000000014
 50
90.0
 51
180.0
  0
LINE
  5
1B8
  8
0
  6
CONTINUOUS
 62
     7
 10
317.905806329
 20
117.7002871237
 30
0.0
 11
317.905806329
 21
125.7002854547
 31
0.0
  0
LINE
  5
1B9
  8
0
  6
CONTINUOUS
 62
     7
 10
327.905806478
 20
125.7002854547
 30
0.0
 11
327.905806478
 21
117.7002871237
 31
0.0
  0
ARC
  5
1BA
  8
0
  6
CONTINUOUS
 62
     7
 10
326.9058064035
 20
117.700287076
 30
0.0
 40
1.0
 50
270.0
 51
0.0
  0
ARC
  5
1BB
  8
0
  6
CONTINUOUS
 62
     7
 10
326.9058064035
 20
125.700287076
 30
0.0
 40
1.000000000000014
 50
0.0
 51
90.0
  0
LINE
  5
1BC
  8
0
  6
CONTINUOUS
 62
     7
 10
314.9058065823
 20
51.500287076
 30
0.0
 11
310.9058066717
 21
51.500287076
 31
0.0
  0
LINE
  5
1BD
  8
0
  6
CONTINUOUS
 62
     7
 10
310.9058066717
 20
51.500287076
 30
0.0
 11
310.9058066717
 21
52.7002870864
 31
0.0
  0
LINE
  5
1BE
  8
0
  6
CONTINUOUS
 62
     7
 10
310.9058066717
 20
52.7002870864
 30
0.0
 11
314.9058065823
 21
52.7002870864
 31
0.0
  0
LINE
  5
1BF
  8
0
  6
CONTINUOUS
 62
     7
 10
314.9058065823
 20
52.7002870864
 30
0.0
 11
316.9058065376
 21
52.7002870864
 31
0.0
  0
LINE
  5
1C0
  8
0
  6
CONTINUOUS
 62
     7
 10
314.9058065823
 20
51.500287076
 30
0.0
 11
316.9058065376
 21
51.500287076
 31
0.0
  0
LINE
  5
1C1
  8
0
  6
CONTINUOUS
 62
     7
 10
344.2742280177
 20
52.7002870864
 30
0.0
 11
316.9058065376
 21
52.7002870864
 31
0.0
  0
LINE
  5
1C2
  8
0
  6
CONTINUOUS
 62
     7
 10
316.9058065376
 20
51.500287076
 30
0.0
 11
344.2742280177
 21
51.500287076
 31
0.0
  0
LINE
  5
1C3
  8
0
  6
CONTINUOUS
 62
     7
 10
346.9058058671
 20
52.7002870864
 30
0.0
 11
346.9058058671
 21
51.500287076
 31
0.0
  0
LINE
  5
1C4
  8
0
  6
CONTINUOUS
 62
     7
 10
344.2742280177
 20
52.7002870864
 30
0.0
 11
346.9058058671
 21
52.7002870864
 31
0.0
  0
LINE
  5
1C5
  8
0
  6
CONTINUOUS
 62
     7
 10
346.9058058671
 20
51.500287076
 30
0.0
 11
344.2742280177
 21
51.500287076
 31
0.0
  0
LINE
  5
1C6
  8
0
  6
CONTINUOUS
 62
     7
 10
317.905806329
 20
52.7002870864
 30
0.0
 11
317.905806329
 21
117.5002896986
 31
0.0
  0
LINE
  5
1C7
  8
0
  6
CONTINUOUS
 62
     7
 10
327.905806478
 20
117.7002871237
 30
0.0
 11
327.905806478
 21
52.7002870864
 31
0.0
  0
POLYLINE
  5
1C8
  8
0
  6
CONTINUOUS
 62
     7
 66
     1
 10
0.0
 20
0.0
 30
0.0
  0
VERTEX
  5
495
  8
0
  6
CONTINUOUS
 62
     7
 10
42.8495228069
 20
-25.3767650352
 30
0.0
  0
VERTEX
  5
496
  8
0
  6
CONTINUOUS
 62
     7
 10
42.0534193294
 20
-25.488739811
 30
0.0
  0
VERTEX
  5
497
  8
0
  6
CONTINUOUS
 62
     7
 10
41.146737315
 20
-25.6285365449
 30
0.0
  0
VERTEX
  5
498
  8
0
  6
CONTINUOUS
 62
     7
 10
40.2494907158
 20
-25.7793199049
 30
0.0
  0
VERTEX
  5
499
  8
0
  6
CONTINUOUS
 62
     7
 10
39.3663167732
 20
-25.9404357301
 30
0.0
  0
VERTEX
  5
49A
  8
0
  6
CONTINUOUS
 62
     7
 10
38.5118007439
 20
-26.1086936818
 30
0.0
  0
VERTEX
  5
49B
  8
0
  6
CONTINUOUS
 62
     7
 10
37.6728594082
 20
-26.2859757768
 30
0.0
  0
VERTEX
  5
49C
  8
0
  6
CONTINUOUS
 62
     7
 10
36.850786187
 20
-26.4718230592
 30
0.0
  0
VERTEX
  5
49D
  8
0
  6
CONTINUOUS
 62
     7
 10
36.0516845959
 20
-26.6647781955
 30
0.0
  0
VERTEX
  5
49E
  8
0
  6
CONTINUOUS
 62
     7
 10
35.2814018505
 20
-26.8633838521
 30
0.0
  0
VERTEX
  5
49F
  8
0
  6
CONTINUOUS
 62
     7
 10
34.5451771992
 20
-27.0662959443
 30
0.0
  0
VERTEX
  5
4A0
  8
0
  6
CONTINUOUS
 62
     7
 10
33.8472366112
 20
-27.2724877821
 30
0.0
  0
VERTEX
  5
4A1
  8
0
  6
CONTINUOUS
 62
     7
 10
33.1930339115
 20
-27.4801295029
 30
0.0
  0
VERTEX
  5
4A2
  8
0
  6
CONTINUOUS
 62
     7
 10
32.5938522594
 20
-27.6847030745
 30
0.0
  0
VERTEX
  5
4A3
  8
0
  6
CONTINUOUS
 62
     7
 10
32.0096492546
 20
-27.900643252
 30
0.0
  0
VERTEX
  5
4A4
  8
0
  6
CONTINUOUS
 62
     7
 10
31.4562141674
 20
-28.1246941315
 30
0.0
  0
VERTEX
  5
4A5
  8
0
  6
CONTINUOUS
 62
     7
 10
30.9258937614
 20
-28.3638220058
 30
0.0
  0
VERTEX
  5
4A6
  8
0
  6
CONTINUOUS
 62
     7
 10
30.3999423759
 20
-28.6359291302
 30
0.0
  0
VERTEX
  5
4A7
  8
0
  6
CONTINUOUS
 62
     7
 10
29.9582361954
 20
-28.9067368732
 30
0.0
  0
VERTEX
  5
4A8
  8
0
  6
CONTINUOUS
 62
     7
 10
29.6536087769
 20
-29.1287567244
 30
0.0
  0
VERTEX
  5
4A9
  8
0
  6
CONTINUOUS
 62
     7
 10
29.3940782326
 20
-29.3517883645
 30
0.0
  0
VERTEX
  5
4AA
  8
0
  6
CONTINUOUS
 62
     7
 10
29.1597664135
 20
-29.5919026957
 30
0.0
  0
VERTEX
  5
4AB
  8
0
  6
CONTINUOUS
 62
     7
 10
28.9473294991
 20
-29.8566501366
 30
0.0
  0
VERTEX
  5
4AC
  8
0
  6
CONTINUOUS
 62
     7
 10
28.7577211636
 20
-30.1526855455
 30
0.0
  0
VERTEX
  5
4AD
  8
0
  6
CONTINUOUS
 62
     7
 10
28.5970985668
 20
-30.4822396265
 30
0.0
  0
VERTEX
  5
4AE
  8
0
  6
CONTINUOUS
 62
     7
 10
28.4742474335
 20
-30.8423246966
 30
0.0
  0
VERTEX
  5
4AF
  8
0
  6
CONTINUOUS
 62
     7
 10
28.3976077812
 20
-31.2257256137
 30
0.0
  0
VERTEX
  5
4B0
  8
0
  6
CONTINUOUS
 62
     7
 10
28.3752321976
 20
-31.5916891919
 30
0.0
  0
SEQEND
  5
66C
  8
0
  6
CONTINUOUS
 62
     7
  0
POLYLINE
  5
1C9
  8
0
  6
CONTINUOUS
 62
     7
 66
     1
 10
0.0
 20
0.0
 30
0.0
  0
VERTEX
  5
4B1
  8
0
  6
CONTINUOUS
 62
     7
 10
108.4854617494
 20
-31.6044773684
 30
0.0
  0
VERTEX
  5
4B2
  8
0
  6
CONTINUOUS
 62
     7
 10
108.4890559094
 20
-31.5312172995
 30
0.0
  0
VERTEX
  5
4B3
  8
0
  6
CONTINUOUS
 62
     7
 10
108.4518655913
 20
-31.132359408
 30
0.0
  0
VERTEX
  5
4B4
  8
0
  6
CONTINUOUS
 62
     7
 10
108.3649351972
 20
-30.7579483615
 30
0.0
  0
VERTEX
  5
4B5
  8
0
  6
CONTINUOUS
 62
     7
 10
108.2368328946
 20
-30.4132234083
 30
0.0
  0
VERTEX
  5
4B6
  8
0
  6
CONTINUOUS
 62
     7
 10
108.0764099734
 20
-30.1013406144
 30
0.0
  0
VERTEX
  5
4B7
  8
0
  6
CONTINUOUS
 62
     7
 10
107.8917115705
 20
-29.8225786315
 30
0.0
  0
VERTEX
  5
4B8
  8
0
  6
CONTINUOUS
 62
     7
 10
107.6881527679
 20
-29.5737277494
 30
0.0
  0
VERTEX
  5
4B9
  8
0
  6
CONTINUOUS
 62
     7
 10
107.4665650504
 20
-29.3482821213
 30
0.0
  0
VERTEX
  5
4BA
  8
0
  6
CONTINUOUS
 62
     7
 10
107.2214379685
 20
-29.1370909439
 30
0.0
  0
VERTEX
  5
4BB
  8
0
  6
CONTINUOUS
 62
     7
 10
106.9352239149
 20
-28.9263915048
 30
0.0
  0
VERTEX
  5
4BC
  8
0
  6
CONTINUOUS
 62
     7
 10
106.5622254985
 20
-28.6921482311
 30
0.0
  0
VERTEX
  5
4BD
  8
0
  6
CONTINUOUS
 62
     7
 10
106.0824051278
 20
-28.4349005447
 30
0.0
  0
VERTEX
  5
4BE
  8
0
  6
CONTINUOUS
 62
     7
 10
105.5510788935
 20
-28.1873058306
 30
0.0
  0
VERTEX
  5
4BF
  8
0
  6
CONTINUOUS
 62
     7
 10
105.0139426964
 20
-27.9636617528
 30
0.0
  0
VERTEX
  5
4C0
  8
0
  6
CONTINUOUS
 62
     7
 10
104.3957799452
 20
-27.7299280988
 30
0.0
  0
VERTEX
  5
4C1
  8
0
  6
CONTINUOUS
 62
     7
 10
103.7576094048
 20
-27.5087710248
 30
0.0
  0
VERTEX
  5
4C2
  8
0
  6
CONTINUOUS
 62
     7
 10
103.0947476404
 20
-27.2962998377
 30
0.0
  0
VERTEX
  5
4C3
  8
0
  6
CONTINUOUS
 62
     7
 10
102.4076103943
 20
-27.0914342032
 30
0.0
  0
VERTEX
  5
4C4
  8
0
  6
CONTINUOUS
 62
     7
 10
101.6745239275
 20
-26.8874104844
 30
0.0
  0
VERTEX
  5
4C5
  8
0
  6
CONTINUOUS
 62
     7
 10
100.9083241003
 20
-26.6880314575
 30
0.0
  0
VERTEX
  5
4C6
  8
0
  6
CONTINUOUS
 62
     7
 10
100.1114815252
 20
-26.4940108882
 30
0.0
  0
VERTEX
  5
4C7
  8
0
  6
CONTINUOUS
 62
     7
 10
99.2871671694
 20
-26.3062994705
 30
0.0
  0
VERTEX
  5
4C8
  8
0
  6
CONTINUOUS
 62
     7
 10
98.4390496986
 20
-26.125982009
 30
0.0
  0
VERTEX
  5
4C9
  8
0
  6
CONTINUOUS
 62
     7
 10
97.5710659998
 20
-25.9541820513
 30
0.0
  0
VERTEX
  5
4CA
  8
0
  6
CONTINUOUS
 62
     7
 10
96.687388398
 20
-25.792026125
 30
0.0
  0
VERTEX
  5
4CB
  8
0
  6
CONTINUOUS
 62
     7
 10
95.7975893991
 20
-25.6413470732
 30
0.0
  0
VERTEX
  5
4CC
  8
0
  6
CONTINUOUS
 62
     7
 10
94.8960453051
 20
-25.5010884033
 30
0.0
  0
VERTEX
  5
4CD
  8
0
  6
CONTINUOUS
 62
     7
 10
94.0151333588
 20
-25.3759544121
 30
0.0
  0
SEQEND
  5
66B
  8
0
  6
CONTINUOUS
 62
     7
  0
ARC
  5
1CA
  8
0
  6
CONTINUOUS
 62
     7
 10
68.3098474454
 20
-212.4683248827
 30
0.0
 40
188.817462460171
 50
90.2489010012
 51
97.7494224801
  0
ARC
  5
1CB
  8
0
  6
CONTINUOUS
 62
     7
 10
68.6391269634
 20
-211.5598029467
 30
0.0
 40
187.9058610397949
 50
82.2387238277
 51
89.7798292253
  0
POLYLINE
  5
1CC
  8
0
  6
CONTINUOUS
 62
     7
 66
     1
 10
0.0
 20
0.0
 30
0.0
  0
VERTEX
  5
4CE
  8
0
  6
CONTINUOUS
 62
     7
 10
32.9683363216
 20
-33.3657648192
 30
0.0
  0
VERTEX
  5
4CF
  8
0
  6
CONTINUOUS
 62
     7
 10
32.9668640869
 20
-33.3668943272
 30
0.0
  0
VERTEX
  5
4D0
  8
0
  6
CONTINUOUS
 62
     7
 10
33.0072760361
 20
-33.34229102
 30
0.0
  0
VERTEX
  5
4D1
  8
0
  6
CONTINUOUS
 62
     7
 10
33.0987155216
 20
-33.2918163167
 30
0.0
  0
VERTEX
  5
4D2
  8
0
  6
CONTINUOUS
 62
     7
 10
33.2479357498
 20
-33.2169201003
 30
0.0
  0
VERTEX
  5
4D3
  8
0
  6
CONTINUOUS
 62
     7
 10
33.4599911945
 20
-33.1196170078
 30
0.0
  0
VERTEX
  5
4D4
  8
0
  6
CONTINUOUS
 62
     7
 10
33.737528302
 20
-33.0025519954
 30
0.0
  0
VERTEX
  5
4D5
  8
0
  6
CONTINUOUS
 62
     7
 10
34.0807020443
 20
-32.8688215242
 30
0.0
  0
VERTEX
  5
4D6
  8
0
  6
CONTINUOUS
 62
     7
 10
34.4875633495
 20
-32.7216919289
 30
0.0
  0
VERTEX
  5
4D7
  8
0
  6
CONTINUOUS
 62
     7
 10
34.9546551483
 20
-32.56437739
 30
0.0
  0
VERTEX
  5
4D8
  8
0
  6
CONTINUOUS
 62
     7
 10
35.4772865551
 20
-32.3999773489
 30
0.0
  0
VERTEX
  5
4D9
  8
0
  6
CONTINUOUS
 62
     7
 10
36.0525727051
 20
-32.2309281455
 30
0.0
  0
VERTEX
  5
4DA
  8
0
  6
CONTINUOUS
 62
     7
 10
36.6614877956
 20
-32.0633630977
 30
0.0
  0
VERTEX
  5
4DB
  8
0
  6
CONTINUOUS
 62
     7
 10
37.3221277969
 20
-31.8927403317
 30
0.0
  0
VERTEX
  5
4DC
  8
0
  6
CONTINUOUS
 62
     7
 10
38.027602412
 20
-31.7217867599
 30
0.0
  0
VERTEX
  5
4DD
  8
0
  6
CONTINUOUS
 62
     7
 10
38.7705743092
 20
-31.5530877338
 30
0.0
  0
VERTEX
  5
4DE
  8
0
  6
CONTINUOUS
 62
     7
 10
39.5430326241
 20
-31.3891511188
 30
0.0
  0
VERTEX
  5
4DF
  8
0
  6
CONTINUOUS
 62
     7
 10
40.3351425903
 20
-31.23260846
 30
0.0
  0
VERTEX
  5
4E0
  8
0
  6
CONTINUOUS
 62
     7
 10
41.1383926647
 20
-31.0855414496
 30
0.0
  0
VERTEX
  5
4E1
  8
0
  6
CONTINUOUS
 62
     7
 10
41.9490396755
 20
-30.9486727939
 30
0.0
  0
VERTEX
  5
4E2
  8
0
  6
CONTINUOUS
 62
     7
 10
42.7781164425
 20
-30.820077263
 30
0.0
  0
VERTEX
  5
4E3
  8
0
  6
CONTINUOUS
 62
     7
 10
43.5739755409
 20
-30.7073648797
 30
0.0
  0
SEQEND
  5
66A
  8
0
  6
CONTINUOUS
 62
     7
  0
POLYLINE
  5
1CD
  8
0
  6
CONTINUOUS
 62
     7
 66
     1
 10
0.0
 20
0.0
 30
0.0
  0
VERTEX
  5
4E4
  8
0
  6
CONTINUOUS
 62
     7
 10
93.290644862
 20
-30.7077388988
 30
0.0
  0
VERTEX
  5
4E5
  8
0
  6
CONTINUOUS
 62
     7
 10
93.9506053703
 20
-30.7998340355
 30
0.0
  0
VERTEX
  5
4E6
  8
0
  6
CONTINUOUS
 62
     7
 10
94.7880357283
 20
-30.9280540572
 30
0.0
  0
VERTEX
  5
4E7
  8
0
  6
CONTINUOUS
 62
     7
 10
95.6172138231
 20
-31.0664783941
 30
0.0
  0
VERTEX
  5
4E8
  8
0
  6
CONTINUOUS
 62
     7
 10
96.4316695707
 20
-31.2140043603
 30
0.0
  0
VERTEX
  5
4E9
  8
0
  6
CONTINUOUS
 62
     7
 10
97.2204863804
 20
-31.3682015763
 30
0.0
  0
VERTEX
  5
4EA
  8
0
  6
CONTINUOUS
 62
     7
 10
97.988629319
 20
-31.5294619428
 30
0.0
  0
VERTEX
  5
4EB
  8
0
  6
CONTINUOUS
 62
     7
 10
98.7322717684
 20
-31.6966067777
 30
0.0
  0
VERTEX
  5
4EC
  8
0
  6
CONTINUOUS
 62
     7
 10
99.4454055803
 20
-31.8678792344
 30
0.0
  0
VERTEX
  5
4ED
  8
0
  6
CONTINUOUS
 62
     7
 10
100.1220106857
 20
-32.0413481222
 30
0.0
  0
VERTEX
  5
4EE
  8
0
  6
CONTINUOUS
 62
     7
 10
100.7563024538
 20
-32.2149466501
 30
0.0
  0
VERTEX
  5
4EF
  8
0
  6
CONTINUOUS
 62
     7
 10
101.3426601665
 20
-32.3864336835
 30
0.0
  0
VERTEX
  5
4F0
  8
0
  6
CONTINUOUS
 62
     7
 10
101.8760531919
 20
-32.5534652696
 30
0.0
  0
VERTEX
  5
4F1
  8
0
  6
CONTINUOUS
 62
     7
 10
102.3553788441
 20
-32.714506589
 30
0.0
  0
VERTEX
  5
4F2
  8
0
  6
CONTINUOUS
 62
     7
 10
102.7815460937
 20
-32.8686099277
 30
0.0
  0
VERTEX
  5
4F3
  8
0
  6
CONTINUOUS
 62
     7
 10
103.1473248976
 20
-33.0116953479
 30
0.0
  0
VERTEX
  5
4F4
  8
0
  6
CONTINUOUS
 62
     7
 10
103.4459337371
 20
-33.1389274226
 30
0.0
  0
VERTEX
  5
4F5
  8
0
  6
CONTINUOUS
 62
     7
 10
103.6501452105
 20
-33.234035574
 30
0.0
  0
VERTEX
  5
4F6
  8
0
  6
CONTINUOUS
 62
     7
 10
103.7915184873
 20
-33.3061482535
 30
0.0
  0
VERTEX
  5
4F7
  8
0
  6
CONTINUOUS
 62
     7
 10
103.8737073319
 20
-33.3523463236
 30
0.0
  0
VERTEX
  5
4F8
  8
0
  6
CONTINUOUS
 62
     7
 10
103.9031252044
 20
-33.3705808745
 30
0.0
  0
VERTEX
  5
4F9
  8
0
  6
CONTINUOUS
 62
     7
 10
103.9009272831
 20
-33.3689789997
 30
0.0
  0
SEQEND
  5
669
  8
0
  6
CONTINUOUS
 62
     7
  0
LINE
  5
1CE
  8
0
  6
CONTINUOUS
 62
     7
 10
67.432284333
 20
-23.3104835974
 30
0.0
 11
67.432284333
 21
-23.6684556828
 31
0.0
  0
LINE
  5
1CF
  8
0
  6
CONTINUOUS
 62
     7
 10
69.4322883862
 20
-23.6684556828
 30
0.0
 11
69.4322883862
 21
-23.3104835974
 31
0.0
  0
ARC
  5
1D0
  8
0
  6
CONTINUOUS
 62
     7
 10
68.4322848695
 20
-213.7172512148
 30
0.0
 40
184.6914990019513
 50
82.2647832727
 51
97.7352167273
  0
LINE
  5
1D1
  8
0
  6
CONTINUOUS
 62
     7
 10
28.3735275047
 20
-31.6002096759
 30
0.0
 11
28.3735275047
 21
-36.4749837445
 31
0.0
  0
LINE
  5
1D2
  8
0
  6
CONTINUOUS
 62
     7
 10
108.4910422342
 20
-36.4749837445
 30
0.0
 11
108.4910422342
 21
-31.6002096759
 31
0.0
  0
POLYLINE
  5
1D3
  8
0
  6
CONTINUOUS
 62
     7
 66
     1
 10
0.0
 20
0.0
 30
0.0
  0
VERTEX
  5
4FA
  8
0
  6
CONTINUOUS
 62
     7
 10
93.2908236759
 20
-38.5818052815
 30
0.0
  0
VERTEX
  5
4FB
  8
0
  6
CONTINUOUS
 62
     7
 10
94.0674721973
 20
-38.6860105918
 30
0.0
  0
VERTEX
  5
4FC
  8
0
  6
CONTINUOUS
 62
     7
 10
94.9499010818
 20
-38.8007830606
 30
0.0
  0
VERTEX
  5
4FD
  8
0
  6
CONTINUOUS
 62
     7
 10
95.8218335884
 20
-38.910583757
 30
0.0
  0
VERTEX
  5
4FE
  8
0
  6
CONTINUOUS
 62
     7
 10
96.6793268698
 20
-39.0148404764
 30
0.0
  0
VERTEX
  5
4FF
  8
0
  6
CONTINUOUS
 62
     7
 10
97.5152075069
 20
-39.1123603807
 30
0.0
  0
VERTEX
  5
500
  8
0
  6
CONTINUOUS
 62
     7
 10
98.3366459387
 20
-39.2036761866
 30
0.0
  0
VERTEX
  5
501
  8
0
  6
CONTINUOUS
 62
     7
 10
99.1428315418
 20
-39.2882417665
 30
0.0
  0
VERTEX
  5
502
  8
0
  6
CONTINUOUS
 62
     7
 10
99.9273508566
 20
-39.3648464011
 30
0.0
  0
VERTEX
  5
503
  8
0
  6
CONTINUOUS
 62
     7
 10
100.6841361301
 20
-39.432319604
 30
0.0
  0
VERTEX
  5
504
  8
0
  6
CONTINUOUS
 62
     7
 10
101.4078587072
 20
-39.4895497487
 30
0.0
  0
VERTEX
  5
505
  8
0
  6
CONTINUOUS
 62
     7
 10
102.0944446104
 20
-39.5354766177
 30
0.0
  0
VERTEX
  5
506
  8
0
  6
CONTINUOUS
 62
     7
 10
102.7426332014
 20
-39.5691115187
 30
0.0
  0
VERTEX
  5
507
  8
0
  6
CONTINUOUS
 62
     7
 10
103.3606737631
 20
-39.5897414313
 30
0.0
  0
VERTEX
  5
508
  8
0
  6
CONTINUOUS
 62
     7
 10
103.9536624926
 20
-39.5955849217
 30
0.0
  0
VERTEX
  5
509
  8
0
  6
CONTINUOUS
 62
     7
 10
104.5301288145
 20
-39.5831752346
 30
0.0
  0
VERTEX
  5
50A
  8
0
  6
CONTINUOUS
 62
     7
 10
105.1120742934
 20
-39.544387512
 30
0.0
  0
VERTEX
  5
50B
  8
0
  6
CONTINUOUS
 62
     7
 10
105.6748151558
 20
-39.4687909411
 30
0.0
  0
VERTEX
  5
50C
  8
0
  6
CONTINUOUS
 62
     7
 10
106.0407459515
 20
-39.3902014719
 30
0.0
  0
VERTEX
  5
50D
  8
0
  6
CONTINUOUS
 62
     7
 10
106.3783943432
 20
-39.2895746754
 30
0.0
  0
VERTEX
  5
50E
  8
0
  6
CONTINUOUS
 62
     7
 10
106.6912919062
 20
-39.1657713579
 30
0.0
  0
VERTEX
  5
50F
  8
0
  6
CONTINUOUS
 62
     7
 10
106.993049361
 20
-39.0116471575
 30
0.0
  0
VERTEX
  5
510
  8
0
  6
CONTINUOUS
 62
     7
 10
107.2860076802
 20
-38.8208877073
 30
0.0
  0
VERTEX
  5
511
  8
0
  6
CONTINUOUS
 62
     7
 10
107.5665235298
 20
-38.5885428415
 30
0.0
  0
VERTEX
  5
512
  8
0
  6
CONTINUOUS
 62
     7
 10
107.8260183113
 20
-38.3131701277
 30
0.0
  0
VERTEX
  5
513
  8
0
  6
CONTINUOUS
 62
     7
 10
108.0539911764
 20
-37.9973988758
 30
0.0
  0
VERTEX
  5
514
  8
0
  6
CONTINUOUS
 62
     7
 10
108.2407548802
 20
-37.6470926927
 30
0.0
  0
VERTEX
  5
515
  8
0
  6
CONTINUOUS
 62
     7
 10
108.3905279415
 20
-37.2283946501
 30
0.0
  0
VERTEX
  5
516
  8
0
  6
CONTINUOUS
 62
     7
 10
108.4163486736
 20
-37.0945352839
 30
0.0
  0
SEQEND
  5
668
  8
0
  6
CONTINUOUS
 62
     7
  0
POLYLINE
  5
1D4
  8
0
  6
CONTINUOUS
 62
     7
 66
     1
 10
0.0
 20
0.0
 30
0.0
  0
VERTEX
  5
517
  8
0
  6
CONTINUOUS
 62
     7
 10
28.4430861252
 20
-37.0952088164
 30
0.0
  0
VERTEX
  5
518
  8
0
  6
CONTINUOUS
 62
     7
 10
28.4440278786
 20
-37.1017191337
 30
0.0
  0
VERTEX
  5
519
  8
0
  6
CONTINUOUS
 62
     7
 10
28.5668611305
 20
-37.5071357714
 30
0.0
  0
VERTEX
  5
51A
  8
0
  6
CONTINUOUS
 62
     7
 10
28.7400245445
 20
-37.8760467993
 30
0.0
  0
VERTEX
  5
51B
  8
0
  6
CONTINUOUS
 62
     7
 10
28.9535581844
 20
-38.2041070388
 30
0.0
  0
VERTEX
  5
51C
  8
0
  6
CONTINUOUS
 62
     7
 10
29.1975080746
 20
-38.4890947269
 30
0.0
  0
VERTEX
  5
51D
  8
0
  6
CONTINUOUS
 62
     7
 10
29.4622003811
 20
-38.7306939588
 30
0.0
  0
VERTEX
  5
51E
  8
0
  6
CONTINUOUS
 62
     7
 10
29.7391891258
 20
-38.9308023976
 30
0.0
  0
VERTEX
  5
51F
  8
0
  6
CONTINUOUS
 62
     7
 10
30.0229787605
 20
-39.0936288761
 30
0.0
  0
VERTEX
  5
520
  8
0
  6
CONTINUOUS
 62
     7
 10
30.312925555
 20
-39.225072764
 30
0.0
  0
VERTEX
  5
521
  8
0
  6
CONTINUOUS
 62
     7
 10
30.6162059086
 20
-39.3319565581
 30
0.0
  0
VERTEX
  5
522
  8
0
  6
CONTINUOUS
 62
     7
 10
30.9497296589
 20
-39.4202004896
 30
0.0
  0
VERTEX
  5
523
  8
0
  6
CONTINUOUS
 62
     7
 10
31.3069045322
 20
-39.4879679905
 30
0.0
  0
VERTEX
  5
524
  8
0
  6
CONTINUOUS
 62
     7
 10
31.7724764126
 20
-39.5454492198
 30
0.0
  0
VERTEX
  5
525
  8
0
  6
CONTINUOUS
 62
     7
 10
32.4389517086
 20
-39.5861517416
 30
0.0
  0
VERTEX
  5
526
  8
0
  6
CONTINUOUS
 62
     7
 10
33.0123066681
 20
-39.595063381
 30
0.0
  0
VERTEX
  5
527
  8
0
  6
CONTINUOUS
 62
     7
 10
33.5929453152
 20
-39.5872067438
 30
0.0
  0
VERTEX
  5
528
  8
0
  6
CONTINUOUS
 62
     7
 10
34.2507540958
 20
-39.5632188545
 30
0.0
  0
VERTEX
  5
529
  8
0
  6
CONTINUOUS
 62
     7
 10
34.9246799725
 20
-39.5259681867
 30
0.0
  0
VERTEX
  5
52A
  8
0
  6
CONTINUOUS
 62
     7
 10
35.6280326622
 20
-39.4768412934
 30
0.0
  0
VERTEX
  5
52B
  8
0
  6
CONTINUOUS
 62
     7
 10
36.3631129044
 20
-39.4169065879
 30
0.0
  0
VERTEX
  5
52C
  8
0
  6
CONTINUOUS
 62
     7
 10
37.1283828991
 20
-39.3470432387
 30
0.0
  0
VERTEX
  5
52D
  8
0
  6
CONTINUOUS
 62
     7
 10
37.9214167374
 20
-39.2680842207
 30
0.0
  0
VERTEX
  5
52E
  8
0
  6
CONTINUOUS
 62
     7
 10
38.7388944405
 20
-39.1808863507
 30
0.0
  0
VERTEX
  5
52F
  8
0
  6
CONTINUOUS
 62
     7
 10
39.5769834297
 20
-39.0863310324
 30
0.0
  0
VERTEX
  5
530
  8
0
  6
CONTINUOUS
 62
     7
 10
40.4315590637
 20
-38.9853182958
 30
0.0
  0
VERTEX
  5
531
  8
0
  6
CONTINUOUS
 62
     7
 10
41.2969469803
 20
-38.8789575325
 30
0.0
  0
VERTEX
  5
532
  8
0
  6
CONTINUOUS
 62
     7
 10
42.1684205311
 20
-38.7681986914
 30
0.0
  0
VERTEX
  5
533
  8
0
  6
CONTINUOUS
 62
     7
 10
43.0479943531
 20
-38.652802609
 30
0.0
  0
VERTEX
  5
534
  8
0
  6
CONTINUOUS
 62
     7
 10
43.5738086479
 20
-38.5816592501
 30
0.0
  0
SEQEND
  5
667
  8
0
  6
CONTINUOUS
 62
     7
  0
POLYLINE
  5
1D5
  8
0
  6
CONTINUOUS
 62
     7
 66
     1
 10
0.0
 20
0.0
 30
0.0
  0
VERTEX
  5
535
  8
0
  6
CONTINUOUS
 62
     7
 10
108.429840185
 20
-37.0246018992
 30
0.0
  0
VERTEX
  5
536
  8
0
  6
CONTINUOUS
 62
     7
 10
108.4723353165
 20
-36.8043031321
 30
0.0
  0
VERTEX
  5
537
  8
0
  6
CONTINUOUS
 62
     7
 10
108.4863513487
 20
-36.475837581
 30
0.0
  0
SEQEND
  5
666
  8
0
  6
CONTINUOUS
 62
     7
  0
POLYLINE
  5
1D6
  8
0
  6
CONTINUOUS
 62
     7
 66
     1
 10
0.0
 20
0.0
 30
0.0
  0
VERTEX
  5
538
  8
0
  6
CONTINUOUS
 62
     7
 10
28.3816814201
 20
-36.4686179684
 30
0.0
  0
VERTEX
  5
539
  8
0
  6
CONTINUOUS
 62
     7
 10
28.3812641876
 20
-36.6684663819
 30
0.0
  0
VERTEX
  5
53A
  8
0
  6
CONTINUOUS
 62
     7
 10
28.4430861252
 20
-37.0952088164
 30
0.0
  0
SEQEND
  5
665
  8
0
  6
CONTINUOUS
 62
     7
  0
ARC
  5
1D7
  8
0
  6
CONTINUOUS
 62
     7
 10
68.4322848695
 20
-221.5923807849
 30
0.0
 40
184.6914318082511
 50
82.2647804412
 51
97.7352195588
  0
POLYLINE
  5
1D8
  8
0
  6
CONTINUOUS
 62
     7
 66
     1
 10
0.0
 20
0.0
 30
0.0
  0
VERTEX
  5
53B
  8
0
  6
CONTINUOUS
 62
     7
 10
162.8495216148
 20
-25.3767650352
 30
0.0
  0
VERTEX
  5
53C
  8
0
  6
CONTINUOUS
 62
     7
 10
162.0534181374
 20
-25.488739811
 30
0.0
  0
VERTEX
  5
53D
  8
0
  6
CONTINUOUS
 62
     7
 10
161.1467361229
 20
-25.6285365449
 30
0.0
  0
VERTEX
  5
53E
  8
0
  6
CONTINUOUS
 62
     7
 10
160.2494895237
 20
-25.7793199049
 30
0.0
  0
VERTEX
  5
53F
  8
0
  6
CONTINUOUS
 62
     7
 10
159.3663155811
 20
-25.9404357301
 30
0.0
  0
VERTEX
  5
540
  8
0
  6
CONTINUOUS
 62
     7
 10
158.511802532
 20
-26.1086936818
 30
0.0
  0
VERTEX
  5
541
  8
0
  6
CONTINUOUS
 62
     7
 10
157.6728582161
 20
-26.2859757768
 30
0.0
  0
VERTEX
  5
542
  8
0
  6
CONTINUOUS
 62
     7
 10
156.8507849949
 20
-26.4718230592
 30
0.0
  0
VERTEX
  5
543
  8
0
  6
CONTINUOUS
 62
     7
 10
156.0516834038
 20
-26.6647781955
 30
0.0
  0
VERTEX
  5
544
  8
0
  6
CONTINUOUS
 62
     7
 10
155.2814006584
 20
-26.8633838521
 30
0.0
  0
VERTEX
  5
545
  8
0
  6
CONTINUOUS
 62
     7
 10
154.5451789873
 20
-27.0662959443
 30
0.0
  0
VERTEX
  5
546
  8
0
  6
CONTINUOUS
 62
     7
 10
153.8472354191
 20
-27.2724877821
 30
0.0
  0
VERTEX
  5
547
  8
0
  6
CONTINUOUS
 62
     7
 10
153.1930327194
 20
-27.4801295029
 30
0.0
  0
VERTEX
  5
548
  8
0
  6
CONTINUOUS
 62
     7
 10
152.5938510673
 20
-27.6847030745
 30
0.0
  0
VERTEX
  5
549
  8
0
  6
CONTINUOUS
 62
     7
 10
152.0096495526
 20
-27.900643252
 30
0.0
  0
VERTEX
  5
54A
  8
0
  6
CONTINUOUS
 62
     7
 10
151.4562129753
 20
-28.1246941315
 30
0.0
  0
VERTEX
  5
54B
  8
0
  6
CONTINUOUS
 62
     7
 10
150.9258925693
 20
-28.3638220058
 30
0.0
  0
VERTEX
  5
54C
  8
0
  6
CONTINUOUS
 62
     7
 10
150.3999411839
 20
-28.6359291302
 30
0.0
  0
VERTEX
  5
54D
  8
0
  6
CONTINUOUS
 62
     7
 10
149.9582335132
 20
-28.9067368732
 30
0.0
  0
VERTEX
  5
54E
  8
0
  6
CONTINUOUS
 62
     7
 10
149.6536090749
 20
-29.1287567244
 30
0.0
  0
VERTEX
  5
54F
  8
0
  6
CONTINUOUS
 62
     7
 10
149.3940800207
 20
-29.3517883645
 30
0.0
  0
VERTEX
  5
550
  8
0
  6
CONTINUOUS
 62
     7
 10
149.1597696918
 20
-29.5919026957
 30
0.0
  0
VERTEX
  5
551
  8
0
  6
CONTINUOUS
 62
     7
 10
148.9473312872
 20
-29.8566501366
 30
0.0
  0
VERTEX
  5
552
  8
0
  6
CONTINUOUS
 62
     7
 10
148.7577229517
 20
-30.1526855455
 30
0.0
  0
VERTEX
  5
553
  8
0
  6
CONTINUOUS
 62
     7
 10
148.5971018451
 20
-30.4822396265
 30
0.0
  0
VERTEX
  5
554
  8
0
  6
CONTINUOUS
 62
     7
 10
148.4742507117
 20
-30.8423246966
 30
0.0
  0
VERTEX
  5
555
  8
0
  6
CONTINUOUS
 62
     7
 10
148.3976080792
 20
-31.2257256137
 30
0.0
  0
VERTEX
  5
556
  8
0
  6
CONTINUOUS
 62
     7
 10
148.3752310055
 20
-31.5916891919
 30
0.0
  0
SEQEND
  5
664
  8
0
  6
CONTINUOUS
 62
     7
  0
POLYLINE
  5
1D9
  8
0
  6
CONTINUOUS
 62
     7
 66
     1
 10
0.0
 20
0.0
 30
0.0
  0
VERTEX
  5
557
  8
0
  6
CONTINUOUS
 62
     7
 10
228.4854650276
 20
-31.6044773684
 30
0.0
  0
VERTEX
  5
558
  8
0
  6
CONTINUOUS
 62
     7
 10
228.4890532272
 20
-31.5312172995
 30
0.0
  0
VERTEX
  5
559
  8
0
  6
CONTINUOUS
 62
     7
 10
228.4518599289
 20
-31.132359408
 30
0.0
  0
VERTEX
  5
55A
  8
0
  6
CONTINUOUS
 62
     7
 10
228.364932515
 20
-30.7579483615
 30
0.0
  0
VERTEX
  5
55B
  8
0
  6
CONTINUOUS
 62
     7
 10
228.2368302124
 20
-30.4132234083
 30
0.0
  0
VERTEX
  5
55C
  8
0
  6
CONTINUOUS
 62
     7
 10
228.0764102715
 20
-30.1013406144
 30
0.0
  0
VERTEX
  5
55D
  8
0
  6
CONTINUOUS
 62
     7
 10
227.8917133587
 20
-29.8225786315
 30
0.0
  0
VERTEX
  5
55E
  8
0
  6
CONTINUOUS
 62
     7
 10
227.6881515758
 20
-29.5737277494
 30
0.0
  0
VERTEX
  5
55F
  8
0
  6
CONTINUOUS
 62
     7
 10
227.4665653484
 20
-29.3482821213
 30
0.0
  0
VERTEX
  5
560
  8
0
  6
CONTINUOUS
 62
     7
 10
227.2214412468
 20
-29.1370909439
 30
0.0
  0
VERTEX
  5
561
  8
0
  6
CONTINUOUS
 62
     7
 10
226.935225703
 20
-28.9263915048
 30
0.0
  0
VERTEX
  5
562
  8
0
  6
CONTINUOUS
 62
     7
 10
226.5622257965
 20
-28.6921482311
 30
0.0
  0
VERTEX
  5
563
  8
0
  6
CONTINUOUS
 62
     7
 10
226.0824024456
 20
-28.4349005447
 30
0.0
  0
VERTEX
  5
564
  8
0
  6
CONTINUOUS
 62
     7
 10
225.5510806816
 20
-28.1873058306
 30
0.0
  0
VERTEX
  5
565
  8
0
  6
CONTINUOUS
 62
     7
 10
225.0139415043
 20
-27.9636617528
 30
0.0
  0
VERTEX
  5
566
  8
0
  6
CONTINUOUS
 62
     7
 10
224.3957817333
 20
-27.7299280988
 30
0.0
  0
VERTEX
  5
567
  8
0
  6
CONTINUOUS
 62
     7
 10
223.7576126831
 20
-27.5087710248
 30
0.0
  0
VERTEX
  5
568
  8
0
  6
CONTINUOUS
 62
     7
 10
223.0947434681
 20
-27.2962998377
 30
0.0
  0
VERTEX
  5
569
  8
0
  6
CONTINUOUS
 62
     7
 10
222.4076092022
 20
-27.0914342032
 30
0.0
  0
VERTEX
  5
56A
  8
0
  6
CONTINUOUS
 62
     7
 10
221.6745257156
 20
-26.8874104844
 30
0.0
  0
VERTEX
  5
56B
  8
0
  6
CONTINUOUS
 62
     7
 10
220.9083258884
 20
-26.6880314575
 30
0.0
  0
VERTEX
  5
56C
  8
0
  6
CONTINUOUS
 62
     7
 10
220.1114833134
 20
-26.4940108882
 30
0.0
  0
VERTEX
  5
56D
  8
0
  6
CONTINUOUS
 62
     7
 10
219.2871689575
 20
-26.3062994705
 30
0.0
  0
VERTEX
  5
56E
  8
0
  6
CONTINUOUS
 62
     7
 10
218.4390485065
 20
-26.125982009
 30
0.0
  0
VERTEX
  5
56F
  8
0
  6
CONTINUOUS
 62
     7
 10
217.5710677879
 20
-25.9541820513
 30
0.0
  0
VERTEX
  5
570
  8
0
  6
CONTINUOUS
 62
     7
 10
216.6873872059
 20
-25.792026125
 30
0.0
  0
VERTEX
  5
571
  8
0
  6
CONTINUOUS
 62
     7
 10
215.7975911873
 20
-25.6413470732
 30
0.0
  0
VERTEX
  5
572
  8
0
  6
CONTINUOUS
 62
     7
 10
214.8960470932
 20
-25.5010884033
 30
0.0
  0
VERTEX
  5
573
  8
0
  6
CONTINUOUS
 62
     7
 10
214.0151321667
 20
-25.3759544121
 30
0.0
  0
SEQEND
  5
663
  8
0
  6
CONTINUOUS
 62
     7
  0
ARC
  5
1DA
  8
0
  6
CONTINUOUS
 62
     7
 10
188.309848672
 20
-212.4683594794
 30
0.0
 40
188.8174970670507
 50
90.2489016896
 51
97.7494217917
  0
ARC
  5
1DB
  8
0
  6
CONTINUOUS
 62
     7
 10
188.6391331778
 20
-211.5596967816
 30
0.0
 40
187.9057548470595
 50
82.2387216937
 51
89.7798313593
  0
POLYLINE
  5
1DC
  8
0
  6
CONTINUOUS
 62
     7
 66
     1
 10
0.0
 20
0.0
 30
0.0
  0
VERTEX
  5
574
  8
0
  6
CONTINUOUS
 62
     7
 10
152.9683366197
 20
-33.3657648192
 30
0.0
  0
VERTEX
  5
575
  8
0
  6
CONTINUOUS
 62
     7
 10
152.9668643849
 20
-33.3668943272
 30
0.0
  0
VERTEX
  5
576
  8
0
  6
CONTINUOUS
 62
     7
 10
153.0072733539
 20
-33.34229102
 30
0.0
  0
VERTEX
  5
577
  8
0
  6
CONTINUOUS
 62
     7
 10
153.0987173098
 20
-33.2918163167
 30
0.0
  0
VERTEX
  5
578
  8
0
  6
CONTINUOUS
 62
     7
 10
153.2479360478
 20
-33.2169201003
 30
0.0
  0
VERTEX
  5
579
  8
0
  6
CONTINUOUS
 62
     7
 10
153.4599900024
 20
-33.1196170078
 30
0.0
  0
VERTEX
  5
57A
  8
0
  6
CONTINUOUS
 62
     7
 10
153.7375300901
 20
-33.0025519954
 30
0.0
  0
VERTEX
  5
57B
  8
0
  6
CONTINUOUS
 62
     7
 10
154.0807038324
 20
-32.8688215242
 30
0.0
  0
VERTEX
  5
57C
  8
0
  6
CONTINUOUS
 62
     7
 10
154.4875651377
 20
-32.7216919289
 30
0.0
  0
VERTEX
  5
57D
  8
0
  6
CONTINUOUS
 62
     7
 10
154.9546569365
 20
-32.56437739
 30
0.0
  0
VERTEX
  5
57E
  8
0
  6
CONTINUOUS
 62
     7
 10
155.4772883432
 20
-32.3999773489
 30
0.0
  0
VERTEX
  5
57F
  8
0
  6
CONTINUOUS
 62
     7
 10
156.052571513
 20
-32.2309281455
 30
0.0
  0
VERTEX
  5
580
  8
0
  6
CONTINUOUS
 62
     7
 10
156.6614866035
 20
-32.0633630977
 30
0.0
  0
VERTEX
  5
581
  8
0
  6
CONTINUOUS
 62
     7
 10
157.3221266048
 20
-31.8927403317
 30
0.0
  0
VERTEX
  5
582
  8
0
  6
CONTINUOUS
 62
     7
 10
158.0276012199
 20
-31.7217867599
 30
0.0
  0
VERTEX
  5
583
  8
0
  6
CONTINUOUS
 62
     7
 10
158.7705760973
 20
-31.5530877338
 30
0.0
  0
VERTEX
  5
584
  8
0
  6
CONTINUOUS
 62
     7
 10
159.543031432
 20
-31.3891511188
 30
0.0
  0
VERTEX
  5
585
  8
0
  6
CONTINUOUS
 62
     7
 10
160.3351443785
 20
-31.23260846
 30
0.0
  0
VERTEX
  5
586
  8
0
  6
CONTINUOUS
 62
     7
 10
161.1383914726
 20
-31.0855414496
 30
0.0
  0
VERTEX
  5
587
  8
0
  6
CONTINUOUS
 62
     7
 10
161.9490414637
 20
-30.9486727939
 30
0.0
  0
VERTEX
  5
588
  8
0
  6
CONTINUOUS
 62
     7
 10
162.7781152504
 20
-30.820077263
 30
0.0
  0
VERTEX
  5
589
  8
0
  6
CONTINUOUS
 62
     7
 10
163.5739773291
 20
-30.7073648797
 30
0.0
  0
SEQEND
  5
662
  8
0
  6
CONTINUOUS
 62
     7
  0
POLYLINE
  5
1DD
  8
0
  6
CONTINUOUS
 62
     7
 66
     1
 10
0.0
 20
0.0
 30
0.0
  0
VERTEX
  5
58A
  8
0
  6
CONTINUOUS
 62
     7
 10
213.2906436699
 20
-30.7077388988
 30
0.0
  0
VERTEX
  5
58B
  8
0
  6
CONTINUOUS
 62
     7
 10
213.9506041782
 20
-30.7998340355
 30
0.0
  0
VERTEX
  5
58C
  8
0
  6
CONTINUOUS
 62
     7
 10
214.7880315559
 20
-30.9280540572
 30
0.0
  0
VERTEX
  5
58D
  8
0
  6
CONTINUOUS
 62
     7
 10
215.6172156113
 20
-31.0664783941
 30
0.0
  0
VERTEX
  5
58E
  8
0
  6
CONTINUOUS
 62
     7
 10
216.4316713589
 20
-31.2140043603
 30
0.0
  0
VERTEX
  5
58F
  8
0
  6
CONTINUOUS
 62
     7
 10
217.2204851883
 20
-31.3682015763
 30
0.0
  0
VERTEX
  5
590
  8
0
  6
CONTINUOUS
 62
     7
 10
217.9886281269
 20
-31.5294619428
 30
0.0
  0
VERTEX
  5
591
  8
0
  6
CONTINUOUS
 62
     7
 10
218.7322735565
 20
-31.6966067777
 30
0.0
  0
VERTEX
  5
592
  8
0
  6
CONTINUOUS
 62
     7
 10
219.4454073685
 20
-31.8678792344
 30
0.0
  0
VERTEX
  5
593
  8
0
  6
CONTINUOUS
 62
     7
 10
220.1220094936
 20
-32.0413481222
 30
0.0
  0
VERTEX
  5
594
  8
0
  6
CONTINUOUS
 62
     7
 10
220.7563042419
 20
-32.2149466501
 30
0.0
  0
VERTEX
  5
595
  8
0
  6
CONTINUOUS
 62
     7
 10
221.3426589745
 20
-32.3864336835
 30
0.0
  0
VERTEX
  5
596
  8
0
  6
CONTINUOUS
 62
     7
 10
221.8760549801
 20
-32.5534652696
 30
0.0
  0
VERTEX
  5
597
  8
0
  6
CONTINUOUS
 62
     7
 10
222.355377652
 20
-32.714506589
 30
0.0
  0
VERTEX
  5
598
  8
0
  6
CONTINUOUS
 62
     7
 10
222.7815449017
 20
-32.8686099277
 30
0.0
  0
VERTEX
  5
599
  8
0
  6
CONTINUOUS
 62
     7
 10
223.1473266857
 20
-33.0116953479
 30
0.0
  0
VERTEX
  5
59A
  8
0
  6
CONTINUOUS
 62
     7
 10
223.4459340351
 20
-33.1389274226
 30
0.0
  0
VERTEX
  5
59B
  8
0
  6
CONTINUOUS
 62
     7
 10
223.6501455086
 20
-33.234035574
 30
0.0
  0
VERTEX
  5
59C
  8
0
  6
CONTINUOUS
 62
     7
 10
223.7915217655
 20
-33.3061482535
 30
0.0
  0
VERTEX
  5
59D
  8
0
  6
CONTINUOUS
 62
     7
 10
223.8737046497
 20
-33.3523463236
 30
0.0
  0
VERTEX
  5
59E
  8
0
  6
CONTINUOUS
 62
     7
 10
223.9031255024
 20
-33.3705808745
 30
0.0
  0
VERTEX
  5
59F
  8
0
  6
CONTINUOUS
 62
     7
 10
223.900926091
 20
-33.3689789997
 30
0.0
  0
SEQEND
  5
661
  8
0
  6
CONTINUOUS
 62
     7
  0
LINE
  5
1DE
  8
0
  6
CONTINUOUS
 62
     7
 10
187.4322831409
 20
-23.3104835974
 30
0.0
 11
187.4322831409
 21
-23.6684556828
 31
0.0
  0
LINE
  5
1DF
  8
0
  6
CONTINUOUS
 62
     7
 10
189.4322871941
 20
-23.6684556828
 30
0.0
 11
189.4322871941
 21
-23.3104835974
 31
0.0
  0
ARC
  5
1E0
  8
0
  6
CONTINUOUS
 62
     7
 10
188.4322866576
 20
-213.7172536759
 30
0.0
 40
184.6915014406568
 50
82.2647833754
 51
97.7352166246
  0
LINE
  5
1E1
  8
0
  6
CONTINUOUS
 62
     7
 10
148.3735292929
 20
-31.6002096759
 30
0.0
 11
148.3735292929
 21
-36.4749837445
 31
0.0
  0
LINE
  5
1E2
  8
0
  6
CONTINUOUS
 62
     7
 10
228.4910440224
 20
-36.4749837445
 30
0.0
 11
228.4910440224
 21
-31.6002096759
 31
0.0
  0
POLYLINE
  5
1E3
  8
0
  6
CONTINUOUS
 62
     7
 66
     1
 10
0.0
 20
0.0
 30
0.0
  0
VERTEX
  5
5A0
  8
0
  6
CONTINUOUS
 62
     7
 10
213.2908224838
 20
-38.5818052815
 30
0.0
  0
VERTEX
  5
5A1
  8
0
  6
CONTINUOUS
 62
     7
 10
214.0674710052
 20
-38.6860105918
 30
0.0
  0
VERTEX
  5
5A2
  8
0
  6
CONTINUOUS
 62
     7
 10
214.9498998898
 20
-38.8007830606
 30
0.0
  0
VERTEX
  5
5A3
  8
0
  6
CONTINUOUS
 62
     7
 10
215.8218323963
 20
-38.910583757
 30
0.0
  0
VERTEX
  5
5A4
  8
0
  6
CONTINUOUS
 62
     7
 10
216.6793286579
 20
-39.0148404764
 30
0.0
  0
VERTEX
  5
5A5
  8
0
  6
CONTINUOUS
 62
     7
 10
217.5152063148
 20
-39.1123603807
 30
0.0
  0
VERTEX
  5
5A6
  8
0
  6
CONTINUOUS
 62
     7
 10
218.3366477268
 20
-39.2036761866
 30
0.0
  0
VERTEX
  5
5A7
  8
0
  6
CONTINUOUS
 62
     7
 10
219.1428303497
 20
-39.2882417665
 30
0.0
  0
VERTEX
  5
5A8
  8
0
  6
CONTINUOUS
 62
     7
 10
219.9273526447
 20
-39.3648464011
 30
0.0
  0
VERTEX
  5
5A9
  8
0
  6
CONTINUOUS
 62
     7
 10
220.684134938
 20
-39.432319604
 30
0.0
  0
VERTEX
  5
5AA
  8
0
  6
CONTINUOUS
 62
     7
 10
221.4078604954
 20
-39.4895497487
 30
0.0
  0
VERTEX
  5
5AB
  8
0
  6
CONTINUOUS
 62
     7
 10
222.0944463985
 20
-39.5354766177
 30
0.0
  0
VERTEX
  5
5AC
  8
0
  6
CONTINUOUS
 62
     7
 10
222.7426349895
 20
-39.5691115187
 30
0.0
  0
VERTEX
  5
5AD
  8
0
  6
CONTINUOUS
 62
     7
 10
223.3606755512
 20
-39.5897414313
 30
0.0
  0
VERTEX
  5
5AE
  8
0
  6
CONTINUOUS
 62
     7
 10
223.9536642807
 20
-39.5955849217
 30
0.0
  0
VERTEX
  5
5AF
  8
0
  6
CONTINUOUS
 62
     7
 10
224.5301306026
 20
-39.5831752346
 30
0.0
  0
VERTEX
  5
5B0
  8
0
  6
CONTINUOUS
 62
     7
 10
225.1120745914
 20
-39.544387512
 30
0.0
  0
VERTEX
  5
5B1
  8
0
  6
CONTINUOUS
 62
     7
 10
225.6748139637
 20
-39.4687909411
 30
0.0
  0
VERTEX
  5
5B2
  8
0
  6
CONTINUOUS
 62
     7
 10
226.0407447594
 20
-39.3902014719
 30
0.0
  0
VERTEX
  5
5B3
  8
0
  6
CONTINUOUS
 62
     7
 10
226.3783931511
 20
-39.2895746754
 30
0.0
  0
VERTEX
  5
5B4
  8
0
  6
CONTINUOUS
 62
     7
 10
226.6912936943
 20
-39.1657713579
 30
0.0
  0
VERTEX
  5
5B5
  8
0
  6
CONTINUOUS
 62
     7
 10
226.9930481689
 20
-39.0116471575
 30
0.0
  0
VERTEX
  5
5B6
  8
0
  6
CONTINUOUS
 62
     7
 10
227.286004998
 20
-38.8208877073
 30
0.0
  0
VERTEX
  5
5B7
  8
0
  6
CONTINUOUS
 62
     7
 10
227.5665223377
 20
-38.5885428415
 30
0.0
  0
VERTEX
  5
5B8
  8
0
  6
CONTINUOUS
 62
     7
 10
227.8260171192
 20
-38.3131701277
 30
0.0
  0
VERTEX
  5
5B9
  8
0
  6
CONTINUOUS
 62
     7
 10
228.0539929646
 20
-37.9973988758
 30
0.0
  0
VERTEX
  5
5BA
  8
0
  6
CONTINUOUS
 62
     7
 10
228.240752198
 20
-37.6470926927
 30
0.0
  0
VERTEX
  5
5BB
  8
0
  6
CONTINUOUS
 62
     7
 10
228.3905267494
 20
-37.2283946501
 30
0.0
  0
VERTEX
  5
5BC
  8
0
  6
CONTINUOUS
 62
     7
 10
228.4163474815
 20
-37.0945352839
 30
0.0
  0
SEQEND
  5
660
  8
0
  6
CONTINUOUS
 62
     7
  0
POLYLINE
  5
1E4
  8
0
  6
CONTINUOUS
 62
     7
 66
     1
 10
0.0
 20
0.0
 30
0.0
  0
VERTEX
  5
5BD
  8
0
  6
CONTINUOUS
 62
     7
 10
148.443083443
 20
-37.0952088164
 30
0.0
  0
VERTEX
  5
5BE
  8
0
  6
CONTINUOUS
 62
     7
 10
148.4440266865
 20
-37.1017191337
 30
0.0
  0
VERTEX
  5
5BF
  8
0
  6
CONTINUOUS
 62
     7
 10
148.5668614285
 20
-37.5071357714
 30
0.0
  0
VERTEX
  5
5C0
  8
0
  6
CONTINUOUS
 62
     7
 10
148.7400278228
 20
-37.8760467993
 30
0.0
  0
VERTEX
  5
5C1
  8
0
  6
CONTINUOUS
 62
     7
 10
148.9535584825
 20
-38.2041070388
 30
0.0
  0
VERTEX
  5
5C2
  8
0
  6
CONTINUOUS
 62
     7
 10
149.1975068825
 20
-38.4890947269
 30
0.0
  0
VERTEX
  5
5C3
  8
0
  6
CONTINUOUS
 62
     7
 10
149.462199189
 20
-38.7306939588
 30
0.0
  0
VERTEX
  5
5C4
  8
0
  6
CONTINUOUS
 62
     7
 10
149.7391879337
 20
-38.9308023976
 30
0.0
  0
VERTEX
  5
5C5
  8
0
  6
CONTINUOUS
 62
     7
 10
150.0229805487
 20
-39.0936288761
 30
0.0
  0
VERTEX
  5
5C6
  8
0
  6
CONTINUOUS
 62
     7
 10
150.3129258531
 20
-39.225072764
 30
0.0
  0
VERTEX
  5
5C7
  8
0
  6
CONTINUOUS
 62
     7
 10
150.6162062066
 20
-39.3319565581
 30
0.0
  0
VERTEX
  5
5C8
  8
0
  6
CONTINUOUS
 62
     7
 10
150.949731447
 20
-39.4202004896
 30
0.0
  0
VERTEX
  5
5C9
  8
0
  6
CONTINUOUS
 62
     7
 10
151.3069078105
 20
-39.4879679905
 30
0.0
  0
VERTEX
  5
5CA
  8
0
  6
CONTINUOUS
 62
     7
 10
151.7724752205
 20
-39.5454492198
 30
0.0
  0
VERTEX
  5
5CB
  8
0
  6
CONTINUOUS
 62
     7
 10
152.4389549869
 20
-39.5861517416
 30
0.0
  0
VERTEX
  5
5CC
  8
0
  6
CONTINUOUS
 62
     7
 10
153.0123069661
 20
-39.595063381
 30
0.0
  0
VERTEX
  5
5CD
  8
0
  6
CONTINUOUS
 62
     7
 10
153.5929471033
 20
-39.5872067438
 30
0.0
  0
VERTEX
  5
5CE
  8
0
  6
CONTINUOUS
 62
     7
 10
154.2507529037
 20
-39.5632188545
 30
0.0
  0
VERTEX
  5
5CF
  8
0
  6
CONTINUOUS
 62
     7
 10
154.9246817606
 20
-39.5259681867
 30
0.0
  0
VERTEX
  5
5D0
  8
0
  6
CONTINUOUS
 62
     7
 10
155.6280344503
 20
-39.4768412934
 30
0.0
  0
VERTEX
  5
5D1
  8
0
  6
CONTINUOUS
 62
     7
 10
156.363108732
 20
-39.4169065879
 30
0.0
  0
VERTEX
  5
5D2
  8
0
  6
CONTINUOUS
 62
     7
 10
157.1283846872
 20
-39.3470432387
 30
0.0
  0
VERTEX
  5
5D3
  8
0
  6
CONTINUOUS
 62
     7
 10
157.9214155453
 20
-39.2680842207
 30
0.0
  0
VERTEX
  5
5D4
  8
0
  6
CONTINUOUS
 62
     7
 10
158.7388932484
 20
-39.1808863507
 30
0.0
  0
VERTEX
  5
5D5
  8
0
  6
CONTINUOUS
 62
     7
 10
159.5769822376
 20
-39.0863310324
 30
0.0
  0
VERTEX
  5
5D6
  8
0
  6
CONTINUOUS
 62
     7
 10
160.4315578716
 20
-38.9853182958
 30
0.0
  0
VERTEX
  5
5D7
  8
0
  6
CONTINUOUS
 62
     7
 10
161.2969457882
 20
-38.8789575325
 30
0.0
  0
VERTEX
  5
5D8
  8
0
  6
CONTINUOUS
 62
     7
 10
162.168419339
 20
-38.7681986914
 30
0.0
  0
VERTEX
  5
5D9
  8
0
  6
CONTINUOUS
 62
     7
 10
163.0479961412
 20
-38.652802609
 30
0.0
  0
VERTEX
  5
5DA
  8
0
  6
CONTINUOUS
 62
     7
 10
163.5738074558
 20
-38.5816592501
 30
0.0
  0
SEQEND
  5
65F
  8
0
  6
CONTINUOUS
 62
     7
  0
POLYLINE
  5
1E5
  8
0
  6
CONTINUOUS
 62
     7
 66
     1
 10
0.0
 20
0.0
 30
0.0
  0
VERTEX
  5
5DB
  8
0
  6
CONTINUOUS
 62
     7
 10
228.4298419731
 20
-37.0246018992
 30
0.0
  0
VERTEX
  5
5DC
  8
0
  6
CONTINUOUS
 62
     7
 10
228.4723400848
 20
-36.8043031321
 30
0.0
  0
VERTEX
  5
5DD
  8
0
  6
CONTINUOUS
 62
     7
 10
228.4863471764
 20
-36.475837581
 30
0.0
  0
SEQEND
  5
65E
  8
0
  6
CONTINUOUS
 62
     7
  0
POLYLINE
  5
1E6
  8
0
  6
CONTINUOUS
 62
     7
 66
     1
 10
0.0
 20
0.0
 30
0.0
  0
VERTEX
  5
5DE
  8
0
  6
CONTINUOUS
 62
     7
 10
148.381680228
 20
-36.4686179684
 30
0.0
  0
VERTEX
  5
5DF
  8
0
  6
CONTINUOUS
 62
     7
 10
148.3812615054
 20
-36.6684663819
 30
0.0
  0
VERTEX
  5
5E0
  8
0
  6
CONTINUOUS
 62
     7
 10
148.443083443
 20
-37.0952088164
 30
0.0
  0
SEQEND
  5
65D
  8
0
  6
CONTINUOUS
 62
     7
  0
ARC
  5
1E7
  8
0
  6
CONTINUOUS
 62
     7
 10
188.4322866576
 20
-221.592383246
 30
0.0
 40
184.6914342469481
 50
82.264780544
 51
97.735219456
  0
ARC
  5
1E8
  8
0
  6
CONTINUOUS
 62
     7
 10
93.615948024
 20
-113.8556067006
 30
0.0
 40
14.86825280728335
 50
270.8244948462
 51
0.4742558757
  0
ARC
  5
1E9
  8
0
  6
CONTINUOUS
 62
     7
 10
43.2478383457
 20
-113.8590764119
 30
0.0
 40
14.86657497474982
 50
179.512892172
 51
269.323417898
  0
ARC
  5
1EA
  8
0
  6
CONTINUOUS
 62
     7
 10
93.6047718812
 20
-73.6441241862
 30
0.0
 40
14.87763350840292
 50
359.6598827063
 51
32.6990667389
  0
ARC
  5
1EB
  8
0
  6
CONTINUOUS
 62
     7
 10
43.3517208047
 20
-73.6766344493
 30
0.0
 40
14.9752481932159
 50
147.3881243277
 51
180.2162386816
  0
ARC
  5
1EC
  8
0
  6
CONTINUOUS
 62
     7
 10
43.1759585939
 20
-73.4394678277
 30
0.0
 40
14.69879197530852
 50
90.6991896742
 51
141.1138697876
  0
ARC
  5
1ED
  8
0
  6
CONTINUOUS
 62
     7
 10
93.6916514892
 20
-73.4161318327
 30
0.0
 40
14.67822632540681
 50
38.7741646745
 51
89.7632229624
  0
LINE
  5
1EE
  8
0
  6
CONTINUOUS
 62
     7
 10
28.3735275047
 20
-73.7324785219
 30
0.0
 11
28.3735275047
 21
-113.732479118
 31
0.0
  0
LINE
  5
1EF
  8
0
  6
CONTINUOUS
 62
     7
 10
108.4910422342
 20
-113.732479118
 30
0.0
 11
108.4910422342
 21
-73.7324785219
 31
0.0
  0
ARC
  5
1F0
  8
0
  6
CONTINUOUS
 62
     7
 10
213.6159529239
 20
-113.8556141767
 30
0.0
 40
14.86824528724576
 50
270.8244832704
 51
0.4742849259
  0
ARC
  5
1F1
  8
0
  6
CONTINUOUS
 62
     7
 10
163.2478393948
 20
-113.8590712257
 30
0.0
 40
14.86658015187281
 50
179.5129123301
 51
269.3234209822
  0
ARC
  5
1F2
  8
0
  6
CONTINUOUS
 62
     7
 10
213.6048396998
 20
-73.644098707
 30
0.0
 40
14.87756166995755
 50
359.6597829379
 51
32.6991277419
  0
ARC
  5
1F3
  8
0
  6
CONTINUOUS
 62
     7
 10
163.3518556192
 20
-73.676684507
 30
0.0
 40
14.9753884803168
 50
147.3882403755
 51
180.2160451339
  0
ARC
  5
1F4
  8
0
  6
CONTINUOUS
 62
     7
 10
163.1759647599
 20
-73.4394829765
 30
0.0
 40
14.69880721282059
 50
90.699217633
 51
141.1138418288
  0
ARC
  5
1F5
  8
0
  6
CONTINUOUS
 62
     7
 10
213.6916544937
 20
-73.4161199836
 30
0.0
 40
14.67821447142605
 50
38.7741425168
 51
89.7632275192
  0
LINE
  5
1F6
  8
0
  6
CONTINUOUS
 62
     7
 10
148.3735292929
 20
-73.7324785219
 30
0.0
 11
148.3735292929
 21
-113.732479118
 31
0.0
  0
LINE
  5
1F7
  8
0
  6
CONTINUOUS
 62
     7
 10
228.4910440224
 20
-113.732479118
 30
0.0
 11
228.4910440224
 21
-73.7324785219
 31
0.0
  0
ARC
  5
1F8
  8
0
  6
CONTINUOUS
 62
     7
 10
68.4399044731
 20
-17.4346538659
 30
0.0
 40
6.286212525477671
 50
261.3047174731
 51
278.4276079687
  0
ARC
  5
1F9
  8
0
  6
CONTINUOUS
 62
     7
 10
70.4360009807
 20
-22.0716771367
 30
0.0
 40
0.9962925127945088
 50
269.7864370873
 51
359.7849954366
  0
LINE
  5
1FA
  8
0
  6
CONTINUOUS
 62
     7
 10
71.4322864788
 20
-22.075415753
 30
0.0
 11
71.4322864788
 21
-23.6704583989
 31
0.0
  0
LINE
  5
1FB
  8
0
  6
CONTINUOUS
 62
     7
 10
70.4322874325
 20
-23.0679627286
 30
0.0
 11
66.4322852867
 21
-23.0679627286
 31
0.0
  0
POLYLINE
  5
1FC
  8
0
  6
CONTINUOUS
 62
     7
 66
     1
 10
0.0
 20
0.0
 30
0.0
  0
VERTEX
  5
5E1
  8
0
  6
CONTINUOUS
 62
     7
 10
68.4322833794
 20
-23.1886144505
 30
0.0
  0
VERTEX
  5
5E2
  8
0
  6
CONTINUOUS
 62
     7
 10
68.1624889152
 20
-23.1931339727
 30
0.0
  0
VERTEX
  5
5E3
  8
0
  6
CONTINUOUS
 62
     7
 10
67.9127037304
 20
-23.2063557731
 30
0.0
  0
VERTEX
  5
5E4
  8
0
  6
CONTINUOUS
 62
     7
 10
67.7014469879
 20
-23.2273008452
 30
0.0
  0
VERTEX
  5
5E5
  8
0
  6
CONTINUOUS
 62
     7
 10
67.5444006699
 20
-23.2544149981
 30
0.0
  0
VERTEX
  5
5E6
  8
0
  6
CONTINUOUS
 62
     7
 10
67.4531996029
 20
-23.2856880651
 30
0.0
  0
VERTEX
  5
5E7
  8
0
  6
CONTINUOUS
 62
     7
 10
67.432284333
 20
-23.3104835974
 30
0.0
  0
SEQEND
  5
65C
  8
0
  6
CONTINUOUS
 62
     7
  0
POLYLINE
  5
1FD
  8
0
  6
CONTINUOUS
 62
     7
 66
     1
 10
0.0
 20
0.0
 30
0.0
  0
VERTEX
  5
5E8
  8
0
  6
CONTINUOUS
 62
     7
 10
69.4322883862
 20
-23.3104835974
 30
0.0
  0
VERTEX
  5
5E9
  8
0
  6
CONTINUOUS
 62
     7
 10
69.4113671558
 20
-23.2856880651
 30
0.0
  0
VERTEX
  5
5EA
  8
0
  6
CONTINUOUS
 62
     7
 10
69.3201720493
 20
-23.2544149981
 30
0.0
  0
VERTEX
  5
5EB
  8
0
  6
CONTINUOUS
 62
     7
 10
69.1631197708
 20
-23.2273008452
 30
0.0
  0
VERTEX
  5
5EC
  8
0
  6
CONTINUOUS
 62
     7
 10
68.9518689888
 20
-23.2063557731
 30
0.0
  0
VERTEX
  5
5ED
  8
0
  6
CONTINUOUS
 62
     7
 10
68.7020838039
 20
-23.1931339727
 30
0.0
  0
VERTEX
  5
5EE
  8
0
  6
CONTINUOUS
 62
     7
 10
68.4322833794
 20
-23.1886144505
 30
0.0
  0
SEQEND
  5
65B
  8
0
  6
CONTINUOUS
 62
     7
  0
ARC
  5
1FE
  8
0
  6
CONTINUOUS
 62
     7
 10
66.4285692694
 20
-22.0716796243
 30
0.0
 40
0.9962900343945776
 50
180.2148620362
 51
270.2137054399
  0
LINE
  5
1FF
  8
0
  6
CONTINUOUS
 62
     7
 10
65.4322862404
 20
-22.075415753
 30
0.0
 11
65.4322862404
 21
-18.105233811
 31
0.0
  0
ARC
  5
200
  8
0
  6
CONTINUOUS
 62
     7
 10
66.428572874
 20
-18.1089720756
 30
0.0
 40
0.9962936469891537
 50
89.7865026336
 51
179.7850159064
  0
LINE
  5
201
  8
0
  6
CONTINUOUS
 62
     7
 10
66.4322852867
 20
-17.1126853453
 30
0.0
 11
70.4322874325
 21
-17.1126853453
 31
0.0
  0
ARC
  5
202
  8
0
  6
CONTINUOUS
 62
     7
 10
70.435997376
 20
-18.1089745633
 30
0.0
 40
0.9962961254760513
 50
0.2151266245
 51
90.2133548355
  0
LINE
  5
203
  8
0
  6
CONTINUOUS
 62
     7
 10
71.4322864788
 20
-18.105233811
 30
0.0
 11
71.4322864788
 21
-22.075415753
 31
0.0
  0
LINE
  5
204
  8
0
  6
CONTINUOUS
 62
     7
 10
65.4322862404
 20
-23.6749868618
 30
0.0
 11
65.4322862404
 21
-22.075415753
 31
0.0
  0
POLYLINE
  5
205
  8
0
  6
CONTINUOUS
 62
     7
 66
     1
 10
0.0
 20
0.0
 30
0.0
  0
VERTEX
  5
5EF
  8
0
  6
CONTINUOUS
 62
     7
 10
95.1328396576
 20
-37.4463621305
 30
0.0
  0
VERTEX
  5
5F0
  8
0
  6
CONTINUOUS
 62
     7
 10
96.213993408
 20
-37.5757101701
 30
0.0
  0
VERTEX
  5
5F1
  8
0
  6
CONTINUOUS
 62
     7
 10
97.2627818363
 20
-37.6916099118
 30
0.0
  0
VERTEX
  5
5F2
  8
0
  6
CONTINUOUS
 62
     7
 10
98.2596218365
 20
-37.7911928819
 30
0.0
  0
VERTEX
  5
5F3
  8
0
  6
CONTINUOUS
 62
     7
 10
99.1945445316
 20
-37.872488402
 30
0.0
  0
VERTEX
  5
5F4
  8
0
  6
CONTINUOUS
 62
     7
 10
100.0598579424
 20
-37.9339720832
 30
0.0
  0
VERTEX
  5
5F5
  8
0
  6
CONTINUOUS
 62
     7
 10
100.839871146
 20
-37.9734921978
 30
0.0
  0
VERTEX
  5
5F6
  8
0
  6
CONTINUOUS
 62
     7
 10
101.5301584976
 20
-37.9893388377
 30
0.0
  0
VERTEX
  5
5F7
  8
0
  6
CONTINUOUS
 62
     7
 10
102.1213501471
 20
-37.9804145323
 30
0.0
  0
VERTEX
  5
5F8
  8
0
  6
CONTINUOUS
 62
     7
 10
102.6030272024
 20
-37.9459637926
 30
0.0
  0
VERTEX
  5
5F9
  8
0
  6
CONTINUOUS
 62
     7
 10
102.972576
 20
-37.8843661176
 30
0.0
  0
VERTEX
  5
5FA
  8
0
  6
CONTINUOUS
 62
     7
 10
103.2233625429
 20
-37.7961937116
 30
0.0
  0
VERTEX
  5
5FB
  8
0
  6
CONTINUOUS
 62
     7
 10
103.3510118502
 20
-37.6826245116
 30
0.0
  0
VERTEX
  5
5FC
  8
0
  6
CONTINUOUS
 62
     7
 10
103.3678948658
 20
-37.6135561393
 30
0.0
  0
SEQEND
  5
65A
  8
0
  6
CONTINUOUS
 62
     7
  0
ARC
  5
206
  8
0
  6
CONTINUOUS
 62
     7
 10
68.4322863596
 20
-221.2845852178
 30
0.0
 40
185.7670902348647
 50
81.7361790473
 51
98.2638209527
  0
POLYLINE
  5
207
  8
0
  6
CONTINUOUS
 62
     7
 66
     1
 10
0.0
 20
0.0
 30
0.0
  0
VERTEX
  5
5FD
  8
0
  6
CONTINUOUS
 62
     7
 10
33.4966778534
 20
-37.6135561393
 30
0.0
  0
VERTEX
  5
5FE
  8
0
  6
CONTINUOUS
 62
     7
 10
33.5607647675
 20
-37.7410892175
 30
0.0
  0
VERTEX
  5
5FF
  8
0
  6
CONTINUOUS
 62
     7
 10
33.750784375
 20
-37.8433871792
 30
0.0
  0
VERTEX
  5
600
  8
0
  6
CONTINUOUS
 62
     7
 10
34.0633690136
 20
-37.918878697
 30
0.0
  0
VERTEX
  5
601
  8
0
  6
CONTINUOUS
 62
     7
 10
34.4974338787
 20
-37.9669401573
 30
0.0
  0
VERTEX
  5
602
  8
0
  6
CONTINUOUS
 62
     7
 10
35.0476801174
 20
-37.9883628116
 30
0.0
  0
VERTEX
  5
603
  8
0
  6
CONTINUOUS
 62
     7
 10
35.7041179913
 20
-37.9836503194
 30
0.0
  0
VERTEX
  5
604
  8
0
  6
CONTINUOUS
 62
     7
 10
36.4574849384
 20
-37.9537414537
 30
0.0
  0
VERTEX
  5
605
  8
0
  6
CONTINUOUS
 62
     7
 10
37.3032986896
 20
-37.9004191385
 30
0.0
  0
VERTEX
  5
606
  8
0
  6
CONTINUOUS
 62
     7
 10
38.225775935
 20
-37.8257814573
 30
0.0
  0
VERTEX
  5
607
  8
0
  6
CONTINUOUS
 62
     7
 10
39.2075896042
 20
-37.7323377655
 30
0.0
  0
VERTEX
  5
608
  8
0
  6
CONTINUOUS
 62
     7
 10
40.2470707672
 20
-37.6215066539
 30
0.0
  0
VERTEX
  5
609
  8
0
  6
CONTINUOUS
 62
     7
 10
41.3245439308
 20
-37.496172242
 30
0.0
  0
VERTEX
  5
60A
  8
0
  6
CONTINUOUS
 62
     7
 10
41.7317330616
 20
-37.4463621305
 30
0.0
  0
SEQEND
  5
659
  8
0
  6
CONTINUOUS
 62
     7
  0
LINE
  5
208
  8
0
  6
CONTINUOUS
 62
     7
 10
33.4966778534
 20
-33.1041421519
 30
0.0
 11
33.4966778534
 21
-37.6135561393
 31
0.0
  0
LINE
  5
209
  8
0
  6
CONTINUOUS
 62
     7
 10
103.3678948658
 20
-37.6135561393
 30
0.0
 11
103.3678948658
 21
-33.1056769715
 31
0.0
  0
POLYLINE
  5
20A
  8
0
  6
CONTINUOUS
 62
     7
 66
     1
 10
0.0
 20
0.0
 30
0.0
  0
VERTEX
  5
60B
  8
0
  6
CONTINUOUS
 62
     7
 10
108.4910422342
 20
-36.4749837445
 30
0.0
  0
VERTEX
  5
60C
  8
0
  6
CONTINUOUS
 62
     7
 10
108.4888249414
 20
-36.5833725558
 30
0.0
  0
VERTEX
  5
60D
  8
0
  6
CONTINUOUS
 62
     7
 10
108.4281027096
 20
-37.0491664635
 30
0.0
  0
SEQEND
  5
658
  8
0
  6
CONTINUOUS
 62
     7
  0
ARC
  5
20B
  8
0
  6
CONTINUOUS
 62
     7
 10
188.4399032765
 20
-17.4346557963
 30
0.0
 40
6.286210616522135
 50
261.3047148537
 51
278.4276105882
  0
LINE
  5
20C
  8
0
  6
CONTINUOUS
 62
     7
 10
190.4322862404
 20
-23.0679627286
 30
0.0
 11
186.4322840946
 21
-23.0679627286
 31
0.0
  0
POLYLINE
  5
20D
  8
0
  6
CONTINUOUS
 62
     7
 66
     1
 10
0.0
 20
0.0
 30
0.0
  0
VERTEX
  5
60E
  8
0
  6
CONTINUOUS
 62
     7
 10
188.4322881477
 20
-23.1886144505
 30
0.0
  0
VERTEX
  5
60F
  8
0
  6
CONTINUOUS
 62
     7
 10
188.1624877232
 20
-23.1931339727
 30
0.0
  0
VERTEX
  5
610
  8
0
  6
CONTINUOUS
 62
     7
 10
187.9127025383
 20
-23.2063557731
 30
0.0
  0
VERTEX
  5
611
  8
0
  6
CONTINUOUS
 62
     7
 10
187.7014517563
 20
-23.2273008452
 30
0.0
  0
VERTEX
  5
612
  8
0
  6
CONTINUOUS
 62
     7
 10
187.5443994778
 20
-23.2544149981
 30
0.0
  0
VERTEX
  5
613
  8
0
  6
CONTINUOUS
 62
     7
 10
187.4532043713
 20
-23.2856880651
 30
0.0
  0
VERTEX
  5
614
  8
0
  6
CONTINUOUS
 62
     7
 10
187.4322831409
 20
-23.3104835974
 30
0.0
  0
SEQEND
  5
657
  8
0
  6
CONTINUOUS
 62
     7
  0
POLYLINE
  5
20E
  8
0
  6
CONTINUOUS
 62
     7
 66
     1
 10
0.0
 20
0.0
 30
0.0
  0
VERTEX
  5
615
  8
0
  6
CONTINUOUS
 62
     7
 10
189.4322871941
 20
-23.3104835974
 30
0.0
  0
VERTEX
  5
616
  8
0
  6
CONTINUOUS
 62
     7
 10
189.4113719242
 20
-23.2856880651
 30
0.0
  0
VERTEX
  5
617
  8
0
  6
CONTINUOUS
 62
     7
 10
189.3201708572
 20
-23.2544149981
 30
0.0
  0
VERTEX
  5
618
  8
0
  6
CONTINUOUS
 62
     7
 10
189.1631245392
 20
-23.2273008452
 30
0.0
  0
VERTEX
  5
619
  8
0
  6
CONTINUOUS
 62
     7
 10
188.9518677967
 20
-23.2063557731
 30
0.0
  0
VERTEX
  5
61A
  8
0
  6
CONTINUOUS
 62
     7
 10
188.7020826118
 20
-23.1931339727
 30
0.0
  0
VERTEX
  5
61B
  8
0
  6
CONTINUOUS
 62
     7
 10
188.4322881477
 20
-23.1886144505
 30
0.0
  0
SEQEND
  5
656
  8
0
  6
CONTINUOUS
 62
     7
  0
ARC
  5
20F
  8
0
  6
CONTINUOUS
 62
     7
 10
190.4360022577
 20
-22.0716796243
 30
0.0
 40
0.996290034394581
 50
269.7862945601
 51
359.7851379638
  0
LINE
  5
210
  8
0
  6
CONTINUOUS
 62
     7
 10
191.4322852867
 20
-22.075415753
 30
0.0
 11
191.4322852867
 21
-23.6704583989
 31
0.0
  0
LINE
  5
211
  8
0
  6
CONTINUOUS
 62
     7
 10
185.4322850483
 20
-23.6749868618
 30
0.0
 11
185.4322850483
 21
-22.075415753
 31
0.0
  0
ARC
  5
212
  8
0
  6
CONTINUOUS
 62
     7
 10
186.4285705464
 20
-22.0716771367
 30
0.0
 40
0.9962925127945196
 50
180.2150045634
 51
270.2135629127
  0
LINE
  5
213
  8
0
  6
CONTINUOUS
 62
     7
 10
185.4322850483
 20
-22.075415753
 30
0.0
 11
185.4322850483
 21
-18.105233811
 31
0.0
  0
ARC
  5
214
  8
0
  6
CONTINUOUS
 62
     7
 10
186.4285741511
 20
-18.1089745633
 30
0.0
 40
0.996296125476075
 50
89.7866451645
 51
179.7848733755
  0
LINE
  5
215
  8
0
  6
CONTINUOUS
 62
     7
 10
186.4322840946
 20
-17.1126853453
 30
0.0
 11
190.4322862404
 21
-17.1126853453
 31
0.0
  0
ARC
  5
216
  8
0
  6
CONTINUOUS
 62
     7
 10
190.4359986531
 20
-18.1089720756
 30
0.0
 40
0.9962936469891608
 50
0.2149840936
 51
90.2134973664
  0
LINE
  5
217
  8
0
  6
CONTINUOUS
 62
     7
 10
191.4322852867
 20
-18.105233811
 30
0.0
 11
191.4322852867
 21
-22.075415753
 31
0.0
  0
POLYLINE
  5
218
  8
0
  6
CONTINUOUS
 62
     7
 66
     1
 10
0.0
 20
0.0
 30
0.0
  0
VERTEX
  5
61C
  8
0
  6
CONTINUOUS
 62
     7
 10
215.1328384655
 20
-37.4463621305
 30
0.0
  0
VERTEX
  5
61D
  8
0
  6
CONTINUOUS
 62
     7
 10
216.2139951961
 20
-37.5757101701
 30
0.0
  0
VERTEX
  5
61E
  8
0
  6
CONTINUOUS
 62
     7
 10
217.2627806442
 20
-37.6916099118
 30
0.0
  0
VERTEX
  5
61F
  8
0
  6
CONTINUOUS
 62
     7
 10
218.2596206444
 20
-37.7911928819
 30
0.0
  0
VERTEX
  5
620
  8
0
  6
CONTINUOUS
 62
     7
 10
219.1945433395
 20
-37.872488402
 30
0.0
  0
VERTEX
  5
621
  8
0
  6
CONTINUOUS
 62
     7
 10
220.0598597305
 20
-37.9339720832
 30
0.0
  0
VERTEX
  5
622
  8
0
  6
CONTINUOUS
 62
     7
 10
220.8398699539
 20
-37.9734921978
 30
0.0
  0
VERTEX
  5
623
  8
0
  6
CONTINUOUS
 62
     7
 10
221.5301573055
 20
-37.9893388377
 30
0.0
  0
VERTEX
  5
624
  8
0
  6
CONTINUOUS
 62
     7
 10
222.1213519352
 20
-37.9804145323
 30
0.0
  0
VERTEX
  5
625
  8
0
  6
CONTINUOUS
 62
     7
 10
222.6030289906
 20
-37.9459637926
 30
0.0
  0
VERTEX
  5
626
  8
0
  6
CONTINUOUS
 62
     7
 10
222.9725718277
 20
-37.8843661176
 30
0.0
  0
VERTEX
  5
627
  8
0
  6
CONTINUOUS
 62
     7
 10
223.2233643311
 20
-37.7961937116
 30
0.0
  0
VERTEX
  5
628
  8
0
  6
CONTINUOUS
 62
     7
 10
223.3510136383
 20
-37.6826245116
 30
0.0
  0
VERTEX
  5
629
  8
0
  6
CONTINUOUS
 62
     7
 10
223.3678936737
 20
-37.6135561393
 30
0.0
  0
SEQEND
  5
655
  8
0
  6
CONTINUOUS
 62
     7
  0
ARC
  5
219
  8
0
  6
CONTINUOUS
 62
     7
 10
188.4322851675
 20
-221.2845852178
 30
0.0
 40
185.7670902348649
 50
81.7361790473
 51
98.2638209527
  0
POLYLINE
  5
21A
  8
0
  6
CONTINUOUS
 62
     7
 66
     1
 10
0.0
 20
0.0
 30
0.0
  0
VERTEX
  5
62A
  8
0
  6
CONTINUOUS
 62
     7
 10
153.4966766613
 20
-37.6135561393
 30
0.0
  0
VERTEX
  5
62B
  8
0
  6
CONTINUOUS
 62
     7
 10
153.5607635754
 20
-37.7410892175
 30
0.0
  0
VERTEX
  5
62C
  8
0
  6
CONTINUOUS
 62
     7
 10
153.7507831829
 20
-37.8433871792
 30
0.0
  0
VERTEX
  5
62D
  8
0
  6
CONTINUOUS
 62
     7
 10
154.0633678215
 20
-37.918878697
 30
0.0
  0
VERTEX
  5
62E
  8
0
  6
CONTINUOUS
 62
     7
 10
154.4974356668
 20
-37.9669401573
 30
0.0
  0
VERTEX
  5
62F
  8
0
  6
CONTINUOUS
 62
     7
 10
155.0476819056
 20
-37.9883628116
 30
0.0
  0
VERTEX
  5
630
  8
0
  6
CONTINUOUS
 62
     7
 10
155.7041167992
 20
-37.9836503194
 30
0.0
  0
VERTEX
  5
631
  8
0
  6
CONTINUOUS
 62
     7
 10
156.4574837463
 20
-37.9537414537
 30
0.0
  0
VERTEX
  5
632
  8
0
  6
CONTINUOUS
 62
     7
 10
157.3032974976
 20
-37.9004191385
 30
0.0
  0
VERTEX
  5
633
  8
0
  6
CONTINUOUS
 62
     7
 10
158.2257747429
 20
-37.8257814573
 30
0.0
  0
VERTEX
  5
634
  8
0
  6
CONTINUOUS
 62
     7
 10
159.2075913923
 20
-37.7323377655
 30
0.0
  0
VERTEX
  5
635
  8
0
  6
CONTINUOUS
 62
     7
 10
160.2470695751
 20
-37.6215066539
 30
0.0
  0
VERTEX
  5
636
  8
0
  6
CONTINUOUS
 62
     7
 10
161.324545719
 20
-37.496172242
 30
0.0
  0
VERTEX
  5
637
  8
0
  6
CONTINUOUS
 62
     7
 10
161.7317318695
 20
-37.4463621305
 30
0.0
  0
SEQEND
  5
654
  8
0
  6
CONTINUOUS
 62
     7
  0
LINE
  5
21B
  8
0
  6
CONTINUOUS
 62
     7
 10
153.4966766613
 20
-33.1041421519
 30
0.0
 11
153.4966766613
 21
-37.6135561393
 31
0.0
  0
LINE
  5
21C
  8
0
  6
CONTINUOUS
 62
     7
 10
223.3678936737
 20
-37.6135561393
 30
0.0
 11
223.3678936737
 21
-33.1056769715
 31
0.0
  0
POLYLINE
  5
21D
  8
0
  6
CONTINUOUS
 62
     7
 66
     1
 10
0.0
 20
0.0
 30
0.0
  0
VERTEX
  5
638
  8
0
  6
CONTINUOUS
 62
     7
 10
228.4910440224
 20
-36.4749837445
 30
0.0
  0
VERTEX
  5
639
  8
0
  6
CONTINUOUS
 62
     7
 10
228.4888267296
 20
-36.5833725558
 30
0.0
  0
VERTEX
  5
63A
  8
0
  6
CONTINUOUS
 62
     7
 10
228.4281015175
 20
-37.0491664635
 30
0.0
  0
SEQEND
  5
653
  8
0
  6
CONTINUOUS
 62
     7
  0
LINE
  5
21E
  8
0
  6
CONTINUOUS
 62
     7
 10
71.4322864788
 20
-36.9320798443
 30
0.0
 11
71.4322864788
 21
-39.6015655027
 31
0.0
  0
LINE
  5
21F
  8
0
  6
CONTINUOUS
 62
     7
 10
65.4322862404
 20
-36.9275513814
 30
0.0
 11
65.4322862404
 21
-39.6015655027
 31
0.0
  0
LINE
  5
220
  8
0
  6
CONTINUOUS
 62
     7
 10
70.4322874325
 20
-42.03247761
 30
0.0
 11
66.4322852867
 21
-42.03247761
 31
0.0
  0
ARC
  5
221
  8
0
  6
CONTINUOUS
 62
     7
 10
66.4322857635
 20
-41.0324777828
 30
0.0
 40
1.000000000000007
 50
180.0
 51
270.0
  0
LINE
  5
222
  8
0
  6
CONTINUOUS
 62
     7
 10
65.4322862404
 20
-39.6015655027
 30
0.0
 11
65.4322862404
 21
-41.0324778186
 31
0.0
  0
ARC
  5
223
  8
0
  6
CONTINUOUS
 62
     7
 10
70.4322857635
 20
-41.0324777828
 30
0.0
 40
1.000000000000007
 50
270.0
 51
0.0
  0
LINE
  5
224
  8
0
  6
CONTINUOUS
 62
     7
 10
71.4322864788
 20
-39.6015655027
 30
0.0
 11
71.4322864788
 21
-41.0324778186
 31
0.0
  0
LINE
  5
225
  8
0
  6
CONTINUOUS
 62
     7
 10
86.4322870748
 20
-43.0324777739
 30
0.0
 11
86.4322870748
 21
-52.6324778573
 31
0.0
  0
LINE
  5
226
  8
0
  6
CONTINUOUS
 62
     7
 10
50.4322886246
 20
-43.0324777739
 30
0.0
 11
50.4322886246
 21
-52.6324778573
 31
0.0
  0
LINE
  5
227
  8
0
  6
CONTINUOUS
 62
     7
 10
86.4322870748
 20
-53.6324776487
 30
0.0
 11
50.4322886246
 21
-53.6324776487
 31
0.0
  0
LINE
  5
228
  8
0
  6
CONTINUOUS
 62
     7
 10
86.4322870748
 20
-52.6324778573
 30
0.0
 11
86.4322870748
 21
-53.6324776487
 31
0.0
  0
LINE
  5
229
  8
0
  6
CONTINUOUS
 62
     7
 10
50.4322886246
 20
-52.6324778573
 30
0.0
 11
50.4322886246
 21
-53.6324776487
 31
0.0
  0
LINE
  5
22A
  8
0
  6
CONTINUOUS
 62
     7
 10
66.4322852867
 20
-42.03247761
 30
0.0
 11
50.4322886246
 21
-42.03247761
 31
0.0
  0
LINE
  5
22B
  8
0
  6
CONTINUOUS
 62
     7
 10
86.4322870748
 20
-42.03247761
 30
0.0
 11
70.4322874325
 21
-42.03247761
 31
0.0
  0
LINE
  5
22C
  8
0
  6
CONTINUOUS
 62
     7
 10
86.4322870748
 20
-42.03247761
 30
0.0
 11
86.4322870748
 21
-43.0324777739
 31
0.0
  0
LINE
  5
22D
  8
0
  6
CONTINUOUS
 62
     7
 10
50.4322886246
 20
-42.03247761
 30
0.0
 11
50.4322886246
 21
-43.0324777739
 31
0.0
  0
LINE
  5
22E
  8
0
  6
CONTINUOUS
 62
     7
 10
191.4322852867
 20
-36.9320798443
 30
0.0
 11
191.4322852867
 21
-39.6015655027
 31
0.0
  0
LINE
  5
22F
  8
0
  6
CONTINUOUS
 62
     7
 10
185.4322850483
 20
-36.9275513814
 30
0.0
 11
185.4322850483
 21
-39.6015655027
 31
0.0
  0
ARC
  5
230
  8
0
  6
CONTINUOUS
 62
     7
 10
186.4322857635
 20
-41.0324777828
 30
0.0
 40
1.000000000000007
 50
180.0
 51
270.0
  0
LINE
  5
231
  8
0
  6
CONTINUOUS
 62
     7
 10
185.4322850483
 20
-39.6015655027
 30
0.0
 11
185.4322850483
 21
-41.0324778186
 31
0.0
  0
LINE
  5
232
  8
0
  6
CONTINUOUS
 62
     7
 10
190.4322862404
 20
-42.03247761
 30
0.0
 11
186.4322840946
 21
-42.03247761
 31
0.0
  0
ARC
  5
233
  8
0
  6
CONTINUOUS
 62
     7
 10
190.4322857635
 20
-41.0324777828
 30
0.0
 40
1.000000000000007
 50
270.0
 51
0.0
  0
LINE
  5
234
  8
0
  6
CONTINUOUS
 62
     7
 10
191.4322852867
 20
-39.6015655027
 30
0.0
 11
191.4322852867
 21
-41.0324778186
 31
0.0
  0
LINE
  5
235
  8
0
  6
CONTINUOUS
 62
     7
 10
170.4322844522
 20
-43.0324777739
 30
0.0
 11
170.4322844522
 21
-52.6324778573
 31
0.0
  0
LINE
  5
236
  8
0
  6
CONTINUOUS
 62
     7
 10
206.4322829025
 20
-43.0324777739
 30
0.0
 11
206.4322829025
 21
-52.6324778573
 31
0.0
  0
LINE
  5
237
  8
0
  6
CONTINUOUS
 62
     7
 10
206.4322829025
 20
-53.6324776487
 30
0.0
 11
170.4322844522
 21
-53.6324776487
 31
0.0
  0
LINE
  5
238
  8
0
  6
CONTINUOUS
 62
     7
 10
170.4322844522
 20
-52.6324778573
 30
0.0
 11
170.4322844522
 21
-53.6324776487
 31
0.0
  0
LINE
  5
239
  8
0
  6
CONTINUOUS
 62
     7
 10
206.4322829025
 20
-52.6324778573
 30
0.0
 11
206.4322829025
 21
-53.6324776487
 31
0.0
  0
LINE
  5
23A
  8
0
  6
CONTINUOUS
 62
     7
 10
186.4322840946
 20
-42.03247761
 30
0.0
 11
170.4322844522
 21
-42.03247761
 31
0.0
  0
LINE
  5
23B
  8
0
  6
CONTINUOUS
 62
     7
 10
206.4322829025
 20
-42.03247761
 30
0.0
 11
190.4322862404
 21
-42.03247761
 31
0.0
  0
LINE
  5
23C
  8
0
  6
CONTINUOUS
 62
     7
 10
170.4322844522
 20
-42.03247761
 30
0.0
 11
170.4322844522
 21
-43.0324777739
 31
0.0
  0
LINE
  5
23D
  8
0
  6
CONTINUOUS
 62
     7
 10
206.4322829025
 20
-42.03247761
 30
0.0
 11
206.4322829025
 21
-43.0324777739
 31
0.0
  0
POLYLINE
  5
23E
  8
0
  6
CONTINUOUS
 62
     7
 66
     1
 10
0.0
 20
0.0
 30
0.0
  0
VERTEX
  5
63B
  8
0
  6
CONTINUOUS
 62
     7
 10
31.7322850006
 20
-67.0892458187
 30
0.0
  0
VERTEX
  5
63C
  8
0
  6
CONTINUOUS
 62
     7
 10
31.1966776627
 20
-67.7934791671
 30
0.0
  0
VERTEX
  5
63D
  8
0
  6
CONTINUOUS
 62
     7
 10
30.7322859543
 20
-68.5586686955
 30
0.0
  0
SEQEND
  5
652
  8
0
  6
CONTINUOUS
 62
     7
  0
LINE
  5
23F
  8
0
  6
CONTINUOUS
 62
     7
 10
43.0880665558
 20
-58.7378170119
 30
0.0
 11
43.2116031425
 21
-58.7324779259
 31
0.0
  0
ARC
  5
240
  8
0
  6
CONTINUOUS
 62
     7
 10
43.5718709119
 20
-73.6386480291
 30
0.0
 40
10.07562997172438
 50
100.5231352619
 51
180.5335814189
  0
ARC
  5
241
  8
0
  6
CONTINUOUS
 62
     7
 10
93.2927127381
 20
-113.8263141839
 30
0.0
 40
10.07561908403456
 50
280.5230835409
 51
0.5336080021
  0
LINE
  5
242
  8
0
  6
CONTINUOUS
 62
     7
 10
93.7642127054
 20
-128.7260930763
 30
0.0
 11
93.6529665964
 21
-128.7324767338
 31
0.0
  0
POLYLINE
  5
243
  8
0
  6
CONTINUOUS
 62
     7
 66
     1
 10
0.0
 20
0.0
 30
0.0
  0
VERTEX
  5
63E
  8
0
  6
CONTINUOUS
 62
     7
 10
105.1322862285
 20
-67.0892458187
 30
0.0
  0
VERTEX
  5
63F
  8
0
  6
CONTINUOUS
 62
     7
 10
105.6678935664
 20
-67.7934791671
 30
0.0
  0
VERTEX
  5
640
  8
0
  6
CONTINUOUS
 62
     7
 10
106.1322852748
 20
-68.5586686955
 30
0.0
  0
SEQEND
  5
651
  8
0
  6
CONTINUOUS
 62
     7
  0
ARC
  5
244
  8
0
  6
CONTINUOUS
 62
     7
 10
93.3104447938
 20
-73.6240365831
 30
0.0
 40
10.0580346790873
 50
359.3822465328
 51
79.5610367863
  0
LINE
  5
245
  8
0
  6
CONTINUOUS
 62
     7
 10
43.2116031425
 20
-128.7324767338
 30
0.0
 11
43.1184649246
 21
-128.7272255646
 31
0.0
  0
ARC
  5
246
  8
0
  6
CONTINUOUS
 62
     7
 10
43.5541188387
 20
-113.8409241178
 30
0.0
 40
10.05802562587867
 50
179.3822285381
 51
259.5610799189
  0
LINE
  5
247
  8
0
  6
CONTINUOUS
 62
     7
 10
33.4966778534
 20
-73.7324785219
 30
0.0
 11
33.4966778534
 21
-113.732479118
 31
0.0
  0
LINE
  5
248
  8
0
  6
CONTINUOUS
 62
     7
 10
103.3678948658
 20
-113.732479118
 30
0.0
 11
103.3678948658
 21
-73.7324785219
 31
0.0
  0
LINE
  5
249
  8
0
  6
CONTINUOUS
 62
     7
 10
31.7322850006
 20
-64.7203903423
 30
0.0
 11
30.7322859543
 21
-64.7203903423
 31
0.0
  0
LINE
  5
24A
  8
0
  6
CONTINUOUS
 62
     7
 10
30.7322859543
 20
-40.8719610201
 30
0.0
 11
30.7322859543
 21
-64.7203903423
 31
0.0
  0
LINE
  5
24B
  8
0
  6
CONTINUOUS
 62
     7
 10
31.7322850006
 20
-40.8719610201
 30
0.0
 11
31.7322850006
 21
-64.7203903423
 31
0.0
  0
LINE
  5
24C
  8
0
  6
CONTINUOUS
 62
     7
 10
105.1322862285
 20
-64.7203903423
 30
0.0
 11
106.1322852748
 21
-64.7203903423
 31
0.0
  0
LINE
  5
24D
  8
0
  6
CONTINUOUS
 62
     7
 10
105.1322862285
 20
-40.8719610201
 30
0.0
 11
105.1322862285
 21
-64.7203903423
 31
0.0
  0
LINE
  5
24E
  8
0
  6
CONTINUOUS
 62
     7
 10
106.1322852748
 20
-40.8719610201
 30
0.0
 11
106.1322852748
 21
-64.7203903423
 31
0.0
  0
LINE
  5
24F
  8
0
  6
CONTINUOUS
 62
     7
 10
30.7322859543
 20
-64.7203903423
 30
0.0
 11
30.7322859543
 21
-68.5586686955
 31
0.0
  0
LINE
  5
250
  8
0
  6
CONTINUOUS
 62
     7
 10
31.7322850006
 20
-64.7203903423
 30
0.0
 11
31.7322850006
 21
-67.0892458187
 31
0.0
  0
LINE
  5
251
  8
0
  6
CONTINUOUS
 62
     7
 10
105.1322862285
 20
-64.7203903423
 30
0.0
 11
105.1322862285
 21
-67.0892458187
 31
0.0
  0
LINE
  5
252
  8
0
  6
CONTINUOUS
 62
     7
 10
106.1322852748
 20
-64.7203903423
 30
0.0
 11
106.1322852748
 21
-68.5586686955
 31
0.0
  0
LINE
  5
253
  8
0
  6
CONTINUOUS
 62
     7
 10
41.7317330616
 20
-123.7324755417
 30
0.0
 11
95.1328396576
 21
-123.7324755417
 31
0.0
  0
LINE
  5
254
  8
0
  6
CONTINUOUS
 62
     7
 10
41.7317330616
 20
-63.7324776278
 30
0.0
 11
95.1328396576
 21
-63.7324776278
 31
0.0
  0
LINE
  5
255
  8
0
  6
CONTINUOUS
 62
     7
 10
43.2116031425
 20
-58.7324779259
 30
0.0
 11
93.6529665964
 21
-58.7324779259
 31
0.0
  0
LINE
  5
256
  8
0
  6
CONTINUOUS
 62
     7
 10
93.6529665964
 20
-128.7324767338
 30
0.0
 11
43.2116031425
 21
-128.7324767338
 31
0.0
  0
LINE
  5
257
  8
0
  6
CONTINUOUS
 62
     7
 10
30.7322859543
 20
-39.3292311357
 30
0.0
 11
30.7322859543
 21
-40.8719610201
 31
0.0
  0
LINE
  5
258
  8
0
  6
CONTINUOUS
 62
     7
 10
31.7322850006
 20
-39.5273338781
 30
0.0
 11
31.7322850006
 21
-40.8719610201
 31
0.0
  0
LINE
  5
259
  8
0
  6
CONTINUOUS
 62
     7
 10
105.1322862285
 20
-39.5288180338
 30
0.0
 11
105.1322862285
 21
-40.8719610201
 31
0.0
  0
LINE
  5
25A
  8
0
  6
CONTINUOUS
 62
     7
 10
106.1322852748
 20
-39.3294770048
 30
0.0
 11
106.1322852748
 21
-40.8719610201
 31
0.0
  0
LINE
  5
25B
  8
0
  6
CONTINUOUS
 62
     7
 10
35.9322845715
 20
-52.6324778573
 30
0.0
 11
35.9322845715
 21
-42.8324777411
 31
0.0
  0
LINE
  5
25C
  8
0
  6
CONTINUOUS
 62
     7
 10
100.9322851675
 20
-52.6324778573
 30
0.0
 11
100.9322851675
 21
-42.8324777411
 31
0.0
  0
LINE
  5
25D
  8
0
  6
CONTINUOUS
 62
     7
 10
35.9322845715
 20
-41.8324779497
 30
0.0
 11
31.7322850006
 21
-41.8324779497
 31
0.0
  0
LINE
  5
25E
  8
0
  6
CONTINUOUS
 62
     7
 10
35.9322845715
 20
-41.8324779497
 30
0.0
 11
35.9322845715
 21
-42.8324777411
 31
0.0
  0
LINE
  5
25F
  8
0
  6
CONTINUOUS
 62
     7
 10
105.1322862285
 20
-41.8324779497
 30
0.0
 11
100.9322851675
 21
-41.8324779497
 31
0.0
  0
LINE
  5
260
  8
0
  6
CONTINUOUS
 62
     7
 10
100.9322851675
 20
-42.8324777411
 30
0.0
 11
100.9322851675
 21
-41.8324779497
 31
0.0
  0
LINE
  5
261
  8
0
  6
CONTINUOUS
 62
     7
 10
35.9322845715
 20
-53.6324776487
 30
0.0
 11
31.7322850006
 21
-53.6324776487
 31
0.0
  0
LINE
  5
262
  8
0
  6
CONTINUOUS
 62
     7
 10
35.9322845715
 20
-52.6324778573
 30
0.0
 11
35.9322845715
 21
-53.6324776487
 31
0.0
  0
LINE
  5
263
  8
0
  6
CONTINUOUS
 62
     7
 10
105.1322862285
 20
-53.6324776487
 30
0.0
 11
100.9322851675
 21
-53.6324776487
 31
0.0
  0
LINE
  5
264
  8
0
  6
CONTINUOUS
 62
     7
 10
100.9322851675
 20
-53.6324776487
 30
0.0
 11
100.9322851675
 21
-52.6324778573
 31
0.0
  0
LINE
  5
265
  8
0
  6
CONTINUOUS
 62
     7
 10
110.9322860616
 20
-52.6324778573
 30
0.0
 11
110.9322860616
 21
-42.8324777411
 31
0.0
  0
LINE
  5
266
  8
0
  6
CONTINUOUS
 62
     7
 10
25.9322881477
 20
-42.8324777411
 30
0.0
 11
25.9322881477
 21
-41.8324779497
 31
0.0
  0
LINE
  5
267
  8
0
  6
CONTINUOUS
 62
     7
 10
30.7322859543
 20
-41.8324779497
 30
0.0
 11
25.9322881477
 21
-41.8324779497
 31
0.0
  0
LINE
  5
268
  8
0
  6
CONTINUOUS
 62
     7
 10
25.9322881477
 20
-52.6324778573
 30
0.0
 11
25.9322881477
 21
-42.8324777411
 31
0.0
  0
LINE
  5
269
  8
0
  6
CONTINUOUS
 62
     7
 10
110.9322860616
 20
-41.8324779497
 30
0.0
 11
106.1322852748
 21
-41.8324779497
 31
0.0
  0
LINE
  5
26A
  8
0
  6
CONTINUOUS
 62
     7
 10
110.9322860616
 20
-42.8324777411
 30
0.0
 11
110.9322860616
 21
-41.8324779497
 31
0.0
  0
LINE
  5
26B
  8
0
  6
CONTINUOUS
 62
     7
 10
30.7322859543
 20
-53.6324776487
 30
0.0
 11
25.9322881477
 21
-53.6324776487
 31
0.0
  0
LINE
  5
26C
  8
0
  6
CONTINUOUS
 62
     7
 10
25.9322881477
 20
-53.6324776487
 30
0.0
 11
25.9322881477
 21
-52.6324778573
 31
0.0
  0
LINE
  5
26D
  8
0
  6
CONTINUOUS
 62
     7
 10
110.9322860616
 20
-53.6324776487
 30
0.0
 11
106.1322852748
 21
-53.6324776487
 31
0.0
  0
LINE
  5
26E
  8
0
  6
CONTINUOUS
 62
     7
 10
110.9322860616
 20
-53.6324776487
 30
0.0
 11
110.9322860616
 21
-52.6324778573
 31
0.0
  0
POLYLINE
  5
26F
  8
0
  6
CONTINUOUS
 62
     7
 66
     1
 10
0.0
 20
0.0
 30
0.0
  0
VERTEX
  5
641
  8
0
  6
CONTINUOUS
 62
     7
 10
151.7322852986
 20
-67.0892458187
 30
0.0
  0
VERTEX
  5
642
  8
0
  6
CONTINUOUS
 62
     7
 10
151.1966779607
 20
-67.7934791671
 30
0.0
  0
VERTEX
  5
643
  8
0
  6
CONTINUOUS
 62
     7
 10
150.7322862523
 20
-68.5586686955
 30
0.0
  0
SEQEND
  5
650
  8
0
  6
CONTINUOUS
 62
     7
  0
LINE
  5
270
  8
0
  6
CONTINUOUS
 62
     7
 10
163.0880653637
 20
-58.7378170119
 30
0.0
 11
163.2116049307
 21
-58.7324779259
 31
0.0
  0
ARC
  5
271
  8
0
  6
CONTINUOUS
 62
     7
 10
163.5718647354
 20
-73.6386439245
 30
0.0
 40
10.07562502582518
 50
100.5231116577
 51
180.5336050231
  0
ARC
  5
272
  8
0
  6
CONTINUOUS
 62
     7
 10
213.2927065616
 20
-113.8263100792
 30
0.0
 40
10.07562402994023
 50
280.5231071452
 51
0.5335843978
  0
LINE
  5
273
  8
0
  6
CONTINUOUS
 62
     7
 10
213.7642144936
 20
-128.7260930763
 30
0.0
 11
213.6529683845
 21
-128.7324767338
 31
0.0
  0
POLYLINE
  5
274
  8
0
  6
CONTINUOUS
 62
     7
 66
     1
 10
0.0
 20
0.0
 30
0.0
  0
VERTEX
  5
644
  8
0
  6
CONTINUOUS
 62
     7
 10
225.1322865265
 20
-67.0892458187
 30
0.0
  0
VERTEX
  5
645
  8
0
  6
CONTINUOUS
 62
     7
 10
225.6678938644
 20
-67.7934791671
 30
0.0
  0
VERTEX
  5
646
  8
0
  6
CONTINUOUS
 62
     7
 10
226.1322855728
 20
-68.5586686955
 30
0.0
  0
SEQEND
  5
64F
  8
0
  6
CONTINUOUS
 62
     7
  0
ARC
  5
275
  8
0
  6
CONTINUOUS
 62
     7
 10
213.3104458899
 20
-73.6240346988
 30
0.0
 40
10.05803241131267
 50
359.3822356586
 51
79.5610476606
  0
LINE
  5
276
  8
0
  6
CONTINUOUS
 62
     7
 10
163.2116049307
 20
-128.7324767338
 30
0.0
 11
163.1184667128
 21
-128.7272255646
 31
0.0
  0
ARC
  5
277
  8
0
  6
CONTINUOUS
 62
     7
 10
163.5541199348
 20
-113.8409222335
 30
0.0
 40
10.05802789364276
 50
179.3822394123
 51
259.5610690447
  0
LINE
  5
278
  8
0
  6
CONTINUOUS
 62
     7
 10
153.4966766613
 20
-73.7324785219
 30
0.0
 11
153.4966766613
 21
-113.732479118
 31
0.0
  0
LINE
  5
279
  8
0
  6
CONTINUOUS
 62
     7
 10
223.3678936737
 20
-113.732479118
 30
0.0
 11
223.3678936737
 21
-73.7324785219
 31
0.0
  0
LINE
  5
27A
  8
0
  6
CONTINUOUS
 62
     7
 10
151.7322852986
 20
-64.7203903423
 30
0.0
 11
150.7322862523
 21
-64.7203903423
 31
0.0
  0
LINE
  5
27B
  8
0
  6
CONTINUOUS
 62
     7
 10
150.7322862523
 20
-40.8719610201
 30
0.0
 11
150.7322862523
 21
-64.7203903423
 31
0.0
  0
LINE
  5
27C
  8
0
  6
CONTINUOUS
 62
     7
 10
151.7322852986
 20
-40.8719610201
 30
0.0
 11
151.7322852986
 21
-64.7203903423
 31
0.0
  0
LINE
  5
27D
  8
0
  6
CONTINUOUS
 62
     7
 10
225.1322865265
 20
-64.7203903423
 30
0.0
 11
226.1322855728
 21
-64.7203903423
 31
0.0
  0
LINE
  5
27E
  8
0
  6
CONTINUOUS
 62
     7
 10
226.1322855728
 20
-40.8719610201
 30
0.0
 11
226.1322855728
 21
-64.7203903423
 31
0.0
  0
LINE
  5
27F
  8
0
  6
CONTINUOUS
 62
     7
 10
225.1322865265
 20
-40.8719610201
 30
0.0
 11
225.1322865265
 21
-64.7203903423
 31
0.0
  0
LINE
  5
280
  8
0
  6
CONTINUOUS
 62
     7
 10
226.1322855728
 20
-64.7203903423
 30
0.0
 11
226.1322855728
 21
-68.5586686955
 31
0.0
  0
LINE
  5
281
  8
0
  6
CONTINUOUS
 62
     7
 10
225.1322865265
 20
-64.7203903423
 30
0.0
 11
225.1322865265
 21
-67.0892458187
 31
0.0
  0
LINE
  5
282
  8
0
  6
CONTINUOUS
 62
     7
 10
150.7322862523
 20
-64.7203903423
 30
0.0
 11
150.7322862523
 21
-68.5586686955
 31
0.0
  0
LINE
  5
283
  8
0
  6
CONTINUOUS
 62
     7
 10
151.7322852986
 20
-64.7203903423
 30
0.0
 11
151.7322852986
 21
-67.0892458187
 31
0.0
  0
LINE
  5
284
  8
0
  6
CONTINUOUS
 62
     7
 10
161.7317318695
 20
-123.7324755417
 30
0.0
 11
215.1328384655
 21
-123.7324755417
 31
0.0
  0
LINE
  5
285
  8
0
  6
CONTINUOUS
 62
     7
 10
161.7317318695
 20
-63.7324776278
 30
0.0
 11
215.1328384655
 21
-63.7324776278
 31
0.0
  0
LINE
  5
286
  8
0
  6
CONTINUOUS
 62
     7
 10
163.2116049307
 20
-58.7324779259
 30
0.0
 11
213.6529683845
 21
-58.7324779259
 31
0.0
  0
LINE
  5
287
  8
0
  6
CONTINUOUS
 62
     7
 10
213.6529683845
 20
-128.7324767338
 30
0.0
 11
163.2116049307
 21
-128.7324767338
 31
0.0
  0
LINE
  5
288
  8
0
  6
CONTINUOUS
 62
     7
 10
226.1322855728
 20
-39.3294770048
 30
0.0
 11
226.1322855728
 21
-40.8719610201
 31
0.0
  0
LINE
  5
289
  8
0
  6
CONTINUOUS
 62
     7
 10
225.1322865265
 20
-39.5288180338
 30
0.0
 11
225.1322865265
 21
-40.8719610201
 31
0.0
  0
LINE
  5
28A
  8
0
  6
CONTINUOUS
 62
     7
 10
150.7322862523
 20
-39.3292311357
 30
0.0
 11
150.7322862523
 21
-40.8719610201
 31
0.0
  0
LINE
  5
28B
  8
0
  6
CONTINUOUS
 62
     7
 10
151.7322852986
 20
-39.5273338781
 30
0.0
 11
151.7322852986
 21
-40.8719610201
 31
0.0
  0
LINE
  5
28C
  8
0
  6
CONTINUOUS
 62
     7
 10
220.9322869556
 20
-52.6324778573
 30
0.0
 11
220.9322869556
 21
-42.8324777411
 31
0.0
  0
LINE
  5
28D
  8
0
  6
CONTINUOUS
 62
     7
 10
155.9322863596
 20
-52.6324778573
 30
0.0
 11
155.9322863596
 21
-42.8324777411
 31
0.0
  0
LINE
  5
28E
  8
0
  6
CONTINUOUS
 62
     7
 10
225.1322865265
 20
-41.8324779497
 30
0.0
 11
220.9322869556
 21
-41.8324779497
 31
0.0
  0
LINE
  5
28F
  8
0
  6
CONTINUOUS
 62
     7
 10
220.9322869556
 20
-42.8324777411
 30
0.0
 11
220.9322869556
 21
-41.8324779497
 31
0.0
  0
LINE
  5
290
  8
0
  6
CONTINUOUS
 62
     7
 10
155.9322863596
 20
-41.8324779497
 30
0.0
 11
151.7322852986
 21
-41.8324779497
 31
0.0
  0
LINE
  5
291
  8
0
  6
CONTINUOUS
 62
     7
 10
155.9322863596
 20
-41.8324779497
 30
0.0
 11
155.9322863596
 21
-42.8324777411
 31
0.0
  0
LINE
  5
292
  8
0
  6
CONTINUOUS
 62
     7
 10
225.1322865265
 20
-53.6324776487
 30
0.0
 11
220.9322869556
 21
-53.6324776487
 31
0.0
  0
LINE
  5
293
  8
0
  6
CONTINUOUS
 62
     7
 10
220.9322869556
 20
-53.6324776487
 30
0.0
 11
220.9322869556
 21
-52.6324778573
 31
0.0
  0
LINE
  5
294
  8
0
  6
CONTINUOUS
 62
     7
 10
155.9322863596
 20
-53.6324776487
 30
0.0
 11
151.7322852986
 21
-53.6324776487
 31
0.0
  0
LINE
  5
295
  8
0
  6
CONTINUOUS
 62
     7
 10
155.9322863596
 20
-52.6324778573
 30
0.0
 11
155.9322863596
 21
-53.6324776487
 31
0.0
  0
LINE
  5
296
  8
0
  6
CONTINUOUS
 62
     7
 10
150.7322862523
 20
-41.8324779497
 30
0.0
 11
145.9322854655
 21
-41.8324779497
 31
0.0
  0
LINE
  5
297
  8
0
  6
CONTINUOUS
 62
     7
 10
145.9322854655
 20
-42.8324777411
 30
0.0
 11
145.9322854655
 21
-41.8324779497
 31
0.0
  0
LINE
  5
298
  8
0
  6
CONTINUOUS
 62
     7
 10
145.9322854655
 20
-52.6324778573
 30
0.0
 11
145.9322854655
 21
-42.8324777411
 31
0.0
  0
LINE
  5
299
  8
0
  6
CONTINUOUS
 62
     7
 10
230.9322833794
 20
-52.6324778573
 30
0.0
 11
230.9322833794
 21
-42.8324777411
 31
0.0
  0
LINE
  5
29A
  8
0
  6
CONTINUOUS
 62
     7
 10
230.9322833794
 20
-41.8324779497
 30
0.0
 11
226.1322855728
 21
-41.8324779497
 31
0.0
  0
LINE
  5
29B
  8
0
  6
CONTINUOUS
 62
     7
 10
230.9322833794
 20
-42.8324777411
 30
0.0
 11
230.9322833794
 21
-41.8324779497
 31
0.0
  0
LINE
  5
29C
  8
0
  6
CONTINUOUS
 62
     7
 10
150.7322862523
 20
-53.6324776487
 30
0.0
 11
145.9322854655
 21
-53.6324776487
 31
0.0
  0
LINE
  5
29D
  8
0
  6
CONTINUOUS
 62
     7
 10
145.9322854655
 20
-53.6324776487
 30
0.0
 11
145.9322854655
 21
-52.6324778573
 31
0.0
  0
LINE
  5
29E
  8
0
  6
CONTINUOUS
 62
     7
 10
230.9322833794
 20
-53.6324776487
 30
0.0
 11
226.1322855728
 21
-53.6324776487
 31
0.0
  0
LINE
  5
29F
  8
0
  6
CONTINUOUS
 62
     7
 10
230.9322833794
 20
-53.6324776487
 30
0.0
 11
230.9322833794
 21
-52.6324778573
 31
0.0
  0
LINE
  5
2A0
  8
0
  6
CONTINUOUS
 62
     7
 10
24.8322844284
 20
-43.6324778722
 30
0.0
 11
24.8322844284
 21
-43.0324777739
 31
0.0
  0
ARC
  5
2A1
  8
0
  6
CONTINUOUS
 62
     7
 10
25.2322857635
 20
-43.0324777828
 30
0.0
 40
0.3999999999999986
 50
90.0
 51
180.0
  0
LINE
  5
2A2
  8
0
  6
CONTINUOUS
 62
     7
 10
25.2322911995
 20
-42.6324777083
 30
0.0
 11
25.9322881477
 21
-42.6324777083
 31
0.0
  0
LINE
  5
2A3
  8
0
  6
CONTINUOUS
 62
     7
 10
35.9322845715
 20
-42.6324777083
 30
0.0
 11
50.4322886246
 21
-42.6324777083
 31
0.0
  0
LINE
  5
2A4
  8
0
  6
CONTINUOUS
 62
     7
 10
86.4322870748
 20
-42.6324777083
 30
0.0
 11
100.9322851675
 21
-42.6324777083
 31
0.0
  0
LINE
  5
2A5
  8
0
  6
CONTINUOUS
 62
     7
 10
110.9322860616
 20
-42.6324777083
 30
0.0
 11
145.9322854655
 21
-42.6324777083
 31
0.0
  0
LINE
  5
2A6
  8
0
  6
CONTINUOUS
 62
     7
 10
155.9322863596
 20
-42.6324777083
 30
0.0
 11
170.4322844522
 21
-42.6324777083
 31
0.0
  0
LINE
  5
2A7
  8
0
  6
CONTINUOUS
 62
     7
 10
206.4322829025
 20
-42.6324777083
 30
0.0
 11
220.9322869556
 21
-42.6324777083
 31
0.0
  0
LINE
  5
2A8
  8
0
  6
CONTINUOUS
 62
     7
 10
230.9322833794
 20
-42.6324777083
 30
0.0
 11
231.6322803276
 21
-42.6324777083
 31
0.0
  0
LINE
  5
2A9
  8
0
  6
CONTINUOUS
 62
     7
 10
232.0322870987
 20
-43.0324777739
 30
0.0
 11
232.0322870987
 21
-43.6324778722
 31
0.0
  0
ARC
  5
2AA
  8
0
  6
CONTINUOUS
 62
     7
 10
231.6322857635
 20
-43.0324777828
 30
0.0
 40
0.4000000000000057
 50
0.0
 51
90.0
  0
LINE
  5
2AB
  8
0
  6
CONTINUOUS
 62
     7
 10
232.0322870987
 20
-43.6324778722
 30
0.0
 11
232.0322870987
 21
-51.6324776934
 31
0.0
  0
LINE
  5
2AC
  8
0
  6
CONTINUOUS
 62
     7
 10
24.8322844284
 20
-51.6324776934
 30
0.0
 11
24.8322844284
 21
-43.6324778722
 31
0.0
  0
ARC
  5
2AD
  8
0
  6
CONTINUOUS
 62
     7
 10
25.2322857635
 20
-52.2324777828
 30
0.0
 40
0.3999999999999986
 50
180.0
 51
270.0
  0
LINE
  5
2AE
  8
0
  6
CONTINUOUS
 62
     7
 10
24.8322844284
 20
-52.2324777917
 30
0.0
 11
24.8322844284
 21
-51.6324776934
 31
0.0
  0
LINE
  5
2AF
  8
0
  6
CONTINUOUS
 62
     7
 10
232.0322870987
 20
-51.6324776934
 30
0.0
 11
232.0322870987
 21
-52.2324777917
 31
0.0
  0
ARC
  5
2B0
  8
0
  6
CONTINUOUS
 62
     7
 10
231.6322857635
 20
-52.2324777828
 30
0.0
 40
0.4000000000000057
 50
270.0
 51
0.0
  0
LINE
  5
2B1
  8
0
  6
CONTINUOUS
 62
     7
 10
231.6322803276
 20
-52.6324778573
 30
0.0
 11
230.9322833794
 21
-52.6324778573
 31
0.0
  0
LINE
  5
2B2
  8
0
  6
CONTINUOUS
 62
     7
 10
220.9322869556
 20
-52.6324778573
 30
0.0
 11
206.4322829025
 21
-52.6324778573
 31
0.0
  0
LINE
  5
2B3
  8
0
  6
CONTINUOUS
 62
     7
 10
170.4322844522
 20
-52.6324778573
 30
0.0
 11
155.9322863596
 21
-52.6324778573
 31
0.0
  0
LINE
  5
2B4
  8
0
  6
CONTINUOUS
 62
     7
 10
145.9322854655
 20
-52.6324778573
 30
0.0
 11
110.9322860616
 21
-52.6324778573
 31
0.0
  0
LINE
  5
2B5
  8
0
  6
CONTINUOUS
 62
     7
 10
100.9322851675
 20
-52.6324778573
 30
0.0
 11
86.4322870748
 21
-52.6324778573
 31
0.0
  0
LINE
  5
2B6
  8
0
  6
CONTINUOUS
 62
     7
 10
50.4322886246
 20
-52.6324778573
 30
0.0
 11
35.9322845715
 21
-52.6324778573
 31
0.0
  0
LINE
  5
2B7
  8
0
  6
CONTINUOUS
 62
     7
 10
25.9322881477
 20
-52.6324778573
 30
0.0
 11
25.2322911995
 21
-52.6324778573
 31
0.0
  0
ARC
  5
2B8
  8
0
  6
CONTINUOUS
 62
     7
 10
121.4322857635
 20
-41.6324777828
 30
0.0
 40
80.00000000000001
 50
187.9032077335
 51
192.3422028872
  0
LINE
  5
2B9
  8
0
  6
CONTINUOUS
 62
     7
 10
41.4385378139
 20
-42.6324777083
 30
0.0
 11
41.4322852867
 21
-41.6324779169
 31
0.0
  0
LINE
  5
2BA
  8
0
  6
CONTINUOUS
 62
     7
 10
41.4322852867
 20
-39.6324779616
 30
0.0
 11
41.4322852867
 21
-41.6324779169
 31
0.0
  0
ARC
  5
2BB
  8
0
  6
CONTINUOUS
 62
     7
 10
61.4322857635
 20
-39.6324777828
 30
0.0
 40
4.0
 50
0.0
 51
42.3395639092
  0
LINE
  5
2BC
  8
0
  6
CONTINUOUS
 62
     7
 10
65.4322862404
 20
-41.6324779169
 30
0.0
 11
65.4322862404
 21
-41.0324778186
 31
0.0
  0
LINE
  5
2BD
  8
0
  6
CONTINUOUS
 62
     7
 10
65.4322862404
 20
-41.6324779169
 30
0.0
 11
65.4312848824
 21
-42.03247761
 31
0.0
  0
ARC
  5
2BE
  8
0
  6
CONTINUOUS
 62
     7
 10
-14.5677142365
 20
-41.6324777828
 30
0.0
 40
80.0
 50
347.6577971128
 51
351.3730734413
  0
ARC
  5
2BF
  8
0
  6
CONTINUOUS
 62
     7
 10
45.4322857635
 20
-39.6324777828
 30
0.0
 40
1.50000000000001
 50
270.0
 51
66.6219492715
  0
ARC
  5
2C0
  8
0
  6
CONTINUOUS
 62
     7
 10
45.4322857635
 20
-39.6324777828
 30
0.0
 40
1.5
 50
126.6959892436
 51
270.0
  0
CIRCLE
  5
2C1
  8
0
  6
CONTINUOUS
 62
     7
 10
61.4322857635
 20
-39.6324777828
 30
0.0
 40
1.5
  0
POLYLINE
  5
2C2
  8
0
  6
CONTINUOUS
 62
     7
 66
     1
 10
0.0
 20
0.0
 30
0.0
  0
VERTEX
  5
647
  8
0
  6
CONTINUOUS
 62
     7
 10
41.510260083
 20
-38.846535586
 30
0.0
  0
VERTEX
  5
648
  8
0
  6
CONTINUOUS
 62
     7
 10
41.4730012196
 20
-39.0632185863
 30
0.0
  0
VERTEX
  5
649
  8
0
  6
CONTINUOUS
 62
     7
 10
41.4322852867
 20
-39.6324779616
 30
0.0
  0
SEQEND
  5
64E
  8
0
  6
CONTINUOUS
 62
     7
  0
LINE
  5
2C3
  8
0
  6
CONTINUOUS
 62
     7
 10
215.4322862404
 20
-41.6324779169
 30
0.0
 11
215.4322862404
 21
-39.6324779616
 31
0.0
  0
LINE
  5
2C4
  8
0
  6
CONTINUOUS
 62
     7
 10
215.4322862404
 20
-41.6324779169
 30
0.0
 11
215.4260337131
 21
-42.6324777083
 31
0.0
  0
ARC
  5
2C5
  8
0
  6
CONTINUOUS
 62
     7
 10
135.4322857635
 20
-41.6324777828
 30
0.0
 40
80.00000000000003
 50
347.6577971128
 51
352.0967922665
  0
ARC
  5
2C6
  8
0
  6
CONTINUOUS
 62
     7
 10
271.4322857635
 20
-41.6324777828
 30
0.0
 40
79.99999999999994
 50
188.6269265587
 51
192.3422028872
  0
LINE
  5
2C7
  8
0
  6
CONTINUOUS
 62
     7
 10
191.4332866447
 20
-42.03247761
 30
0.0
 11
191.4322852867
 21
-41.6324779169
 31
0.0
  0
LINE
  5
2C8
  8
0
  6
CONTINUOUS
 62
     7
 10
191.4322852867
 20
-41.0324778186
 30
0.0
 11
191.4322852867
 21
-41.6324779169
 31
0.0
  0
ARC
  5
2C9
  8
0
  6
CONTINUOUS
 62
     7
 10
211.4322857635
 20
-39.6324777828
 30
0.0
 40
1.500000000000014
 50
114.2154858328
 51
51.3575194393
  0
CIRCLE
  5
2CA
  8
0
  6
CONTINUOUS
 62
     7
 10
195.4322857635
 20
-39.6324777828
 30
0.0
 40
1.500000000000014
  0
ARC
  5
2CB
  8
0
  6
CONTINUOUS
 62
     7
 10
195.4322857635
 20
-39.6324777828
 30
0.0
 40
4.00000000000002
 50
137.5994299178
 51
180.0
  0
POLYLINE
  5
2CC
  8
0
  6
CONTINUOUS
 62
     7
 66
     1
 10
0.0
 20
0.0
 30
0.0
  0
VERTEX
  5
64A
  8
0
  6
CONTINUOUS
 62
     7
 10
215.4322862404
 20
-39.6324779616
 30
0.0
  0
VERTEX
  5
64B
  8
0
  6
CONTINUOUS
 62
     7
 10
215.3915703075
 20
-39.0632185863
 30
0.0
  0
VERTEX
  5
64C
  8
0
  6
CONTINUOUS
 62
     7
 10
215.3538703697
 20
-38.8443346845
 30
0.0
  0
SEQEND
  5
64D
  8
0
  6
CONTINUOUS
 62
     7
  0
ENDSEC
  0
EOF
