  0
SECTION
  2
HEADER
  9
$ACADVER
  1
AC1009
  9
$DWGCODEPAGE
  3
ansi_1252
  9
$INSBASE
 10
0.0
 20
0.0
 30
0.0
  9
$EXTMIN
 10
0.0
 20
0.0
 30
0.0
  9
$EXTMAX
 10
420.0
 20
297.0
 30
0.0
  9
$LIMMIN
 10
0.0
 20
0.0
  9
$LIMMAX
 10
420.0
 20
297.0
  9
$ORTHOMODE
 70
     0
  9
$REGENMODE
 70
     1
  9
$FILLMODE
 70
     1
  9
$QTEXTMODE
 70
     0
  9
$MIRRTEXT
 70
     1
  9
$DRAGMODE
 70
     2
  9
$LTSCALE
 40
1.0
  9
$OSMODE
 70
    37
  9
$ATTMODE
 70
     1
  9
$TEXTSIZE
 40
3.5
  9
$TRACEWID
 40
1.0
  9
$TEXTSTYLE
  7
STANDARD
  9
$CLAYER
  8
0
  9
$CELTYPE
  6
BYLAYER
  9
$CECOLOR
 62
   256
  9
$DIMSCALE
 40
1.0
  9
$DIMASZ
 40
4.0
  9
$DIMEXO
 40
0.0
  9
$DIMDLI
 40
3.75
  9
$DIMRND
 40
0.0
  9
$DIMDLE
 40
0.0
  9
$DIMEXE
 40
2.0
  9
$DIMTP
 40
0.0
  9
$DIMTM
 40
0.0
  9
$DIMTXT
 40
3.5
  9
$DIMCEN
 40
2.5
  9
$DIMTSZ
 40
0.0
  9
$DIMTOL
 70
     0
  9
$DIMLIM
 70
     0
  9
$DIMTIH
 70
     1
  9
$DIMTOH
 70
     1
  9
$DIMSE1
 70
     0
  9
$DIMSE2
 70
     0
  9
$DIMTAD
 70
     1
  9
$DIMZIN
 70
     0
  9
$DIMBLK
  1

  9
$DIMASO
 70
     1
  9
$DIMSHO
 70
     1
  9
$DIMPOST
  1

  9
$DIMAPOST
  1

  9
$DIMALT
 70
     0
  9
$DIMALTD
 70
     3
  9
$DIMALTF
 40
0.0393700787
  9
$DIMLFAC
 40
5.0
  9
$DIMTOFL
 70
     1
  9
$DIMTVP
 40
0.0
  9
$DIMTIX
 70
     0
  9
$DIMSOXD
 70
     0
  9
$DIMSAH
 70
     0
  9
$DIMBLK1
  1

  9
$DIMBLK2
  1

  9
$DIMSTYLE
  2
ISO-25
  9
$DIMCLRD
 70
     0
  9
$DIMCLRE
 70
     0
  9
$DIMCLRT
 70
     0
  9
$DIMTFAC
 40
1.0
  9
$DIMGAP
 40
1.524
  9
$LUNITS
 70
     2
  9
$LUPREC
 70
     2
  9
$SKETCHINC
 40
1.0
  9
$FILLETRAD
 40
10.0
  9
$AUNITS
 70
     0
  9
$AUPREC
 70
     2
  9
$MENU
  1
.
  9
$ELEVATION
 40
0.0
  9
$PELEVATION
 40
0.0
  9
$THICKNESS
 40
0.0
  9
$LIMCHECK
 70
     0
  9
$CHAMFERA
 40
10.0
  9
$CHAMFERB
 40
10.0
  9
$SKPOLY
 70
     0
  9
$TDCREATE
 40
2457802.530622917
  9
$TDUPDATE
 40
2457802.53062309
  9
$TDINDWG
 40
0.0000000116
  9
$TDUSRTIMER
 40
0.0000000116
  9
$USRTIMER
 70
     1
  9
$ANGBASE
 50
0.0
  9
$ANGDIR
 70
     0
  9
$PDMODE
 70
     0
  9
$PDSIZE
 40
-1.0
  9
$PLINEWID
 40
0.0
  9
$COORDS
 70
     1
  9
$SPLFRAME
 70
     0
  9
$SPLINETYPE
 70
     6
  9
$SPLINESEGS
 70
     8
  9
$ATTDIA
 70
     0
  9
$ATTREQ
 70
     1
  9
$HANDLING
 70
     1
  9
$HANDSEED
  5
20C
  9
$SURFTAB1
 70
     6
  9
$SURFTAB2
 70
     6
  9
$SURFTYPE
 70
     6
  9
$SURFU
 70
     6
  9
$SURFV
 70
     6
  9
$UCSNAME
  2

  9
$UCSORG
 10
0.0
 20
0.0
 30
0.0
  9
$UCSXDIR
 10
1.0
 20
0.0
 30
0.0
  9
$UCSYDIR
 10
0.0
 20
1.0
 30
0.0
  9
$PUCSNAME
  2

  9
$PUCSORG
 10
0.0
 20
0.0
 30
0.0
  9
$PUCSXDIR
 10
1.0
 20
0.0
 30
0.0
  9
$PUCSYDIR
 10
0.0
 20
1.0
 30
0.0
  9
$USERI1
 70
     0
  9
$USERI2
 70
     0
  9
$USERI3
 70
     0
  9
$USERI4
 70
     0
  9
$USERI5
 70
     0
  9
$USERR1
 40
0.0
  9
$USERR2
 40
0.0
  9
$USERR3
 40
0.0
  9
$USERR4
 40
0.0
  9
$USERR5
 40
0.0
  9
$WORLDVIEW
 70
     1
  9
$SHADEDGE
 70
     3
  9
$SHADEDIF
 70
    70
  9
$TILEMODE
 70
     1
  9
$MAXACTVP
 70
    64
  9
$PLIMCHECK
 70
     0
  9
$PEXTMIN
 10
1.0000000000E+20
 20
1.0000000000E+20
 30
1.0000000000E+20
  9
$PEXTMAX
 10
-1.0000000000E+20
 20
-1.0000000000E+20
 30
-1.0000000000E+20
  9
$PLIMMIN
 10
0.0
 20
0.0
  9
$PLIMMAX
 10
420.0
 20
297.0
  9
$UNITMODE
 70
     0
  9
$VISRETAIN
 70
     1
  9
$PLINEGEN
 70
     0
  9
$PSLTSCALE
 70
     1
  0
ENDSEC
  0
SECTION
  2
TABLES
  0
TABLE
  2
VPORT
 70
     1
  0
VPORT
  2
*ACTIVE
 70
     0
 10
0.0
 20
0.0
 11
1.0
 21
1.0
 12
210.0
 22
148.5
 13
0.0
 23
0.0
 14
10.0
 24
10.0
 15
10.0
 25
10.0
 16
0.0
 26
0.0
 36
1.0
 17
0.0
 27
0.0
 37
0.0
 40
297.0
 41
1.4141414141
 42
50.0
 43
0.0
 44
0.0
 50
0.0
 51
0.0
 71
     0
 72
  2000
 73
     1
 74
     3
 75
     0
 76
     0
 77
     0
 78
     0
  0
ENDTAB
  0
TABLE
  2
LTYPE
 70
     6
  0
LTYPE
  2
CONTINUOUS
 70
     0
  3
Solid line
 72
    65
 73
     0
 40
0.0
  0
LTYPE
  2
HIDDEN
 70
     0
  3
Hidden __ __ __ __ __ __ __ __ __ __ __ __ __ __
 72
    65
 73
     2
 40
1.905
 49
1.27
 49
-0.635
  0
LTYPE
  2
PHANTOM
 70
     0
  3
Phantom ______  __  __  ______  __  __  ______
 72
    65
 73
     6
 40
12.7
 49
6.35
 49
-1.27
 49
1.27
 49
-1.27
 49
1.27
 49
-1.27
  0
LTYPE
  2
CENTER
 70
     0
  3
Center ____ _ ____ _ ____ _ ____ _ ____ _ ____
 72
    65
 73
     4
 40
10.16
 49
6.35
 49
-1.27
 49
1.27
 49
-1.27
  0
LTYPE
  2
CENTERX2
 70
     0
  3
Center (2x) ________  __  ________  __  _____
 72
    65
 73
     4
 40
20.32
 49
12.7
 49
-2.54
 49
2.54
 49
-2.54
  0
LTYPE
  2
DOT2
 70
     0
  3
Dot (.5x) ........................................
 72
    65
 73
     2
 40
0.635
 49
0.0
 49
-0.635
  0
ENDTAB
  0
TABLE
  2
LAYER
 70
     2
  0
LAYER
  2
0
 70
     0
 62
     7
  6
CONTINUOUS
  0
LAYER
  2
FORMAT
 70
     0
 62
     7
  6
CONTINUOUS
  0
ENDTAB
  0
TABLE
  2
STYLE
 70
     1
  0
STYLE
  2
STANDARD
 70
     0
 40
0.0
 41
1.0
 50
0.0
 71
     0
 42
3.5
  3
txt
  4

  0
ENDTAB
  0
TABLE
  2
VIEW
 70
     0
  0
ENDTAB
  0
TABLE
  2
UCS
 70
     0
  0
ENDTAB
  0
TABLE
  2
APPID
 70
     1
  0
APPID
  2
ACAD
 70
     0
  0
ENDTAB
  0
TABLE
  2
DIMSTYLE
 70
     1
  0
DIMSTYLE
  2
ISO-25
 70
     0
  3

  4

  5

  6

  7

 40
1.0
 41
2.5
 42
0.625
 43
3.75
 44
1.25
 45
0.0
 46
0.0
 47
0.0
 48
0.0
140
2.5
141
2.5
142
0.0
143
0.0393700787
144
1.0
145
0.0
146
1.0
147
0.625
 71
     0
 72
     0
 73
     0
 74
     0
 75
     0
 76
     0
 77
     1
 78
     8
170
     0
171
     3
172
     1
173
     0
174
     0
175
     0
176
     0
177
     0
178
     0
  0
ENDTAB
  0
ENDSEC
  0
SECTION
  2
BLOCKS
  0
BLOCK
  8
0
  2
$MODEL_SPACE
 70
     0
 10
0.0
 20
0.0
 30
0.0
  3
$MODEL_SPACE
  1

  0
ENDBLK
  5
21
  8
0
  0
BLOCK
 67
     1
  8
0
  2
$PAPER_SPACE
 70
     0
 10
0.0
 20
0.0
 30
0.0
  3
$PAPER_SPACE
  1

  0
ENDBLK
  5
1D
 67
     1
  8
0
  0
ENDSEC
  0
SECTION
  2
ENTITIES
  0
LINE
  5
45
  8
0
  6
CONTINUOUS
 62
     7
 10
153.9524385749
 20
273.6721395193
 30
0.0
 11
153.9524385749
 21
258.6721419035
 31
0.0
  0
LINE
  5
46
  8
0
  6
CONTINUOUS
 62
     7
 10
159.3524346172
 20
258.6721419035
 30
0.0
 11
159.3524346172
 21
273.6721395193
 31
0.0
  0
LINE
  5
47
  8
0
  6
CONTINUOUS
 62
     7
 10
159.3524346172
 20
242.0721410452
 30
0.0
 11
159.3524346172
 21
258.6721419035
 31
0.0
  0
LINE
  5
48
  8
0
  6
CONTINUOUS
 62
     7
 10
153.9524385749
 20
258.6721419035
 30
0.0
 11
153.9524385749
 21
242.0721410452
 31
0.0
  0
LINE
  5
49
  8
0
  6
CONTINUOUS
 62
     7
 10
153.9524385749
 20
242.0721410452
 30
0.0
 11
153.9524385749
 21
227.0721434293
 31
0.0
  0
LINE
  5
4A
  8
0
  6
CONTINUOUS
 62
     7
 10
159.3524346172
 20
227.0721434293
 30
0.0
 11
159.3524346172
 21
242.0721410452
 31
0.0
  0
LINE
  5
4B
  8
0
  6
CONTINUOUS
 62
     7
 10
39.3524358093
 20
242.0721410452
 30
0.0
 11
39.3524358093
 21
258.6721419035
 31
0.0
  0
LINE
  5
4C
  8
0
  6
CONTINUOUS
 62
     7
 10
33.952439767
 20
258.6721419035
 30
0.0
 11
33.952439767
 21
242.0721410452
 31
0.0
  0
LINE
  5
4D
  8
0
  6
CONTINUOUS
 62
     7
 10
33.952439767
 20
273.6721395193
 30
0.0
 11
33.952439767
 21
258.6721419035
 31
0.0
  0
LINE
  5
4E
  8
0
  6
CONTINUOUS
 62
     7
 10
39.3524358093
 20
258.6721419035
 30
0.0
 11
39.3524358093
 21
273.6721395193
 31
0.0
  0
LINE
  5
4F
  8
0
  6
CONTINUOUS
 62
     7
 10
33.952439767
 20
242.0721410452
 30
0.0
 11
33.952439767
 21
227.0721434293
 31
0.0
  0
LINE
  5
50
  8
0
  6
CONTINUOUS
 62
     7
 10
39.3524358093
 20
227.0721434293
 30
0.0
 11
39.3524358093
 21
242.0721410452
 31
0.0
  0
POLYLINE
  5
51
  8
0
  6
CONTINUOUS
 62
     7
 66
     1
 10
0.0
 20
0.0
 30
0.0
  0
VERTEX
  5
1A1
  8
0
  6
CONTINUOUS
 62
     7
 10
133.5522601425
 20
251.6008495031
 30
0.0
  0
VERTEX
  5
1A2
  8
0
  6
CONTINUOUS
 62
     7
 10
133.5467020094
 20
251.5998839079
 30
0.0
  0
VERTEX
  5
1A3
  8
0
  6
CONTINUOUS
 62
     7
 10
133.5456470071
 20
251.599693173
 30
0.0
  0
SEQEND
  5
20B
  8
0
  6
CONTINUOUS
 62
     7
  0
POLYLINE
  5
52
  8
0
  6
CONTINUOUS
 62
     7
 66
     1
 10
0.0
 20
0.0
 30
0.0
  0
VERTEX
  5
1A4
  8
0
  6
CONTINUOUS
 62
     7
 10
59.7595522224
 20
251.599603766
 30
0.0
  0
VERTEX
  5
1A5
  8
0
  6
CONTINUOUS
 62
     7
 10
59.7585598051
 20
251.5997885404
 30
0.0
  0
VERTEX
  5
1A6
  8
0
  6
CONTINUOUS
 62
     7
 10
59.7476432144
 20
251.6016720472
 30
0.0
  0
SEQEND
  5
20A
  8
0
  6
CONTINUOUS
 62
     7
  0
LINE
  5
53
  8
0
  6
CONTINUOUS
 62
     7
 10
59.7593018829
 20
251.5996633707
 30
0.0
 11
59.7519228279
 21
251.6009746729
 31
0.0
  0
LINE
  5
54
  8
0
  6
CONTINUOUS
 62
     7
 10
134.469966036
 20
246.2984799085
 30
0.0
 11
134.5266083299
 21
246.3099061189
 31
0.0
  0
ARC
  5
55
  8
0
  6
CONTINUOUS
 62
     7
 10
42.5686930443
 20
165.7585844639
 30
0.0
 40
82.16607885248807
 50
78.4982753699
 51
78.6264649151
  0
LINE
  5
56
  8
0
  6
CONTINUOUS
 62
     7
 10
58.7667474567
 20
246.3122068582
 30
0.0
 11
58.7712148248
 21
246.311318749
 31
0.0
  0
ARC
  5
57
  8
0
  6
CONTINUOUS
 62
     7
 10
156.6524371921
 20
273.6721428571
 30
0.0
 40
2.700000000000017
 50
0.0
 51
180.0
  0
ARC
  5
58
  8
0
  6
CONTINUOUS
 62
     7
 10
156.6524371921
 20
227.0721428571
 30
0.0
 40
2.700000000000017
 50
180.0
 51
0.0
  0
ARC
  5
59
  8
0
  6
CONTINUOUS
 62
     7
 10
160.6524371921
 20
225.8721428571
 30
0.0
 40
2.0
 50
270.0
 51
0.0
  0
LINE
  5
5A
  8
0
  6
CONTINUOUS
 62
     7
 10
160.6524357616
 20
223.8721429048
 30
0.0
 11
152.6524374305
 21
223.8721429048
 31
0.0
  0
ARC
  5
5B
  8
0
  6
CONTINUOUS
 62
     7
 10
152.6524371921
 20
225.8721428571
 30
0.0
 40
2.0
 50
180.0
 51
270.0
  0
LINE
  5
5C
  8
0
  6
CONTINUOUS
 62
     7
 10
150.6524393379
 20
232.4721454321
 30
0.0
 11
150.6524393379
 21
225.8721409975
 31
0.0
  0
LINE
  5
5D
  8
0
  6
CONTINUOUS
 62
     7
 10
162.6524398147
 20
232.4721454321
 30
0.0
 11
162.6524398147
 21
225.8721409975
 31
0.0
  0
LINE
  5
5E
  8
0
  6
CONTINUOUS
 62
     7
 10
150.6524393379
 20
232.4721454321
 30
0.0
 11
150.6524393379
 21
233.6721419035
 31
0.0
  0
LINE
  5
5F
  8
0
  6
CONTINUOUS
 62
     7
 10
150.6524393379
 20
233.6721419035
 30
0.0
 11
153.9524385749
 21
233.6721419035
 31
0.0
  0
LINE
  5
60
  8
0
  6
CONTINUOUS
 62
     7
 10
159.3524346172
 20
233.6721419035
 30
0.0
 11
162.6524398147
 21
233.6721419035
 31
0.0
  0
LINE
  5
61
  8
0
  6
CONTINUOUS
 62
     7
 10
162.6524398147
 20
233.6721419035
 30
0.0
 11
162.6524398147
 21
232.4721454321
 31
0.0
  0
ARC
  5
62
  8
0
  6
CONTINUOUS
 62
     7
 10
36.6524371921
 20
273.6721428571
 30
0.0
 40
2.70000000000001
 50
0.0
 51
180.0
  0
ARC
  5
63
  8
0
  6
CONTINUOUS
 62
     7
 10
36.6524371921
 20
227.0721428571
 30
0.0
 40
2.70000000000001
 50
180.0
 51
0.0
  0
ARC
  5
64
  8
0
  6
CONTINUOUS
 62
     7
 10
40.6524371921
 20
225.8721428571
 30
0.0
 40
2.0
 50
270.0
 51
0.0
  0
LINE
  5
65
  8
0
  6
CONTINUOUS
 62
     7
 10
40.6524369537
 20
223.8721429048
 30
0.0
 11
32.6524386226
 21
223.8721429048
 31
0.0
  0
ARC
  5
66
  8
0
  6
CONTINUOUS
 62
     7
 10
32.6524371921
 20
225.8721428571
 30
0.0
 40
2.000000000000004
 50
180.0
 51
270.0
  0
LINE
  5
67
  8
0
  6
CONTINUOUS
 62
     7
 10
30.6524345695
 20
232.4721454321
 30
0.0
 11
30.6524345695
 21
225.8721409975
 31
0.0
  0
LINE
  5
68
  8
0
  6
CONTINUOUS
 62
     7
 10
42.6524350464
 20
232.4721454321
 30
0.0
 11
42.6524350464
 21
225.8721409975
 31
0.0
  0
LINE
  5
69
  8
0
  6
CONTINUOUS
 62
     7
 10
30.6524345695
 20
233.6721419035
 30
0.0
 11
33.952439767
 21
233.6721419035
 31
0.0
  0
LINE
  5
6A
  8
0
  6
CONTINUOUS
 62
     7
 10
39.3524358093
 20
233.6721419035
 30
0.0
 11
42.6524350464
 21
233.6721419035
 31
0.0
  0
LINE
  5
6B
  8
0
  6
CONTINUOUS
 62
     7
 10
42.6524350464
 20
233.6721419035
 30
0.0
 11
42.6524350464
 21
232.4721454321
 31
0.0
  0
LINE
  5
6C
  8
0
  6
CONTINUOUS
 62
     7
 10
30.6524345695
 20
232.4721454321
 30
0.0
 11
30.6524345695
 21
233.6721419035
 31
0.0
  0
LINE
  5
6D
  8
0
  6
CONTINUOUS
 62
     7
 10
93.2381527542
 20
157.6721428571
 30
0.0
 11
89.4795062064
 21
157.6721428571
 31
0.0
  0
LINE
  5
6E
  8
0
  6
CONTINUOUS
 62
     7
 10
89.4795062064
 20
158.8721428676
 30
0.0
 11
93.2381527542
 21
158.8721428676
 31
0.0
  0
LINE
  5
6F
  8
0
  6
CONTINUOUS
 62
     7
 10
103.8253681778
 20
157.6721428571
 30
0.0
 11
100.06672163
 21
157.6721428571
 31
0.0
  0
LINE
  5
70
  8
0
  6
CONTINUOUS
 62
     7
 10
100.06672163
 20
158.8721428676
 30
0.0
 11
103.8253681778
 21
158.8721428676
 31
0.0
  0
LINE
  5
71
  8
0
  6
CONTINUOUS
 62
     7
 10
93.2381527542
 20
157.6721428571
 30
0.0
 11
100.06672163
 21
157.6721428571
 31
0.0
  0
LINE
  5
72
  8
0
  6
CONTINUOUS
 62
     7
 10
93.2381527542
 20
158.8721428676
 30
0.0
 11
100.06672163
 21
158.8721428676
 31
0.0
  0
LINE
  5
73
  8
0
  6
CONTINUOUS
 62
     7
 10
84.6524374603
 20
157.6721428571
 30
0.0
 11
84.6524374603
 21
158.8721428676
 31
0.0
  0
LINE
  5
74
  8
0
  6
CONTINUOUS
 62
     7
 10
84.6524374603
 20
157.6721428571
 30
0.0
 11
89.4795062064
 21
157.6721428571
 31
0.0
  0
LINE
  5
75
  8
0
  6
CONTINUOUS
 62
     7
 10
89.4795062064
 20
158.8721428676
 30
0.0
 11
84.6524374603
 21
158.8721428676
 31
0.0
  0
LINE
  5
76
  8
0
  6
CONTINUOUS
 62
     7
 10
108.6524369239
 20
157.6721428571
 30
0.0
 11
108.6524369239
 21
158.8721428676
 31
0.0
  0
LINE
  5
77
  8
0
  6
CONTINUOUS
 62
     7
 10
103.8253681778
 20
157.6721428571
 30
0.0
 11
108.6524369239
 21
157.6721428571
 31
0.0
  0
LINE
  5
78
  8
0
  6
CONTINUOUS
 62
     7
 10
108.6524369239
 20
158.8721428676
 30
0.0
 11
103.8253681778
 21
158.8721428676
 31
0.0
  0
LINE
  5
79
  8
0
  6
CONTINUOUS
 62
     7
 10
27.8524348556
 20
231.8721412359
 30
0.0
 11
27.8524348556
 21
232.4721454321
 31
0.0
  0
ARC
  5
7A
  8
0
  6
CONTINUOUS
 62
     7
 10
28.2524371921
 20
232.4721428571
 30
0.0
 40
0.4000000000000057
 50
90.0
 51
180.0
  0
LINE
  5
7B
  8
0
  6
CONTINUOUS
 62
     7
 10
27.8524348556
 20
223.2721446691
 30
0.0
 11
27.8524348556
 21
223.8721429048
 31
0.0
  0
ARC
  5
7C
  8
0
  6
CONTINUOUS
 62
     7
 10
28.2524371921
 20
223.2721428571
 30
0.0
 40
0.4000000000000341
 50
180.0
 51
270.0
  0
POLYLINE
  5
7D
  8
0
  6
CONTINUOUS
 62
     7
 66
     1
 10
0.0
 20
0.0
 30
0.0
  0
VERTEX
  5
1A7
  8
0
  6
CONTINUOUS
 62
     7
 10
100.6524371027
 20
223.8721429048
 30
0.0
  0
VERTEX
  5
1A8
  8
0
  6
CONTINUOUS
 62
     7
 10
100.8475275754
 20
223.677050942
 30
0.0
  0
VERTEX
  5
1A9
  8
0
  6
CONTINUOUS
 62
     7
 10
101.0351205289
 20
223.4894572435
 30
0.0
  0
VERTEX
  5
1AA
  8
0
  6
CONTINUOUS
 62
     7
 10
101.2080075263
 20
223.3165739713
 30
0.0
  0
VERTEX
  5
1AB
  8
0
  6
CONTINUOUS
 62
     7
 10
101.35954414
 20
223.1650351225
 30
0.0
  0
VERTEX
  5
1AC
  8
0
  6
CONTINUOUS
 62
     7
 10
101.4839066236
 20
223.0406759916
 30
0.0
  0
VERTEX
  5
1AD
  8
0
  6
CONTINUOUS
 62
     7
 10
101.5763165473
 20
222.9482649503
 30
0.0
  0
VERTEX
  5
1AE
  8
0
  6
CONTINUOUS
 62
     7
 10
101.6332225918
 20
222.891360396
 30
0.0
  0
VERTEX
  5
1AF
  8
0
  6
CONTINUOUS
 62
     7
 10
101.6524372666
 20
222.8721438585
 30
0.0
  0
SEQEND
  5
209
  8
0
  6
CONTINUOUS
 62
     7
  0
LINE
  5
7E
  8
0
  6
CONTINUOUS
 62
     7
 10
101.6524372666
 20
222.8721438585
 30
0.0
 11
101.6524372666
 21
158.8721428676
 31
0.0
  0
LINE
  5
7F
  8
0
  6
CONTINUOUS
 62
     7
 10
165.052438718
 20
222.8721438585
 30
0.0
 11
101.6524372666
 21
222.8721438585
 31
0.0
  0
LINE
  5
80
  8
0
  6
CONTINUOUS
 62
     7
 10
165.4524395286
 20
231.8721412359
 30
0.0
 11
165.4524395286
 21
223.8721429048
 31
0.0
  0
LINE
  5
81
  8
0
  6
CONTINUOUS
 62
     7
 10
165.4524395286
 20
232.4721454321
 30
0.0
 11
165.4524395286
 21
231.8721412359
 31
0.0
  0
ARC
  5
82
  8
0
  6
CONTINUOUS
 62
     7
 10
165.0524371921
 20
232.4721428571
 30
0.0
 40
0.4000000000000057
 50
0.0
 51
90.0
  0
POLYLINE
  5
83
  8
0
  6
CONTINUOUS
 62
     7
 66
     1
 10
0.0
 20
0.0
 30
0.0
  0
VERTEX
  5
1B0
  8
0
  6
CONTINUOUS
 62
     7
 10
91.6524371176
 20
222.8721438585
 30
0.0
  0
VERTEX
  5
1B1
  8
0
  6
CONTINUOUS
 62
     7
 10
91.6716517924
 20
222.891360396
 30
0.0
  0
VERTEX
  5
1B2
  8
0
  6
CONTINUOUS
 62
     7
 10
91.7285578369
 20
222.9482649503
 30
0.0
  0
VERTEX
  5
1B3
  8
0
  6
CONTINUOUS
 62
     7
 10
91.8209677606
 20
223.0406759916
 30
0.0
  0
VERTEX
  5
1B4
  8
0
  6
CONTINUOUS
 62
     7
 10
91.9453302442
 20
223.1650351225
 30
0.0
  0
VERTEX
  5
1B5
  8
0
  6
CONTINUOUS
 62
     7
 10
92.0968668579
 20
223.3165739713
 30
0.0
  0
VERTEX
  5
1B6
  8
0
  6
CONTINUOUS
 62
     7
 10
92.2697538554
 20
223.4894572435
 30
0.0
  0
VERTEX
  5
1B7
  8
0
  6
CONTINUOUS
 62
     7
 10
92.4573468088
 20
223.677050942
 30
0.0
  0
VERTEX
  5
1B8
  8
0
  6
CONTINUOUS
 62
     7
 10
92.6524372815
 20
223.8721429048
 30
0.0
  0
SEQEND
  5
208
  8
0
  6
CONTINUOUS
 62
     7
  0
LINE
  5
84
  8
0
  6
CONTINUOUS
 62
     7
 10
91.6524371176
 20
222.8721438585
 30
0.0
 11
28.2524356662
 21
222.8721438585
 31
0.0
  0
LINE
  5
85
  8
0
  6
CONTINUOUS
 62
     7
 10
165.4524395286
 20
223.8721429048
 30
0.0
 11
165.4524395286
 21
223.2721446691
 31
0.0
  0
ARC
  5
86
  8
0
  6
CONTINUOUS
 62
     7
 10
165.0524371921
 20
223.2721428571
 30
0.0
 40
0.4000000000000057
 50
270.0
 51
0.0
  0
LINE
  5
87
  8
0
  6
CONTINUOUS
 62
     7
 10
27.8524348556
 20
223.8721429048
 30
0.0
 11
27.8524348556
 21
231.8721412359
 31
0.0
  0
LINE
  5
88
  8
0
  6
CONTINUOUS
 62
     7
 10
91.6524371176
 20
158.8721428676
 30
0.0
 11
91.6524371176
 21
222.8721438585
 31
0.0
  0
LINE
  5
89
  8
0
  6
CONTINUOUS
 62
     7
 10
28.2524356662
 20
232.8721402822
 30
0.0
 11
30.6524345695
 21
232.8721402822
 31
0.0
  0
LINE
  5
8A
  8
0
  6
CONTINUOUS
 62
     7
 10
42.6524350464
 20
232.8721402822
 30
0.0
 11
54.152436
 21
232.8721402822
 31
0.0
  0
LINE
  5
8B
  8
0
  6
CONTINUOUS
 62
     7
 10
64.1524383842
 20
232.8721402822
 30
0.0
 11
129.152436
 21
232.8721402822
 31
0.0
  0
LINE
  5
8C
  8
0
  6
CONTINUOUS
 62
     7
 10
139.1524383842
 20
232.8721402822
 30
0.0
 11
150.6524393379
 21
232.8721402822
 31
0.0
  0
LINE
  5
8D
  8
0
  6
CONTINUOUS
 62
     7
 10
162.6524398147
 20
232.8721402822
 30
0.0
 11
165.052438718
 21
232.8721402822
 31
0.0
  0
ARC
  5
8E
  8
0
  6
CONTINUOUS
 62
     7
 10
96.6655123199
 20
431.0836528127
 30
0.0
 40
188.6124332347901
 50
277.7922471931
 51
281.5895468731
  0
ARC
  5
8F
  8
0
  6
CONTINUOUS
 62
     7
 10
134.021193825
 20
248.9526459776
 30
0.0
 40
2.689999999999998
 50
281.5900201068
 51
12.4186815058
  0
ARC
  5
90
  8
0
  6
CONTINUOUS
 62
     7
 10
96.6525000512
 20
431.1597012311
 30
0.0
 40
183.3095434037144
 50
277.7930306306
 51
281.588802422
  0
ARC
  5
91
  8
0
  6
CONTINUOUS
 62
     7
 10
134.021193825
 20
248.9526459776
 30
0.0
 40
2.690000000000022
 50
12.4186815058
 51
100.0467259555
  0
ARC
  5
92
  8
0
  6
CONTINUOUS
 62
     7
 10
59.2836805593
 20
248.9526459776
 30
0.0
 40
2.690000000000012
 50
80.0567778886
 51
167.5813184942
  0
ARC
  5
93
  8
0
  6
CONTINUOUS
 62
     7
 10
96.6718806621
 20
431.2744130934
 30
0.0
 40
183.4258408269867
 50
258.4125298297
 51
262.2057911876
  0
ARC
  5
94
  8
0
  6
CONTINUOUS
 62
     7
 10
96.6714850409
 20
431.2716823219
 30
0.0
 40
188.8030819041775
 50
258.4124944315
 51
262.2058309307
  0
ARC
  5
95
  8
0
  6
CONTINUOUS
 62
     7
 10
59.2836805593
 20
248.9526459776
 30
0.0
 40
2.690000000000009
 50
167.5813184942
 51
258.4099798932
  0
ARC
  5
96
  8
0
  6
CONTINUOUS
 62
     7
 10
96.6524371921
 20
431.1601541317
 30
0.0
 40
188.69
 50
262.2069690737
 51
277.7930309263
  0
ARC
  5
97
  8
0
  6
CONTINUOUS
 62
     7
 10
96.6524371921
 20
431.1601541317
 30
0.0
 40
183.31
 50
262.2069690737
 51
277.7930309263
  0
LINE
  5
98
  8
0
  6
CONTINUOUS
 62
     7
 10
133.3524385511
 20
245.81214177
 30
0.0
 11
134.3524375974
 21
245.81214177
 31
0.0
  0
LINE
  5
99
  8
0
  6
CONTINUOUS
 62
     7
 10
133.3524385511
 20
246.0735915838
 30
0.0
 11
133.3524385511
 21
245.81214177
 31
0.0
  0
LINE
  5
9A
  8
0
  6
CONTINUOUS
 62
     7
 10
134.3524375974
 20
246.2831197916
 30
0.0
 11
134.3524375974
 21
245.81214177
 31
0.0
  0
LINE
  5
9B
  8
0
  6
CONTINUOUS
 62
     7
 10
59.9524358331
 20
246.0736154257
 30
0.0
 11
59.9524358331
 21
245.81214177
 31
0.0
  0
LINE
  5
9C
  8
0
  6
CONTINUOUS
 62
     7
 10
59.9524358331
 20
245.81214177
 30
0.0
 11
58.9524367868
 21
245.81214177
 31
0.0
  0
LINE
  5
9D
  8
0
  6
CONTINUOUS
 62
     7
 10
58.9524367868
 20
246.2831197916
 30
0.0
 11
58.9524367868
 21
245.81214177
 31
0.0
  0
LINE
  5
9E
  8
0
  6
CONTINUOUS
 62
     7
 10
59.9524358331
 20
245.81214177
 30
0.0
 11
59.9524358331
 21
241.345196837
 31
0.0
  0
LINE
  5
9F
  8
0
  6
CONTINUOUS
 62
     7
 10
58.9524367868
 20
245.81214177
 30
0.0
 11
58.9524367868
 21
241.345196837
 31
0.0
  0
LINE
  5
A0
  8
0
  6
CONTINUOUS
 62
     7
 10
134.3524375974
 20
245.81214177
 30
0.0
 11
134.3524375974
 21
241.345196837
 31
0.0
  0
LINE
  5
A1
  8
0
  6
CONTINUOUS
 62
     7
 10
133.3524385511
 20
245.81214177
 30
0.0
 11
133.3524385511
 21
241.345196837
 31
0.0
  0
LINE
  5
A2
  8
0
  6
CONTINUOUS
 62
     7
 10
59.8241219341
 20
251.5877960859
 30
0.0
 11
59.8280439197
 21
251.5869914232
 31
0.0
  0
LINE
  5
A3
  8
0
  6
CONTINUOUS
 62
     7
 10
133.4765205204
 20
251.5869258581
 30
0.0
 11
133.4807524501
 21
251.5877960859
 31
0.0
  0
LINE
  5
A4
  8
0
  6
CONTINUOUS
 62
     7
 10
134.3524375974
 20
241.345196837
 30
0.0
 11
134.3524375974
 21
240.4916583238
 31
0.0
  0
LINE
  5
A5
  8
0
  6
CONTINUOUS
 62
     7
 10
133.3524385511
 20
241.345196837
 30
0.0
 11
133.3524385511
 21
240.4916583238
 31
0.0
  0
LINE
  5
A6
  8
0
  6
CONTINUOUS
 62
     7
 10
59.9524358331
 20
241.345196837
 30
0.0
 11
59.9524358331
 21
240.4916583238
 31
0.0
  0
LINE
  5
A7
  8
0
  6
CONTINUOUS
 62
     7
 10
58.9524367868
 20
241.345196837
 30
0.0
 11
58.9524367868
 21
240.4916583238
 31
0.0
  0
LINE
  5
A8
  8
0
  6
CONTINUOUS
 62
     7
 10
59.9524358331
 20
240.4916583238
 30
0.0
 11
59.9524358331
 21
232.6372264562
 31
0.0
  0
LINE
  5
A9
  8
0
  6
CONTINUOUS
 62
     7
 10
58.9524367868
 20
240.4916583238
 30
0.0
 11
58.9524367868
 21
232.6372264562
 31
0.0
  0
LINE
  5
AA
  8
0
  6
CONTINUOUS
 62
     7
 10
134.3524375974
 20
240.4916583238
 30
0.0
 11
134.3524375974
 21
232.6372264562
 31
0.0
  0
LINE
  5
AB
  8
0
  6
CONTINUOUS
 62
     7
 10
133.3524385511
 20
240.4916583238
 30
0.0
 11
133.3524385511
 21
232.6372264562
 31
0.0
  0
LINE
  5
AC
  8
0
  6
CONTINUOUS
 62
     7
 10
59.9524358331
 20
229.8721431432
 30
0.0
 11
58.9524367868
 21
229.8721431432
 31
0.0
  0
LINE
  5
AD
  8
0
  6
CONTINUOUS
 62
     7
 10
59.9524358331
 20
231.8721412359
 30
0.0
 11
59.9524358331
 21
229.8721431432
 31
0.0
  0
LINE
  5
AE
  8
0
  6
CONTINUOUS
 62
     7
 10
58.9524367868
 20
231.8721412359
 30
0.0
 11
58.9524367868
 21
229.8721431432
 31
0.0
  0
LINE
  5
AF
  8
0
  6
CONTINUOUS
 62
     7
 10
134.3524375974
 20
232.6372264562
 30
0.0
 11
134.3524375974
 21
231.8721412359
 31
0.0
  0
LINE
  5
B0
  8
0
  6
CONTINUOUS
 62
     7
 10
133.3524385511
 20
232.6372264562
 30
0.0
 11
133.3524385511
 21
231.8721412359
 31
0.0
  0
LINE
  5
B1
  8
0
  6
CONTINUOUS
 62
     7
 10
59.9524358331
 20
232.6372264562
 30
0.0
 11
59.9524358331
 21
231.8721412359
 31
0.0
  0
LINE
  5
B2
  8
0
  6
CONTINUOUS
 62
     7
 10
58.9524367868
 20
232.6372264562
 30
0.0
 11
58.9524367868
 21
231.8721412359
 31
0.0
  0
LINE
  5
B3
  8
0
  6
CONTINUOUS
 62
     7
 10
133.3524385511
 20
229.8721431432
 30
0.0
 11
134.3524375974
 21
229.8721431432
 31
0.0
  0
LINE
  5
B4
  8
0
  6
CONTINUOUS
 62
     7
 10
134.3524375974
 20
231.8721412359
 30
0.0
 11
134.3524375974
 21
229.8721431432
 31
0.0
  0
LINE
  5
B5
  8
0
  6
CONTINUOUS
 62
     7
 10
133.3524385511
 20
231.8721412359
 30
0.0
 11
133.3524385511
 21
229.8721431432
 31
0.0
  0
LINE
  5
B6
  8
0
  6
CONTINUOUS
 62
     7
 10
64.1524383842
 20
233.6721419035
 30
0.0
 11
59.9524358331
 21
233.6721419035
 31
0.0
  0
LINE
  5
B7
  8
0
  6
CONTINUOUS
 62
     7
 10
64.1524383842
 20
233.6721419035
 30
0.0
 11
64.1524383842
 21
232.6721428571
 31
0.0
  0
ARC
  5
B8
  8
0
  6
CONTINUOUS
 62
     7
 10
62.1524371921
 20
225.6721428571
 30
0.0
 40
2.0
 50
270.0
 51
0.0
  0
ARC
  5
B9
  8
0
  6
CONTINUOUS
 62
     7
 10
56.1524371921
 20
225.6721428571
 30
0.0
 40
2.000000000000007
 50
180.0
 51
270.0
  0
CIRCLE
  5
BA
  8
0
  6
CONTINUOUS
 62
     7
 10
59.1524371921
 20
227.0721428571
 30
0.0
 40
1.000000000000007
  0
LINE
  5
BB
  8
0
  6
CONTINUOUS
 62
     7
 10
64.1524383842
 20
225.6721435724
 30
0.0
 11
64.1524383842
 21
232.6721428571
 31
0.0
  0
LINE
  5
BC
  8
0
  6
CONTINUOUS
 62
     7
 10
54.152436
 20
225.6721435724
 30
0.0
 11
54.152436
 21
232.6721428571
 31
0.0
  0
LINE
  5
BD
  8
0
  6
CONTINUOUS
 62
     7
 10
62.1524373113
 20
223.6721454797
 30
0.0
 11
56.1524370729
 21
223.6721454797
 31
0.0
  0
LINE
  5
BE
  8
0
  6
CONTINUOUS
 62
     7
 10
139.1524383842
 20
233.6721419035
 30
0.0
 11
134.3524375974
 21
233.6721419035
 31
0.0
  0
LINE
  5
BF
  8
0
  6
CONTINUOUS
 62
     7
 10
139.1524383842
 20
232.6721428571
 30
0.0
 11
139.1524383842
 21
233.6721419035
 31
0.0
  0
LINE
  5
C0
  8
0
  6
CONTINUOUS
 62
     7
 10
133.3524385511
 20
233.6721419035
 30
0.0
 11
129.152436
 21
233.6721419035
 31
0.0
  0
LINE
  5
C1
  8
0
  6
CONTINUOUS
 62
     7
 10
129.152436
 20
232.6721428571
 30
0.0
 11
129.152436
 21
233.6721419035
 31
0.0
  0
LINE
  5
C2
  8
0
  6
CONTINUOUS
 62
     7
 10
129.152436
 20
232.6721428571
 30
0.0
 11
129.152436
 21
225.6721435724
 31
0.0
  0
LINE
  5
C3
  8
0
  6
CONTINUOUS
 62
     7
 10
139.1524383842
 20
225.6721435724
 30
0.0
 11
139.1524383842
 21
232.6721428571
 31
0.0
  0
ARC
  5
C4
  8
0
  6
CONTINUOUS
 62
     7
 10
137.1524371921
 20
225.6721428571
 30
0.0
 40
2.000000000000028
 50
270.0
 51
0.0
  0
CIRCLE
  5
C5
  8
0
  6
CONTINUOUS
 62
     7
 10
134.1524371921
 20
227.0721428571
 30
0.0
 40
1.0
  0
LINE
  5
C6
  8
0
  6
CONTINUOUS
 62
     7
 10
137.1524373113
 20
223.6721454797
 30
0.0
 11
131.1524370729
 21
223.6721454797
 31
0.0
  0
ARC
  5
C7
  8
0
  6
CONTINUOUS
 62
     7
 10
131.1524371921
 20
225.6721428571
 30
0.0
 40
2.0
 50
180.0
 51
270.0
  0
LINE
  5
C8
  8
0
  6
CONTINUOUS
 62
     7
 10
58.9524367868
 20
233.6721419035
 30
0.0
 11
54.152436
 21
233.6721419035
 31
0.0
  0
LINE
  5
C9
  8
0
  6
CONTINUOUS
 62
     7
 10
54.152436
 20
232.6721428571
 30
0.0
 11
54.152436
 21
233.6721419035
 31
0.0
  0
LINE
  5
CA
  8
0
  6
CONTINUOUS
 62
     7
 10
282.7675652638
 20
233.6721419035
 30
0.0
 11
282.7675652638
 21
258.6721419035
 31
0.0
  0
LINE
  5
CB
  8
0
  6
CONTINUOUS
 62
     7
 10
277.36756531
 20
258.6721419035
 30
0.0
 11
277.36756531
 21
233.6721419035
 31
0.0
  0
ARC
  5
CC
  8
0
  6
CONTINUOUS
 62
     7
 10
295.0675653472
 20
258.6721428571
 30
0.0
 40
12.30000000000001
 50
90.0
 51
180.0
  0
ARC
  5
CD
  8
0
  6
CONTINUOUS
 62
     7
 10
295.0675653472
 20
258.6721428571
 30
0.0
 40
17.70000000000005
 50
90.0
 51
180.0
  0
LINE
  5
CE
  8
0
  6
CONTINUOUS
 62
     7
 10
286.0675652459
 20
224.372142428
 30
0.0
 11
315.0675651565
 21
224.372142428
 31
0.0
  0
LINE
  5
CF
  8
0
  6
CONTINUOUS
 62
     7
 10
315.0675651565
 20
229.7721444307
 30
0.0
 11
286.0675652459
 21
229.7721444307
 31
0.0
  0
LINE
  5
D0
  8
0
  6
CONTINUOUS
 62
     7
 10
315.0675651565
 20
276.3721464811
 30
0.0
 11
295.0675648585
 21
276.3721464811
 31
0.0
  0
LINE
  5
D1
  8
0
  6
CONTINUOUS
 62
     7
 10
295.0675648585
 20
270.9721444784
 30
0.0
 11
315.0675651565
 21
270.9721444784
 31
0.0
  0
ARC
  5
D2
  8
0
  6
CONTINUOUS
 62
     7
 10
315.0675653472
 20
258.6721428571
 30
0.0
 40
12.30000000000001
 50
0.0
 51
90.0
  0
ARC
  5
D3
  8
0
  6
CONTINUOUS
 62
     7
 10
315.0675653472
 20
258.6721428571
 30
0.0
 40
17.69999999999999
 50
360.0
 51
90.0
  0
ARC
  5
D4
  8
0
  6
CONTINUOUS
 62
     7
 10
315.0675653472
 20
242.0721428571
 30
0.0
 40
12.30000000000001
 50
270.0
 51
0.0
  0
ARC
  5
D5
  8
0
  6
CONTINUOUS
 62
     7
 10
315.0675653472
 20
242.0721428571
 30
0.0
 40
17.70000000000002
 50
270.0
 51
0.0
  0
LINE
  5
D6
  8
0
  6
CONTINUOUS
 62
     7
 10
332.7675637737
 20
242.0721410452
 30
0.0
 11
332.7675637737
 21
258.6721419035
 31
0.0
  0
LINE
  5
D7
  8
0
  6
CONTINUOUS
 62
     7
 10
327.3675647512
 20
258.6721419035
 30
0.0
 11
327.3675647512
 21
242.0721410452
 31
0.0
  0
POLYLINE
  5
D8
  8
0
  6
CONTINUOUS
 62
     7
 66
     1
 10
0.0
 20
0.0
 30
0.0
  0
VERTEX
  5
1B9
  8
0
  6
CONTINUOUS
 62
     7
 10
360.9606501594
 20
246.880894774
 30
0.0
  0
VERTEX
  5
1BA
  8
0
  6
CONTINUOUS
 62
     7
 10
360.9552976623
 20
247.1502422033
 30
0.0
  0
VERTEX
  5
1BB
  8
0
  6
CONTINUOUS
 62
     7
 10
360.8880993858
 20
247.5571452318
 30
0.0
  0
VERTEX
  5
1BC
  8
0
  6
CONTINUOUS
 62
     7
 10
360.770517303
 20
247.9359506307
 30
0.0
  0
VERTEX
  5
1BD
  8
0
  6
CONTINUOUS
 62
     7
 10
360.6114146247
 20
248.2819496332
 30
0.0
  0
VERTEX
  5
1BE
  8
0
  6
CONTINUOUS
 62
     7
 10
360.419660522
 20
248.5925792394
 30
0.0
  0
VERTEX
  5
1BF
  8
0
  6
CONTINUOUS
 62
     7
 10
360.2031883731
 20
248.867910975
 30
0.0
  0
VERTEX
  5
1C0
  8
0
  6
CONTINUOUS
 62
     7
 10
359.96728511
 20
249.1110740839
 30
0.0
  0
VERTEX
  5
1C1
  8
0
  6
CONTINUOUS
 62
     7
 10
359.7127136722
 20
249.3279634653
 30
0.0
  0
VERTEX
  5
1C2
  8
0
  6
CONTINUOUS
 62
     7
 10
359.4335731998
 20
249.5268343626
 30
0.0
  0
VERTEX
  5
1C3
  8
0
  6
CONTINUOUS
 62
     7
 10
359.1116425529
 20
249.7191547094
 30
0.0
  0
VERTEX
  5
1C4
  8
0
  6
CONTINUOUS
 62
     7
 10
358.7262091174
 20
249.9116538702
 30
0.0
  0
VERTEX
  5
1C5
  8
0
  6
CONTINUOUS
 62
     7
 10
358.2145628467
 20
250.1230119405
 30
0.0
  0
VERTEX
  5
1C6
  8
0
  6
CONTINUOUS
 62
     7
 10
357.6400753989
 20
250.3195701776
 30
0.0
  0
VERTEX
  5
1C7
  8
0
  6
CONTINUOUS
 62
     7
 10
357.065123035
 20
250.4865049062
 30
0.0
  0
VERTEX
  5
1C8
  8
0
  6
CONTINUOUS
 62
     7
 10
356.4095851913
 20
250.6505726515
 30
0.0
  0
VERTEX
  5
1C9
  8
0
  6
CONTINUOUS
 62
     7
 10
355.7354268565
 20
250.7970451055
 30
0.0
  0
VERTEX
  5
1CA
  8
0
  6
CONTINUOUS
 62
     7
 10
355.0351318851
 20
250.9302078424
 30
0.0
  0
VERTEX
  5
1CB
  8
0
  6
CONTINUOUS
 62
     7
 10
354.3227967754
 20
251.0488687692
 30
0.0
  0
VERTEX
  5
1CC
  8
0
  6
CONTINUOUS
 62
     7
 10
353.5593626037
 20
251.1601804434
 30
0.0
  0
VERTEX
  5
1CD
  8
0
  6
CONTINUOUS
 62
     7
 10
352.7627346053
 20
251.2613116441
 30
0.0
  0
VERTEX
  5
1CE
  8
0
  6
CONTINUOUS
 62
     7
 10
351.9365069404
 20
251.3518272577
 30
0.0
  0
VERTEX
  5
1CF
  8
0
  6
CONTINUOUS
 62
     7
 10
351.0855671897
 20
251.4310835539
 30
0.0
  0
VERTEX
  5
1D0
  8
0
  6
CONTINUOUS
 62
     7
 10
350.2156612411
 20
251.4983652769
 30
0.0
  0
VERTEX
  5
1D1
  8
0
  6
CONTINUOUS
 62
     7
 10
349.3329224124
 20
251.5529869734
 30
0.0
  0
VERTEX
  5
1D2
  8
0
  6
CONTINUOUS
 62
     7
 10
348.4440025821
 20
251.5943645178
 30
0.0
  0
VERTEX
  5
1D3
  8
0
  6
CONTINUOUS
 62
     7
 10
347.5474235549
 20
251.622766131
 30
0.0
  0
VERTEX
  5
1D4
  8
0
  6
CONTINUOUS
 62
     7
 10
346.6321525111
 20
251.63853752
 30
0.0
  0
VERTEX
  5
1D5
  8
0
  6
CONTINUOUS
 62
     7
 10
345.9676382079
 20
251.6405044733
 30
0.0
  0
SEQEND
  5
207
  8
0
  6
CONTINUOUS
 62
     7
  0
ARC
  5
D9
  8
0
  6
CONTINUOUS
 62
     7
 10
305.6689679626
 20
196.4876627128
 30
0.0
 40
55.15425742299954
 50
89.689920985
 51
97.9477118465
  0
LINE
  5
DA
  8
0
  6
CONTINUOUS
 62
     7
 10
345.9675666824
 20
251.64264428
 30
0.0
 11
332.7675637737
 21
251.64264428
 31
0.0
  0
LINE
  5
DB
  8
0
  6
CONTINUOUS
 62
     7
 10
327.3675647512
 20
251.64264428
 30
0.0
 11
305.9675660863
 21
251.64264428
 31
0.0
  0
POLYLINE
  5
DC
  8
0
  6
CONTINUOUS
 62
     7
 66
     1
 10
0.0
 20
0.0
 30
0.0
  0
VERTEX
  5
1D6
  8
0
  6
CONTINUOUS
 62
     7
 10
345.9674355521
 20
246.2610958753
 30
0.0
  0
VERTEX
  5
1D7
  8
0
  6
CONTINUOUS
 62
     7
 10
346.6953572765
 20
246.2575076757
 30
0.0
  0
VERTEX
  5
1D8
  8
0
  6
CONTINUOUS
 62
     7
 10
347.5360271468
 20
246.2413130937
 30
0.0
  0
VERTEX
  5
1D9
  8
0
  6
CONTINUOUS
 62
     7
 10
348.3653125301
 20
246.2131856619
 30
0.0
  0
VERTEX
  5
1DA
  8
0
  6
CONTINUOUS
 62
     7
 10
349.1772291198
 20
246.1733518778
 30
0.0
  0
VERTEX
  5
1DB
  8
0
  6
CONTINUOUS
 62
     7
 10
349.9662634864
 20
246.1225567995
 30
0.0
  0
VERTEX
  5
1DC
  8
0
  6
CONTINUOUS
 62
     7
 10
350.7395085826
 20
246.0609553991
 30
0.0
  0
VERTEX
  5
1DD
  8
0
  6
CONTINUOUS
 62
     7
 10
351.4918205276
 20
245.9892390905
 30
0.0
  0
VERTEX
  5
1DE
  8
0
  6
CONTINUOUS
 62
     7
 10
352.2142586246
 20
245.9086118875
 30
0.0
  0
VERTEX
  5
1DF
  8
0
  6
CONTINUOUS
 62
     7
 10
352.8966781631
 20
245.8207129179
 30
0.0
  0
VERTEX
  5
1E0
  8
0
  6
CONTINUOUS
 62
     7
 10
353.5306450858
 20
245.7273541628
 30
0.0
  0
VERTEX
  5
1E1
  8
0
  6
CONTINUOUS
 62
     7
 10
354.1083511844
 20
245.6306039034
 30
0.0
  0
VERTEX
  5
1E2
  8
0
  6
CONTINUOUS
 62
     7
 10
354.6270129218
 20
245.5322860418
 30
0.0
  0
VERTEX
  5
1E3
  8
0
  6
CONTINUOUS
 62
     7
 10
355.1044103637
 20
245.4302965341
 30
0.0
  0
VERTEX
  5
1E4
  8
0
  6
CONTINUOUS
 62
     7
 10
355.519395782
 20
245.3301964937
 30
0.0
  0
VERTEX
  5
1E5
  8
0
  6
CONTINUOUS
 62
     7
 10
355.8688935771
 20
245.2347634969
 30
0.0
  0
VERTEX
  5
1E6
  8
0
  6
CONTINUOUS
 62
     7
 10
356.1475333705
 20
245.1482354341
 30
0.0
  0
VERTEX
  5
1E7
  8
0
  6
CONTINUOUS
 62
     7
 10
356.3315567508
 20
245.0832902132
 30
0.0
  0
VERTEX
  5
1E8
  8
0
  6
CONTINUOUS
 62
     7
 10
356.4531025424
 20
245.0347005068
 30
0.0
  0
VERTEX
  5
1E9
  8
0
  6
CONTINUOUS
 62
     7
 10
356.516182138
 20
245.0060783563
 30
0.0
  0
VERTEX
  5
1EA
  8
0
  6
CONTINUOUS
 62
     7
 10
356.5240320697
 20
245.0021742521
 30
0.0
  0
SEQEND
  5
206
  8
0
  6
CONTINUOUS
 62
     7
  0
LINE
  5
DD
  8
0
  6
CONTINUOUS
 62
     7
 10
316.9675645366
 20
246.2626455961
 30
0.0
 11
327.3675647512
 21
246.2626455961
 31
0.0
  0
LINE
  5
DE
  8
0
  6
CONTINUOUS
 62
     7
 10
332.7675637737
 20
246.2626455961
 30
0.0
 11
345.9675666824
 21
246.2626455961
 31
0.0
  0
LINE
  5
DF
  8
0
  6
CONTINUOUS
 62
     7
 10
316.9675645366
 20
246.1601554094
 30
0.0
 11
327.3675647512
 21
246.1601554094
 31
0.0
  0
LINE
  5
E0
  8
0
  6
CONTINUOUS
 62
     7
 10
332.7675637737
 20
246.1601554094
 30
0.0
 11
349.3822571769
 21
246.1601554094
 31
0.0
  0
ARC
  5
E1
  8
0
  6
CONTINUOUS
 62
     7
 10
358.2775653472
 20
245.1601541317
 30
0.0
 40
2.689999999999998
 50
180.0
 51
270.0
  0
ARC
  5
E2
  8
0
  6
CONTINUOUS
 62
     7
 10
358.2775653472
 20
245.1601541317
 30
0.0
 40
2.689999999999998
 50
270.0
 51
0.0
  0
LINE
  5
E3
  8
0
  6
CONTINUOUS
 62
     7
 10
285.2675654873
 20
232.4721454321
 30
0.0
 11
285.2675654873
 21
225.8721409975
 31
0.0
  0
ARC
  5
E4
  8
0
  6
CONTINUOUS
 62
     7
 10
284.8675653472
 20
232.4721428571
 30
0.0
 40
0.4000000000000341
 50
0.0
 51
90.0
  0
LINE
  5
E5
  8
0
  6
CONTINUOUS
 62
     7
 10
275.2675653383
 20
232.8721402822
 30
0.0
 11
275.8675654366
 21
232.8721402822
 31
0.0
  0
LINE
  5
E6
  8
0
  6
CONTINUOUS
 62
     7
 10
283.8675652578
 20
232.8721402822
 30
0.0
 11
284.8675654217
 21
232.8721402822
 31
0.0
  0
ARC
  5
E7
  8
0
  6
CONTINUOUS
 62
     7
 10
275.2675653472
 20
232.4721428571
 30
0.0
 40
0.4000000000000341
 50
90.0
 51
180.0
  0
LINE
  5
E8
  8
0
  6
CONTINUOUS
 62
     7
 10
275.2675653383
 20
233.6721419035
 30
0.0
 11
284.8675654217
 21
233.6721419035
 31
0.0
  0
ARC
  5
E9
  8
0
  6
CONTINUOUS
 62
     7
 10
284.8675653472
 20
232.4721428571
 30
0.0
 40
1.200000000000017
 50
0.0
 51
90.0
  0
LINE
  5
EA
  8
0
  6
CONTINUOUS
 62
     7
 10
286.0675652459
 20
232.4721454321
 30
0.0
 11
286.0675652459
 21
225.8721409975
 31
0.0
  0
LINE
  5
EB
  8
0
  6
CONTINUOUS
 62
     7
 10
274.8675652727
 20
231.8721412359
 30
0.0
 11
274.8675652727
 21
232.4721454321
 31
0.0
  0
ARC
  5
EC
  8
0
  6
CONTINUOUS
 62
     7
 10
275.2675653472
 20
232.4721428571
 30
0.0
 40
1.200000000000017
 50
90.0
 51
180.0
  0
LINE
  5
ED
  8
0
  6
CONTINUOUS
 62
     7
 10
274.0675655141
 20
225.8721409975
 30
0.0
 11
274.0675655141
 21
232.4721454321
 31
0.0
  0
LINE
  5
EE
  8
0
  6
CONTINUOUS
 62
     7
 10
274.8675652727
 20
223.8721429048
 30
0.0
 11
274.0675655141
 21
223.8721429048
 31
0.0
  0
LINE
  5
EF
  8
0
  6
CONTINUOUS
 62
     7
 10
274.0675655141
 20
223.8721429048
 30
0.0
 11
274.0675655141
 21
225.8721409975
 31
0.0
  0
LINE
  5
F0
  8
0
  6
CONTINUOUS
 62
     7
 10
286.0675652459
 20
223.8721429048
 30
0.0
 11
285.2675654873
 21
223.8721429048
 31
0.0
  0
LINE
  5
F1
  8
0
  6
CONTINUOUS
 62
     7
 10
285.2675654873
 20
223.8721429048
 30
0.0
 11
285.2675654873
 21
225.8721409975
 31
0.0
  0
LINE
  5
F2
  8
0
  6
CONTINUOUS
 62
     7
 10
286.0675652459
 20
225.8721409975
 30
0.0
 11
286.0675652459
 21
223.8721429048
 31
0.0
  0
LINE
  5
F3
  8
0
  6
CONTINUOUS
 62
     7
 10
274.8675652727
 20
223.8721429048
 30
0.0
 11
274.8675652727
 21
231.8721412359
 31
0.0
  0
ARC
  5
F4
  8
0
  6
CONTINUOUS
 62
     7
 10
275.8675653472
 20
223.8721428571
 30
0.0
 40
1.0
 50
180.0
 51
270.0
  0
ARC
  5
F5
  8
0
  6
CONTINUOUS
 62
     7
 10
275.8675653472
 20
231.8721428571
 30
0.0
 40
1.0
 50
90.0
 51
180.0
  0
LINE
  5
F6
  8
0
  6
CONTINUOUS
 62
     7
 10
275.8675654366
 20
232.8721402822
 30
0.0
 11
283.8675652578
 21
232.8721402822
 31
0.0
  0
LINE
  5
F7
  8
0
  6
CONTINUOUS
 62
     7
 10
283.8675652578
 20
222.8721438585
 30
0.0
 11
275.8675654366
 21
222.8721438585
 31
0.0
  0
ARC
  5
F8
  8
0
  6
CONTINUOUS
 62
     7
 10
283.8675653472
 20
231.8721428571
 30
0.0
 40
1.0
 50
0.0
 51
90.0
  0
LINE
  5
F9
  8
0
  6
CONTINUOUS
 62
     7
 10
284.8675654217
 20
231.8721412359
 30
0.0
 11
284.8675654217
 21
223.8721429048
 31
0.0
  0
ARC
  5
FA
  8
0
  6
CONTINUOUS
 62
     7
 10
283.8675653472
 20
223.8721428571
 30
0.0
 40
1.0
 50
270.0
 51
0.0
  0
LINE
  5
FB
  8
0
  6
CONTINUOUS
 62
     7
 10
267.8675656154
 20
157.6721428571
 30
0.0
 11
267.8675656154
 21
158.8721428676
 31
0.0
  0
LINE
  5
FC
  8
0
  6
CONTINUOUS
 62
     7
 10
271.867565526
 20
157.6721428571
 30
0.0
 11
267.8675656154
 21
157.6721428571
 31
0.0
  0
LINE
  5
FD
  8
0
  6
CONTINUOUS
 62
     7
 10
267.8675656154
 20
158.8721428676
 30
0.0
 11
271.867565526
 21
158.8721428676
 31
0.0
  0
LINE
  5
FE
  8
0
  6
CONTINUOUS
 62
     7
 10
271.867565526
 20
157.6721428571
 30
0.0
 11
273.8675654813
 21
157.6721428571
 31
0.0
  0
LINE
  5
FF
  8
0
  6
CONTINUOUS
 62
     7
 10
271.867565526
 20
158.8721428676
 30
0.0
 11
273.8675654813
 21
158.8721428676
 31
0.0
  0
LINE
  5
100
  8
0
  6
CONTINUOUS
 62
     7
 10
273.8675654813
 20
157.6721428571
 30
0.0
 11
301.2359869614
 21
157.6721428571
 31
0.0
  0
LINE
  5
101
  8
0
  6
CONTINUOUS
 62
     7
 10
301.2359869614
 20
158.8721428676
 30
0.0
 11
273.8675654813
 21
158.8721428676
 31
0.0
  0
LINE
  5
102
  8
0
  6
CONTINUOUS
 62
     7
 10
303.8675648108
 20
158.8721428676
 30
0.0
 11
303.8675648108
 21
157.6721428571
 31
0.0
  0
LINE
  5
103
  8
0
  6
CONTINUOUS
 62
     7
 10
303.8675648108
 20
157.6721428571
 30
0.0
 11
301.2359869614
 21
157.6721428571
 31
0.0
  0
LINE
  5
104
  8
0
  6
CONTINUOUS
 62
     7
 10
301.2359869614
 20
158.8721428676
 30
0.0
 11
303.8675648108
 21
158.8721428676
 31
0.0
  0
LINE
  5
105
  8
0
  6
CONTINUOUS
 62
     7
 10
274.8675652727
 20
158.8721428676
 30
0.0
 11
274.8675652727
 21
223.6721454797
 31
0.0
  0
LINE
  5
106
  8
0
  6
CONTINUOUS
 62
     7
 10
284.8675654217
 20
223.8721429048
 30
0.0
 11
284.8675654217
 21
158.8721428676
 31
0.0
  0
LINE
  5
107
  8
0
  6
CONTINUOUS
 62
     7
 10
274.8675652727
 20
223.8721429048
 30
0.0
 11
274.8675652727
 21
223.6721454797
 31
0.0
  0
LINE
  5
108
  8
0
  6
CONTINUOUS
 62
     7
 10
274.8675652727
 20
223.6721454797
 30
0.0
 11
274.0675655141
 21
223.6721454797
 31
0.0
  0
LINE
  5
109
  8
0
  6
CONTINUOUS
 62
     7
 10
274.0675655141
 20
223.6721454797
 30
0.0
 11
274.0675655141
 21
223.8721429048
 31
0.0
  0
ARC
  5
10A
  8
0
  6
CONTINUOUS
 62
     7
 10
284.8675653472
 20
232.6721428571
 30
0.0
 40
0.2000000000000171
 50
0.0
 51
90.0
  0
LINE
  5
10B
  8
0
  6
CONTINUOUS
 62
     7
 10
285.0675654545
 20
225.6721435724
 30
0.0
 11
285.0675654545
 21
232.6721428571
 31
0.0
  0
ARC
  5
10C
  8
0
  6
CONTINUOUS
 62
     7
 10
275.0675653472
 20
232.6721428571
 30
0.0
 40
1.0
 50
90.0
 51
180.0
  0
LINE
  5
10D
  8
0
  6
CONTINUOUS
 62
     7
 10
285.8675652131
 20
223.8721429048
 30
0.0
 11
285.8675652131
 21
223.6721454797
 31
0.0
  0
LINE
  5
10E
  8
0
  6
CONTINUOUS
 62
     7
 10
285.8675652131
 20
223.6721454797
 30
0.0
 11
285.0675654545
 21
223.6721454797
 31
0.0
  0
LINE
  5
10F
  8
0
  6
CONTINUOUS
 62
     7
 10
285.0675654545
 20
223.6721454797
 30
0.0
 11
285.0675654545
 21
225.6721435724
 31
0.0
  0
POLYLINE
  5
110
  8
0
  6
CONTINUOUS
 62
     7
 66
     1
 10
0.0
 20
0.0
 30
0.0
  0
VERTEX
  5
1EB
  8
0
  6
CONTINUOUS
 62
     7
 10
297.9184714093
 20
249.064236754
 30
0.0
  0
VERTEX
  5
1EC
  8
0
  6
CONTINUOUS
 62
     7
 10
298.0884385243
 20
249.4287072359
 30
0.0
  0
VERTEX
  5
1ED
  8
0
  6
CONTINUOUS
 62
     7
 10
298.335963203
 20
249.7669457136
 30
0.0
  0
VERTEX
  5
1EE
  8
0
  6
CONTINUOUS
 62
     7
 10
298.727974011
 20
250.139969462
 30
0.0
  0
VERTEX
  5
1EF
  8
0
  6
CONTINUOUS
 62
     7
 10
299.1855901613
 20
250.45575487
 30
0.0
  0
VERTEX
  5
1F0
  8
0
  6
CONTINUOUS
 62
     7
 10
299.959584786
 20
250.8343695341
 30
0.0
  0
VERTEX
  5
1F1
  8
0
  6
CONTINUOUS
 62
     7
 10
300.7937562599
 20
251.1121450601
 30
0.0
  0
SEQEND
  5
205
  8
0
  6
CONTINUOUS
 62
     7
  0
POLYLINE
  5
111
  8
0
  6
CONTINUOUS
 62
     7
 66
     1
 10
0.0
 20
0.0
 30
0.0
  0
VERTEX
  5
1F2
  8
0
  6
CONTINUOUS
 62
     7
 10
303.7010249629
 20
246.2747155367
 30
0.0
  0
VERTEX
  5
1F3
  8
0
  6
CONTINUOUS
 62
     7
 10
301.6696331039
 20
246.3314830003
 30
0.0
  0
VERTEX
  5
1F4
  8
0
  6
CONTINUOUS
 62
     7
 10
300.5787772074
 20
246.4596151052
 30
0.0
  0
VERTEX
  5
1F5
  8
0
  6
CONTINUOUS
 62
     7
 10
299.5188084378
 20
246.7328606783
 30
0.0
  0
VERTEX
  5
1F6
  8
0
  6
CONTINUOUS
 62
     7
 10
298.8275376096
 20
247.0565317808
 30
0.0
  0
VERTEX
  5
1F7
  8
0
  6
CONTINUOUS
 62
     7
 10
298.5118311777
 20
247.2779630361
 30
0.0
  0
VERTEX
  5
1F8
  8
0
  6
CONTINUOUS
 62
     7
 10
298.2349929347
 20
247.5453733144
 30
0.0
  0
VERTEX
  5
1F9
  8
0
  6
CONTINUOUS
 62
     7
 10
297.9459878936
 20
248.0077861486
 30
0.0
  0
VERTEX
  5
1FA
  8
0
  6
CONTINUOUS
 62
     7
 10
297.8343290224
 20
248.5448120771
 30
0.0
  0
VERTEX
  5
1FB
  8
0
  6
CONTINUOUS
 62
     7
 10
297.9184714093
 20
249.064236754
 30
0.0
  0
SEQEND
  5
204
  8
0
  6
CONTINUOUS
 62
     7
  0
LINE
  5
112
  8
0
  6
CONTINUOUS
 62
     7
 10
305.9675660863
 20
246.2831197916
 30
0.0
 11
303.7010249629
 21
246.2747155367
 31
0.0
  0
LINE
  5
113
  8
0
  6
CONTINUOUS
 62
     7
 10
316.9675645366
 20
246.2831197916
 30
0.0
 11
305.9675660863
 21
246.2831197916
 31
0.0
  0
ARC
  5
114
  8
0
  6
CONTINUOUS
 62
     7
 10
277.573547105
 20
359.1616524579
 30
0.0
 40
120.0
 50
280.9468409701
 51
289.1646231125
  0
LINE
  5
115
  8
0
  6
CONTINUOUS
 62
     7
 10
300.3613260522
 20
241.345196837
 30
0.0
 11
295.9483799472
 21
240.4916583238
 31
0.0
  0
ARC
  5
116
  8
0
  6
CONTINUOUS
 62
     7
 10
297.4675653472
 20
232.6372253087
 30
0.0
 40
8.0
 50
100.9468409701
 51
180.0
  0
LINE
  5
117
  8
0
  6
CONTINUOUS
 62
     7
 10
289.4675654307
 20
232.6372264562
 30
0.0
 11
289.4675654307
 21
231.8721412359
 31
0.0
  0
ARC
  5
118
  8
0
  6
CONTINUOUS
 62
     7
 10
287.4675653472
 20
231.8721428571
 30
0.0
 40
2.0
 50
270.0
 51
0.0
  0
LINE
  5
119
  8
0
  6
CONTINUOUS
 62
     7
 10
287.4675651028
 20
229.8721431432
 30
0.0
 11
286.0675652459
 21
229.8721431432
 31
0.0
  0
LINE
  5
11A
  8
0
  6
CONTINUOUS
 62
     7
 10
274.0675655141
 20
229.8721431432
 30
0.0
 11
273.267565383
 21
229.8721431432
 31
0.0
  0
ARC
  5
11B
  8
0
  6
CONTINUOUS
 62
     7
 10
273.2675653472
 20
231.8721428571
 30
0.0
 40
2.0
 50
180.0
 51
270.0
  0
LINE
  5
11C
  8
0
  6
CONTINUOUS
 62
     7
 10
271.2675650552
 20
231.8721412359
 30
0.0
 11
271.2675650552
 21
234.4331680475
 31
0.0
  0
ARC
  5
11D
  8
0
  6
CONTINUOUS
 62
     7
 10
279.2675653472
 20
234.4331673075
 30
0.0
 40
8.000000000000032
 50
140.3596923241
 51
180.0
  0
ARC
  5
11E
  8
0
  6
CONTINUOUS
 62
     7
 10
297.7491163067
 20
219.121985964
 30
0.0
 40
32.00000000000001
 50
129.5627908875
 51
140.3596923241
  0
ARC
  5
11F
  8
0
  6
CONTINUOUS
 62
     7
 10
297.7491163067
 20
219.121985964
 30
0.0
 40
31.99999999999999
 50
91.4211498515
 51
117.9157975373
  0
LINE
  5
120
  8
0
  6
CONTINUOUS
 62
     7
 10
296.9554779067
 20
251.1121450601
 30
0.0
 11
300.7937562599
 21
251.1121450601
 31
0.0
  0
LINE
  5
121
  8
0
  6
CONTINUOUS
 62
     7
 10
316.9675645366
 20
246.2831197916
 30
0.0
 11
316.9675645366
 21
245.81214177
 31
0.0
  0
LINE
  5
122
  8
0
  6
CONTINUOUS
 62
     7
 10
355.5875656142
 20
245.2777205644
 30
0.0
 11
355.5875656142
 21
245.1601563631
 31
0.0
  0
LINE
  5
123
  8
0
  6
CONTINUOUS
 62
     7
 10
360.9675642982
 20
245.1601563631
 30
0.0
 11
360.9675642982
 21
246.8779860674
 31
0.0
  0
LINE
  5
124
  8
0
  6
CONTINUOUS
 62
     7
 10
360.9675642982
 20
246.8779860674
 30
0.0
 11
360.9671232238
 21
246.9262419878
 31
0.0
  0
LINE
  5
125
  8
0
  6
CONTINUOUS
 62
     7
 10
153.9524385749
 20
102.850443264
 30
0.0
 11
153.9524385749
 21
87.8504437622
 31
0.0
  0
LINE
  5
126
  8
0
  6
CONTINUOUS
 62
     7
 10
159.3524346172
 20
87.8504437622
 30
0.0
 11
159.3524346172
 21
102.850443264
 31
0.0
  0
LINE
  5
127
  8
0
  6
CONTINUOUS
 62
     7
 10
159.3524346172
 20
67.8504434642
 30
0.0
 11
159.3524346172
 21
87.8504437622
 31
0.0
  0
LINE
  5
128
  8
0
  6
CONTINUOUS
 62
     7
 10
153.9524385749
 20
87.8504437622
 30
0.0
 11
153.9524385749
 21
67.8504434642
 31
0.0
  0
LINE
  5
129
  8
0
  6
CONTINUOUS
 62
     7
 10
153.9524385749
 20
67.8504434642
 30
0.0
 11
153.9524385749
 21
52.8504458484
 31
0.0
  0
LINE
  5
12A
  8
0
  6
CONTINUOUS
 62
     7
 10
159.3524346172
 20
52.8504458484
 30
0.0
 11
159.3524346172
 21
67.8504434642
 31
0.0
  0
LINE
  5
12B
  8
0
  6
CONTINUOUS
 62
     7
 10
33.952439767
 20
102.850443264
 30
0.0
 11
33.952439767
 21
87.8504437622
 31
0.0
  0
LINE
  5
12C
  8
0
  6
CONTINUOUS
 62
     7
 10
39.3524358093
 20
87.8504437622
 30
0.0
 11
39.3524358093
 21
102.850443264
 31
0.0
  0
LINE
  5
12D
  8
0
  6
CONTINUOUS
 62
     7
 10
39.3524358093
 20
67.8504434642
 30
0.0
 11
39.3524358093
 21
87.8504437622
 31
0.0
  0
LINE
  5
12E
  8
0
  6
CONTINUOUS
 62
     7
 10
33.952439767
 20
87.8504437622
 30
0.0
 11
33.952439767
 21
67.8504434642
 31
0.0
  0
LINE
  5
12F
  8
0
  6
CONTINUOUS
 62
     7
 10
33.952439767
 20
67.8504434642
 30
0.0
 11
33.952439767
 21
52.8504458484
 31
0.0
  0
LINE
  5
130
  8
0
  6
CONTINUOUS
 62
     7
 10
39.3524358093
 20
52.8504458484
 30
0.0
 11
39.3524358093
 21
67.8504434642
 31
0.0
  0
ARC
  5
131
  8
0
  6
CONTINUOUS
 62
     7
 10
121.836097221
 20
36.8273174324
 30
0.0
 40
14.86825590731775
 50
270.8245009774
 51
0.4742439197
  0
ARC
  5
132
  8
0
  6
CONTINUOUS
 62
     7
 10
71.4679889729
 20
36.8238474332
 30
0.0
 40
14.86657772581381
 50
179.5129030109
 51
269.3234303013
  0
ARC
  5
133
  8
0
  6
CONTINUOUS
 62
     7
 10
121.8249424663
 20
77.0388026011
 30
0.0
 40
14.87761379013465
 50
359.6598601843
 51
32.699089261
  0
ARC
  5
134
  8
0
  6
CONTINUOUS
 62
     7
 10
71.5719698331
 20
77.0062525912
 30
0.0
 40
14.97534924019682
 50
147.3882171823
 51
180.2161070771
  0
ARC
  5
135
  8
0
  6
CONTINUOUS
 62
     7
 10
71.3961167845
 20
77.2434380797
 30
0.0
 40
14.69880721282065
 50
90.699217633
 51
141.1138418288
  0
ARC
  5
136
  8
0
  6
CONTINUOUS
 62
     7
 10
121.9118012678
 20
77.2667839283
 30
0.0
 40
14.67823162505238
 50
38.7741745702
 51
89.7632189336
  0
LINE
  5
137
  8
0
  6
CONTINUOUS
 62
     7
 10
56.5936813175
 20
76.9504425344
 30
0.0
 11
56.5936813175
 21
36.9504419383
 31
0.0
  0
LINE
  5
138
  8
0
  6
CONTINUOUS
 62
     7
 10
136.7111930668
 20
36.9504419383
 30
0.0
 11
136.7111930668
 21
76.9504425344
 31
0.0
  0
ARC
  5
139
  8
0
  6
CONTINUOUS
 62
     7
 10
156.6524371921
 20
102.8504432735
 30
0.0
 40
2.700000000000017
 50
0.0
 51
180.0
  0
ARC
  5
13A
  8
0
  6
CONTINUOUS
 62
     7
 10
156.6524371921
 20
52.8504432735
 30
0.0
 40
2.700000000000017
 50
180.0
 51
0.0
  0
LINE
  5
13B
  8
0
  6
CONTINUOUS
 62
     7
 10
150.6524393379
 20
107.6504432824
 30
0.0
 11
150.6524393379
 21
108.8504431066
 31
0.0
  0
LINE
  5
13C
  8
0
  6
CONTINUOUS
 62
     7
 10
150.6524393379
 20
108.8504431066
 30
0.0
 11
162.6524398147
 21
108.8504431066
 31
0.0
  0
LINE
  5
13D
  8
0
  6
CONTINUOUS
 62
     7
 10
162.6524398147
 20
108.8504431066
 30
0.0
 11
162.6524398147
 21
107.6504432824
 31
0.0
  0
LINE
  5
13E
  8
0
  6
CONTINUOUS
 62
     7
 10
150.6524393379
 20
107.6504432824
 30
0.0
 11
150.6524393379
 21
98.050443199
 31
0.0
  0
LINE
  5
13F
  8
0
  6
CONTINUOUS
 62
     7
 10
162.6524398147
 20
107.6504432824
 30
0.0
 11
162.6524398147
 21
98.050443199
 31
0.0
  0
LINE
  5
140
  8
0
  6
CONTINUOUS
 62
     7
 10
162.6524398147
 20
96.8504433748
 30
0.0
 11
159.3524346172
 21
96.8504433748
 31
0.0
  0
LINE
  5
141
  8
0
  6
CONTINUOUS
 62
     7
 10
153.9524385749
 20
96.8504433748
 30
0.0
 11
150.6524393379
 21
96.8504433748
 31
0.0
  0
LINE
  5
142
  8
0
  6
CONTINUOUS
 62
     7
 10
150.6524393379
 20
96.8504433748
 30
0.0
 11
150.6524393379
 21
98.050443199
 31
0.0
  0
LINE
  5
143
  8
0
  6
CONTINUOUS
 62
     7
 10
162.6524398147
 20
98.050443199
 30
0.0
 11
162.6524398147
 21
96.8504433748
 31
0.0
  0
ARC
  5
144
  8
0
  6
CONTINUOUS
 62
     7
 10
36.6524371921
 20
102.8504432735
 30
0.0
 40
2.70000000000001
 50
0.0
 51
180.0
  0
ARC
  5
145
  8
0
  6
CONTINUOUS
 62
     7
 10
36.6524371921
 20
52.8504432735
 30
0.0
 40
2.70000000000001
 50
180.0
 51
0.0
  0
LINE
  5
146
  8
0
  6
CONTINUOUS
 62
     7
 10
30.6524345695
 20
108.8504431066
 30
0.0
 11
42.6524350464
 21
108.8504431066
 31
0.0
  0
LINE
  5
147
  8
0
  6
CONTINUOUS
 62
     7
 10
42.6524350464
 20
108.8504431066
 30
0.0
 11
42.6524350464
 21
107.6504432824
 31
0.0
  0
LINE
  5
148
  8
0
  6
CONTINUOUS
 62
     7
 10
30.6524345695
 20
107.6504432824
 30
0.0
 11
30.6524345695
 21
108.8504431066
 31
0.0
  0
LINE
  5
149
  8
0
  6
CONTINUOUS
 62
     7
 10
42.6524350464
 20
107.6504432824
 30
0.0
 11
42.6524350464
 21
98.050443199
 31
0.0
  0
LINE
  5
14A
  8
0
  6
CONTINUOUS
 62
     7
 10
30.6524345695
 20
107.6504432824
 30
0.0
 11
30.6524345695
 21
98.050443199
 31
0.0
  0
LINE
  5
14B
  8
0
  6
CONTINUOUS
 62
     7
 10
42.6524350464
 20
96.8504433748
 30
0.0
 11
39.3524358093
 21
96.8504433748
 31
0.0
  0
LINE
  5
14C
  8
0
  6
CONTINUOUS
 62
     7
 10
33.952439767
 20
96.8504433748
 30
0.0
 11
30.6524345695
 21
96.8504433748
 31
0.0
  0
LINE
  5
14D
  8
0
  6
CONTINUOUS
 62
     7
 10
42.6524350464
 20
98.050443199
 30
0.0
 11
42.6524350464
 21
96.8504433748
 31
0.0
  0
LINE
  5
14E
  8
0
  6
CONTINUOUS
 62
     7
 10
30.6524345695
 20
96.8504433748
 30
0.0
 11
30.6524345695
 21
98.050443199
 31
0.0
  0
LINE
  5
14F
  8
0
  6
CONTINUOUS
 62
     7
 10
165.4524395286
 20
107.6504432824
 30
0.0
 11
165.4524395286
 21
107.0504431841
 31
0.0
  0
ARC
  5
150
  8
0
  6
CONTINUOUS
 62
     7
 10
165.0524371921
 20
107.6504432735
 30
0.0
 40
0.4000000000000057
 50
0.0
 51
90.0
  0
LINE
  5
151
  8
0
  6
CONTINUOUS
 62
     7
 10
28.2524356662
 20
108.050443348
 30
0.0
 11
30.6524345695
 21
108.050443348
 31
0.0
  0
LINE
  5
152
  8
0
  6
CONTINUOUS
 62
     7
 10
42.6524350464
 20
108.050443348
 30
0.0
 11
54.152436
 21
108.050443348
 31
0.0
  0
LINE
  5
153
  8
0
  6
CONTINUOUS
 62
     7
 10
64.1524383842
 20
108.050443348
 30
0.0
 11
129.152436
 21
108.050443348
 31
0.0
  0
LINE
  5
154
  8
0
  6
CONTINUOUS
 62
     7
 10
139.1524383842
 20
108.050443348
 30
0.0
 11
150.6524393379
 21
108.050443348
 31
0.0
  0
LINE
  5
155
  8
0
  6
CONTINUOUS
 62
     7
 10
162.6524398147
 20
108.050443348
 30
0.0
 11
165.052438718
 21
108.050443348
 31
0.0
  0
LINE
  5
156
  8
0
  6
CONTINUOUS
 62
     7
 10
27.8524348556
 20
99.0504433629
 30
0.0
 11
27.8524348556
 21
107.0504431841
 31
0.0
  0
LINE
  5
157
  8
0
  6
CONTINUOUS
 62
     7
 10
165.4524395286
 20
107.0504431841
 30
0.0
 11
165.4524395286
 21
99.0504433629
 31
0.0
  0
LINE
  5
158
  8
0
  6
CONTINUOUS
 62
     7
 10
27.8524348556
 20
107.0504431841
 30
0.0
 11
27.8524348556
 21
107.6504432824
 31
0.0
  0
ARC
  5
159
  8
0
  6
CONTINUOUS
 62
     7
 10
28.2524371921
 20
107.6504432735
 30
0.0
 40
0.4000000000000057
 50
90.0
 51
180.0
  0
LINE
  5
15A
  8
0
  6
CONTINUOUS
 62
     7
 10
165.4524395286
 20
99.0504433629
 30
0.0
 11
165.4524395286
 21
98.4504432645
 31
0.0
  0
ARC
  5
15B
  8
0
  6
CONTINUOUS
 62
     7
 10
165.0524371921
 20
98.4504432735
 30
0.0
 40
0.4000000000000057
 50
270.0
 51
0.0
  0
LINE
  5
15C
  8
0
  6
CONTINUOUS
 62
     7
 10
165.052438718
 20
98.050443199
 30
0.0
 11
162.6524398147
 21
98.050443199
 31
0.0
  0
LINE
  5
15D
  8
0
  6
CONTINUOUS
 62
     7
 10
150.6524393379
 20
98.050443199
 30
0.0
 11
139.1524383842
 21
98.050443199
 31
0.0
  0
LINE
  5
15E
  8
0
  6
CONTINUOUS
 62
     7
 10
129.152436
 20
98.050443199
 30
0.0
 11
64.1524383842
 21
98.050443199
 31
0.0
  0
LINE
  5
15F
  8
0
  6
CONTINUOUS
 62
     7
 10
54.152436
 20
98.050443199
 30
0.0
 11
42.6524350464
 21
98.050443199
 31
0.0
  0
LINE
  5
160
  8
0
  6
CONTINUOUS
 62
     7
 10
30.6524345695
 20
98.050443199
 30
0.0
 11
28.2524356662
 21
98.050443199
 31
0.0
  0
LINE
  5
161
  8
0
  6
CONTINUOUS
 62
     7
 10
27.8524348556
 20
98.4504432645
 30
0.0
 11
27.8524348556
 21
99.0504433629
 31
0.0
  0
ARC
  5
162
  8
0
  6
CONTINUOUS
 62
     7
 10
28.2524371921
 20
98.4504432735
 30
0.0
 40
0.4000000000000057
 50
180.0
 51
270.0
  0
CIRCLE
  5
163
  8
0
  6
CONTINUOUS
 62
     7
 10
104.6524371921
 20
111.0504432735
 30
0.0
 40
1.500000000000014
  0
CIRCLE
  5
164
  8
0
  6
CONTINUOUS
 62
     7
 10
88.6524371921
 20
111.0504432735
 30
0.0
 40
1.500000000000014
  0
ARC
  5
165
  8
0
  6
CONTINUOUS
 62
     7
 10
164.6524371921
 20
109.0504432735
 30
0.0
 40
80.00000000000001
 50
187.9032077335
 51
192.3422028872
  0
LINE
  5
166
  8
0
  6
CONTINUOUS
 62
     7
 10
84.6586877524
 20
108.050443348
 30
0.0
 11
84.6524374603
 21
109.0504431394
 31
0.0
  0
LINE
  5
167
  8
0
  6
CONTINUOUS
 62
     7
 10
84.6524374603
 20
111.0504430947
 30
0.0
 11
84.6524374603
 21
109.0504431394
 31
0.0
  0
ARC
  5
168
  8
0
  6
CONTINUOUS
 62
     7
 10
88.6524371921
 20
111.0504432735
 30
0.0
 40
4.0
 50
90.0
 51
180.0
  0
LINE
  5
169
  8
0
  6
CONTINUOUS
 62
     7
 10
104.6524370133
 20
115.0504430052
 30
0.0
 11
88.6524373709
 21
115.0504430052
 31
0.0
  0
ARC
  5
16A
  8
0
  6
CONTINUOUS
 62
     7
 10
104.6524371921
 20
111.0504432735
 30
0.0
 40
4.0
 50
0.0
 51
90.0
  0
LINE
  5
16B
  8
0
  6
CONTINUOUS
 62
     7
 10
108.6524369239
 20
109.0504431394
 30
0.0
 11
108.6524369239
 21
111.0504430947
 31
0.0
  0
LINE
  5
16C
  8
0
  6
CONTINUOUS
 62
     7
 10
108.6524369239
 20
109.0504431394
 30
0.0
 11
108.6461866318
 21
108.050443348
 31
0.0
  0
ARC
  5
16D
  8
0
  6
CONTINUOUS
 62
     7
 10
28.6524371921
 20
109.0504432735
 30
0.0
 40
80.00000000000001
 50
347.6577971128
 51
352.0967922665
  0
POLYLINE
  5
16E
  8
0
  6
CONTINUOUS
 62
     7
 66
     1
 10
0.0
 20
0.0
 30
0.0
  0
VERTEX
  5
1FC
  8
0
  6
CONTINUOUS
 62
     7
 10
59.9524358331
 20
83.5936752376
 30
0.0
  0
VERTEX
  5
1FD
  8
0
  6
CONTINUOUS
 62
     7
 10
59.4168284952
 20
82.8894418892
 30
0.0
  0
VERTEX
  5
1FE
  8
0
  6
CONTINUOUS
 62
     7
 10
58.9524367868
 20
82.1242523607
 30
0.0
  0
SEQEND
  5
203
  8
0
  6
CONTINUOUS
 62
     7
  0
LINE
  5
16F
  8
0
  6
CONTINUOUS
 62
     7
 10
71.3082173883
 20
91.9451040444
 30
0.0
 11
71.4317539751
 21
91.9504431304
 31
0.0
  0
ARC
  5
170
  8
0
  6
CONTINUOUS
 62
     7
 10
71.7920140441
 20
77.0442793684
 30
0.0
 40
10.07562233077793
 50
100.5230987956
 51
180.5336178852
  0
LINE
  5
171
  8
0
  6
CONTINUOUS
 62
     7
 10
121.9843635379
 20
21.95682798
 30
0.0
 11
121.8731204092
 21
21.9504443225
 31
0.0
  0
ARC
  5
172
  8
0
  6
CONTINUOUS
 62
     7
 10
121.5128662866
 20
36.8566046358
 30
0.0
 40
10.07561638898616
 50
280.5230706788
 51
0.5336208642
  0
POLYLINE
  5
173
  8
0
  6
CONTINUOUS
 62
     7
 66
     1
 10
0.0
 20
0.0
 30
0.0
  0
VERTEX
  5
1FF
  8
0
  6
CONTINUOUS
 62
     7
 10
133.3524385511
 20
83.5936752376
 30
0.0
  0
VERTEX
  5
200
  8
0
  6
CONTINUOUS
 62
     7
 10
133.8880458891
 20
82.8894418892
 30
0.0
  0
VERTEX
  5
201
  8
0
  6
CONTINUOUS
 62
     7
 10
134.3524375974
 20
82.1242523607
 30
0.0
  0
SEQEND
  5
202
  8
0
  6
CONTINUOUS
 62
     7
  0
ARC
  5
174
  8
0
  6
CONTINUOUS
 62
     7
 10
121.5305956263
 20
77.0588844732
 30
0.0
 40
10.05803467908727
 50
359.3822465328
 51
79.5610367863
  0
LINE
  5
175
  8
0
  6
CONTINUOUS
 62
     7
 10
71.4317539751
 20
21.9504443225
 30
0.0
 11
71.3386187374
 21
21.9556954917
 31
0.0
  0
ARC
  5
176
  8
0
  6
CONTINUOUS
 62
     7
 10
71.7742719594
 20
36.8419988228
 30
0.0
 40
10.05802789364271
 50
179.3822394123
 51
259.5610690447
  0
LINE
  5
177
  8
0
  6
CONTINUOUS
 62
     7
 10
61.7168286859
 20
76.9504425344
 30
0.0
 11
61.7168286859
 21
36.9504419383
 31
0.0
  0
LINE
  5
178
  8
0
  6
CONTINUOUS
 62
     7
 10
131.5880456983
 20
36.9504419383
 30
0.0
 11
131.5880456983
 21
76.9504425344
 31
0.0
  0
LINE
  5
179
  8
0
  6
CONTINUOUS
 62
     7
 10
133.3524385511
 20
85.962530714
 30
0.0
 11
134.3524375974
 21
85.962530714
 31
0.0
  0
LINE
  5
17A
  8
0
  6
CONTINUOUS
 62
     7
 10
133.3524385511
 20
109.8109600362
 30
0.0
 11
133.3524385511
 21
85.962530714
 31
0.0
  0
LINE
  5
17B
  8
0
  6
CONTINUOUS
 62
     7
 10
134.3524375974
 20
109.8109600362
 30
0.0
 11
134.3524375974
 21
85.962530714
 31
0.0
  0
LINE
  5
17C
  8
0
  6
CONTINUOUS
 62
     7
 10
59.9524358331
 20
85.962530714
 30
0.0
 11
58.9524367868
 21
85.962530714
 31
0.0
  0
LINE
  5
17D
  8
0
  6
CONTINUOUS
 62
     7
 10
58.9524367868
 20
109.8109600362
 30
0.0
 11
58.9524367868
 21
85.962530714
 31
0.0
  0
LINE
  5
17E
  8
0
  6
CONTINUOUS
 62
     7
 10
59.9524358331
 20
109.8109600362
 30
0.0
 11
59.9524358331
 21
85.962530714
 31
0.0
  0
LINE
  5
17F
  8
0
  6
CONTINUOUS
 62
     7
 10
58.9524367868
 20
85.962530714
 30
0.0
 11
58.9524367868
 21
82.1242523607
 31
0.0
  0
LINE
  5
180
  8
0
  6
CONTINUOUS
 62
     7
 10
59.9524358331
 20
85.962530714
 30
0.0
 11
59.9524358331
 21
83.5936752376
 31
0.0
  0
LINE
  5
181
  8
0
  6
CONTINUOUS
 62
     7
 10
133.3524385511
 20
85.962530714
 30
0.0
 11
133.3524385511
 21
83.5936752376
 31
0.0
  0
LINE
  5
182
  8
0
  6
CONTINUOUS
 62
     7
 10
134.3524375974
 20
85.962530714
 30
0.0
 11
134.3524375974
 21
82.1242523607
 31
0.0
  0
LINE
  5
183
  8
0
  6
CONTINUOUS
 62
     7
 10
69.9518838941
 20
26.9504455146
 30
0.0
 11
123.3529904901
 21
26.9504455146
 31
0.0
  0
LINE
  5
184
  8
0
  6
CONTINUOUS
 62
     7
 10
69.9518838941
 20
86.9504434284
 30
0.0
 11
123.3529904901
 21
86.9504434284
 31
0.0
  0
LINE
  5
185
  8
0
  6
CONTINUOUS
 62
     7
 10
71.4317539751
 20
91.9504431304
 30
0.0
 11
121.8731204092
 21
91.9504431304
 31
0.0
  0
LINE
  5
186
  8
0
  6
CONTINUOUS
 62
     7
 10
121.8731204092
 20
21.9504443225
 30
0.0
 11
71.4317539751
 21
21.9504443225
 31
0.0
  0
LINE
  5
187
  8
0
  6
CONTINUOUS
 62
     7
 10
133.3524385511
 20
111.6504435655
 30
0.0
 11
134.3524375974
 21
111.6504435655
 31
0.0
  0
LINE
  5
188
  8
0
  6
CONTINUOUS
 62
     7
 10
133.3524385511
 20
111.6504435655
 30
0.0
 11
133.3524385511
 21
109.8109600362
 31
0.0
  0
LINE
  5
189
  8
0
  6
CONTINUOUS
 62
     7
 10
134.3524375974
 20
111.6504435655
 30
0.0
 11
134.3524375974
 21
109.8109600362
 31
0.0
  0
LINE
  5
18A
  8
0
  6
CONTINUOUS
 62
     7
 10
59.9524358331
 20
111.6504435655
 30
0.0
 11
58.9524367868
 21
111.6504435655
 31
0.0
  0
LINE
  5
18B
  8
0
  6
CONTINUOUS
 62
     7
 10
58.9524367868
 20
111.6504435655
 30
0.0
 11
58.9524367868
 21
109.8109600362
 31
0.0
  0
LINE
  5
18C
  8
0
  6
CONTINUOUS
 62
     7
 10
59.9524358331
 20
111.6504435655
 30
0.0
 11
59.9524358331
 21
109.8109600362
 31
0.0
  0
LINE
  5
18D
  8
0
  6
CONTINUOUS
 62
     7
 10
129.152436
 20
98.050443199
 30
0.0
 11
129.152436
 21
107.8504433152
 31
0.0
  0
LINE
  5
18E
  8
0
  6
CONTINUOUS
 62
     7
 10
64.1524383842
 20
98.050443199
 30
0.0
 11
64.1524383842
 21
107.8504433152
 31
0.0
  0
LINE
  5
18F
  8
0
  6
CONTINUOUS
 62
     7
 10
64.1524383842
 20
97.0504434076
 30
0.0
 11
59.9524358331
 21
97.0504434076
 31
0.0
  0
LINE
  5
190
  8
0
  6
CONTINUOUS
 62
     7
 10
64.1524383842
 20
98.050443199
 30
0.0
 11
64.1524383842
 21
97.0504434076
 31
0.0
  0
LINE
  5
191
  8
0
  6
CONTINUOUS
 62
     7
 10
133.3524385511
 20
97.0504434076
 30
0.0
 11
129.152436
 21
97.0504434076
 31
0.0
  0
LINE
  5
192
  8
0
  6
CONTINUOUS
 62
     7
 10
129.152436
 20
97.0504434076
 30
0.0
 11
129.152436
 21
98.050443199
 31
0.0
  0
LINE
  5
193
  8
0
  6
CONTINUOUS
 62
     7
 10
64.1524383842
 20
108.8504431066
 30
0.0
 11
59.9524358331
 21
108.8504431066
 31
0.0
  0
LINE
  5
194
  8
0
  6
CONTINUOUS
 62
     7
 10
64.1524383842
 20
108.8504431066
 30
0.0
 11
64.1524383842
 21
107.8504433152
 31
0.0
  0
LINE
  5
195
  8
0
  6
CONTINUOUS
 62
     7
 10
133.3524385511
 20
108.8504431066
 30
0.0
 11
129.152436
 21
108.8504431066
 31
0.0
  0
LINE
  5
196
  8
0
  6
CONTINUOUS
 62
     7
 10
129.152436
 20
107.8504433152
 30
0.0
 11
129.152436
 21
108.8504431066
 31
0.0
  0
LINE
  5
197
  8
0
  6
CONTINUOUS
 62
     7
 10
54.152436
 20
98.050443199
 30
0.0
 11
54.152436
 21
107.8504433152
 31
0.0
  0
LINE
  5
198
  8
0
  6
CONTINUOUS
 62
     7
 10
54.152436
 20
107.8504433152
 30
0.0
 11
54.152436
 21
108.8504431066
 31
0.0
  0
LINE
  5
199
  8
0
  6
CONTINUOUS
 62
     7
 10
58.9524367868
 20
108.8504431066
 30
0.0
 11
54.152436
 21
108.8504431066
 31
0.0
  0
LINE
  5
19A
  8
0
  6
CONTINUOUS
 62
     7
 10
139.1524383842
 20
98.050443199
 30
0.0
 11
139.1524383842
 21
107.8504433152
 31
0.0
  0
LINE
  5
19B
  8
0
  6
CONTINUOUS
 62
     7
 10
139.1524383842
 20
108.8504431066
 30
0.0
 11
134.3524375974
 21
108.8504431066
 31
0.0
  0
LINE
  5
19C
  8
0
  6
CONTINUOUS
 62
     7
 10
139.1524383842
 20
107.8504433152
 30
0.0
 11
139.1524383842
 21
108.8504431066
 31
0.0
  0
LINE
  5
19D
  8
0
  6
CONTINUOUS
 62
     7
 10
139.1524383842
 20
97.0504434076
 30
0.0
 11
134.3524375974
 21
97.0504434076
 31
0.0
  0
LINE
  5
19E
  8
0
  6
CONTINUOUS
 62
     7
 10
139.1524383842
 20
97.0504434076
 30
0.0
 11
139.1524383842
 21
98.050443199
 31
0.0
  0
LINE
  5
19F
  8
0
  6
CONTINUOUS
 62
     7
 10
58.9524367868
 20
97.0504434076
 30
0.0
 11
54.152436
 21
97.0504434076
 31
0.0
  0
LINE
  5
1A0
  8
0
  6
CONTINUOUS
 62
     7
 10
54.152436
 20
97.0504434076
 30
0.0
 11
54.152436
 21
98.050443199
 31
0.0
  0
ENDSEC
  0
EOF
