  0
SECTION
  2
HEADER
  9
$ACADVER
  1
AC1009
  9
$DWGCODEPAGE
  3
ansi_1252
  9
$INSBASE
 10
0.0
 20
0.0
 30
0.0
  9
$EXTMIN
 10
0.0
 20
0.0
 30
0.0
  9
$EXTMAX
 10
420.0
 20
297.0
 30
0.0
  9
$LIMMIN
 10
0.0
 20
0.0
  9
$LIMMAX
 10
420.0
 20
297.0
  9
$ORTHOMODE
 70
     0
  9
$REGENMODE
 70
     1
  9
$FILLMODE
 70
     1
  9
$QTEXTMODE
 70
     0
  9
$MIRRTEXT
 70
     1
  9
$DRAGMODE
 70
     2
  9
$LTSCALE
 40
1.0
  9
$OSMODE
 70
    37
  9
$ATTMODE
 70
     1
  9
$TEXTSIZE
 40
3.5
  9
$TRACEWID
 40
1.0
  9
$TEXTSTYLE
  7
STANDARD
  9
$CLAYER
  8
0
  9
$CELTYPE
  6
BYLAYER
  9
$CECOLOR
 62
   256
  9
$DIMSCALE
 40
1.0
  9
$DIMASZ
 40
4.0
  9
$DIMEXO
 40
0.0
  9
$DIMDLI
 40
3.75
  9
$DIMRND
 40
0.0
  9
$DIMDLE
 40
0.0
  9
$DIMEXE
 40
2.0
  9
$DIMTP
 40
0.0
  9
$DIMTM
 40
0.0
  9
$DIMTXT
 40
3.5
  9
$DIMCEN
 40
2.5
  9
$DIMTSZ
 40
0.0
  9
$DIMTOL
 70
     0
  9
$DIMLIM
 70
     0
  9
$DIMTIH
 70
     1
  9
$DIMTOH
 70
     1
  9
$DIMSE1
 70
     0
  9
$DIMSE2
 70
     0
  9
$DIMTAD
 70
     1
  9
$DIMZIN
 70
     0
  9
$DIMBLK
  1

  9
$DIMASO
 70
     1
  9
$DIMSHO
 70
     1
  9
$DIMPOST
  1

  9
$DIMAPOST
  1

  9
$DIMALT
 70
     0
  9
$DIMALTD
 70
     3
  9
$DIMALTF
 40
0.0393700787
  9
$DIMLFAC
 40
5.0
  9
$DIMTOFL
 70
     1
  9
$DIMTVP
 40
0.0
  9
$DIMTIX
 70
     0
  9
$DIMSOXD
 70
     0
  9
$DIMSAH
 70
     0
  9
$DIMBLK1
  1

  9
$DIMBLK2
  1

  9
$DIMSTYLE
  2
ISO-25
  9
$DIMCLRD
 70
     0
  9
$DIMCLRE
 70
     0
  9
$DIMCLRT
 70
     0
  9
$DIMTFAC
 40
1.0
  9
$DIMGAP
 40
1.524
  9
$LUNITS
 70
     2
  9
$LUPREC
 70
     2
  9
$SKETCHINC
 40
1.0
  9
$FILLETRAD
 40
10.0
  9
$AUNITS
 70
     0
  9
$AUPREC
 70
     2
  9
$MENU
  1
.
  9
$ELEVATION
 40
0.0
  9
$PELEVATION
 40
0.0
  9
$THICKNESS
 40
0.0
  9
$LIMCHECK
 70
     0
  9
$CHAMFERA
 40
10.0
  9
$CHAMFERB
 40
10.0
  9
$SKPOLY
 70
     0
  9
$TDCREATE
 40
2457802.358777789
  9
$TDUPDATE
 40
2457802.358778113
  9
$TDINDWG
 40
0.0000000116
  9
$TDUSRTIMER
 40
0.0000000116
  9
$USRTIMER
 70
     1
  9
$ANGBASE
 50
0.0
  9
$ANGDIR
 70
     0
  9
$PDMODE
 70
     0
  9
$PDSIZE
 40
-1.0
  9
$PLINEWID
 40
0.0
  9
$COORDS
 70
     1
  9
$SPLFRAME
 70
     0
  9
$SPLINETYPE
 70
     6
  9
$SPLINESEGS
 70
     8
  9
$ATTDIA
 70
     0
  9
$ATTREQ
 70
     1
  9
$HANDLING
 70
     1
  9
$HANDSEED
  5
894
  9
$SURFTAB1
 70
     6
  9
$SURFTAB2
 70
     6
  9
$SURFTYPE
 70
     6
  9
$SURFU
 70
     6
  9
$SURFV
 70
     6
  9
$UCSNAME
  2

  9
$UCSORG
 10
0.0
 20
0.0
 30
0.0
  9
$UCSXDIR
 10
1.0
 20
0.0
 30
0.0
  9
$UCSYDIR
 10
0.0
 20
1.0
 30
0.0
  9
$PUCSNAME
  2

  9
$PUCSORG
 10
0.0
 20
0.0
 30
0.0
  9
$PUCSXDIR
 10
1.0
 20
0.0
 30
0.0
  9
$PUCSYDIR
 10
0.0
 20
1.0
 30
0.0
  9
$USERI1
 70
     0
  9
$USERI2
 70
     0
  9
$USERI3
 70
     0
  9
$USERI4
 70
     0
  9
$USERI5
 70
     0
  9
$USERR1
 40
0.0
  9
$USERR2
 40
0.0
  9
$USERR3
 40
0.0
  9
$USERR4
 40
0.0
  9
$USERR5
 40
0.0
  9
$WORLDVIEW
 70
     1
  9
$SHADEDGE
 70
     3
  9
$SHADEDIF
 70
    70
  9
$TILEMODE
 70
     1
  9
$MAXACTVP
 70
    64
  9
$PLIMCHECK
 70
     0
  9
$PEXTMIN
 10
1.0000000000E+20
 20
1.0000000000E+20
 30
1.0000000000E+20
  9
$PEXTMAX
 10
-1.0000000000E+20
 20
-1.0000000000E+20
 30
-1.0000000000E+20
  9
$PLIMMIN
 10
0.0
 20
0.0
  9
$PLIMMAX
 10
420.0
 20
297.0
  9
$UNITMODE
 70
     0
  9
$VISRETAIN
 70
     1
  9
$PLINEGEN
 70
     0
  9
$PSLTSCALE
 70
     1
  0
ENDSEC
  0
SECTION
  2
TABLES
  0
TABLE
  2
VPORT
 70
     1
  0
VPORT
  2
*ACTIVE
 70
     0
 10
0.0
 20
0.0
 11
1.0
 21
1.0
 12
210.0
 22
148.5
 13
0.0
 23
0.0
 14
10.0
 24
10.0
 15
10.0
 25
10.0
 16
0.0
 26
0.0
 36
1.0
 17
0.0
 27
0.0
 37
0.0
 40
297.0
 41
1.4141414141
 42
50.0
 43
0.0
 44
0.0
 50
0.0
 51
0.0
 71
     0
 72
  2000
 73
     1
 74
     3
 75
     0
 76
     0
 77
     0
 78
     0
  0
ENDTAB
  0
TABLE
  2
LTYPE
 70
     6
  0
LTYPE
  2
CONTINUOUS
 70
     0
  3
Solid line
 72
    65
 73
     0
 40
0.0
  0
LTYPE
  2
HIDDEN
 70
     0
  3
Hidden __ __ __ __ __ __ __ __ __ __ __ __ __ __
 72
    65
 73
     2
 40
1.905
 49
1.27
 49
-0.635
  0
LTYPE
  2
PHANTOM
 70
     0
  3
Phantom ______  __  __  ______  __  __  ______
 72
    65
 73
     6
 40
12.7
 49
6.35
 49
-1.27
 49
1.27
 49
-1.27
 49
1.27
 49
-1.27
  0
LTYPE
  2
CENTER
 70
     0
  3
Center ____ _ ____ _ ____ _ ____ _ ____ _ ____
 72
    65
 73
     4
 40
10.16
 49
6.35
 49
-1.27
 49
1.27
 49
-1.27
  0
LTYPE
  2
CENTERX2
 70
     0
  3
Center (2x) ________  __  ________  __  _____
 72
    65
 73
     4
 40
20.32
 49
12.7
 49
-2.54
 49
2.54
 49
-2.54
  0
LTYPE
  2
DOT2
 70
     0
  3
Dot (.5x) ........................................
 72
    65
 73
     2
 40
0.635
 49
0.0
 49
-0.635
  0
ENDTAB
  0
TABLE
  2
LAYER
 70
     2
  0
LAYER
  2
0
 70
     0
 62
     7
  6
CONTINUOUS
  0
LAYER
  2
FORMAT
 70
     0
 62
     7
  6
CONTINUOUS
  0
ENDTAB
  0
TABLE
  2
STYLE
 70
     1
  0
STYLE
  2
STANDARD
 70
     0
 40
0.0
 41
1.0
 50
0.0
 71
     0
 42
3.5
  3
txt
  4

  0
ENDTAB
  0
TABLE
  2
VIEW
 70
     0
  0
ENDTAB
  0
TABLE
  2
UCS
 70
     0
  0
ENDTAB
  0
TABLE
  2
APPID
 70
     1
  0
APPID
  2
ACAD
 70
     0
  0
ENDTAB
  0
TABLE
  2
DIMSTYLE
 70
     1
  0
DIMSTYLE
  2
ISO-25
 70
     0
  3

  4

  5

  6

  7

 40
1.0
 41
2.5
 42
0.625
 43
3.75
 44
1.25
 45
0.0
 46
0.0
 47
0.0
 48
0.0
140
2.5
141
2.5
142
0.0
143
0.0393700787
144
1.0
145
0.0
146
1.0
147
0.625
 71
     0
 72
     0
 73
     0
 74
     0
 75
     0
 76
     0
 77
     1
 78
     8
170
     0
171
     3
172
     1
173
     0
174
     0
175
     0
176
     0
177
     0
178
     0
  0
ENDTAB
  0
ENDSEC
  0
SECTION
  2
BLOCKS
  0
BLOCK
  8
0
  2
$MODEL_SPACE
 70
     0
 10
0.0
 20
0.0
 30
0.0
  3
$MODEL_SPACE
  1

  0
ENDBLK
  5
21
  8
0
  0
BLOCK
 67
     1
  8
0
  2
$PAPER_SPACE
 70
     0
 10
0.0
 20
0.0
 30
0.0
  3
$PAPER_SPACE
  1

  0
ENDBLK
  5
1D
 67
     1
  8
0
  0
ENDSEC
  0
SECTION
  2
ENTITIES
  0
POLYLINE
  5
45
  8
0
  6
CONTINUOUS
 62
     7
 66
     1
 10
0.0
 20
0.0
 30
0.0
  0
VERTEX
  5
3E7
  8
0
  6
CONTINUOUS
 62
     7
 10
428.0538725526
 20
155.0051404414
 30
0.0
  0
VERTEX
  5
3E8
  8
0
  6
CONTINUOUS
 62
     7
 10
427.0662712724
 20
154.8732711253
 30
0.0
  0
VERTEX
  5
3E9
  8
0
  6
CONTINUOUS
 62
     7
 10
425.8567499788
 20
154.7173572955
 30
0.0
  0
VERTEX
  5
3EA
  8
0
  6
CONTINUOUS
 62
     7
 10
424.8726296098
 20
154.5944644389
 30
0.0
  0
VERTEX
  5
3EB
  8
0
  6
CONTINUOUS
 62
     7
 10
424.1142201097
 20
154.5021726069
 30
0.0
  0
VERTEX
  5
3EC
  8
0
  6
CONTINUOUS
 62
     7
 10
423.5085415513
 20
154.4308794913
 30
0.0
  0
VERTEX
  5
3ED
  8
0
  6
CONTINUOUS
 62
     7
 10
422.9123758943
 20
154.3647481379
 30
0.0
  0
VERTEX
  5
3EE
  8
0
  6
CONTINUOUS
 62
     7
 10
422.0288681657
 20
154.2743934569
 30
0.0
  0
VERTEX
  5
3EF
  8
0
  6
CONTINUOUS
 62
     7
 10
421.1584019334
 20
154.1939867911
 30
0.0
  0
VERTEX
  5
3F0
  8
0
  6
CONTINUOUS
 62
     7
 10
420.3010964067
 20
154.1220916686
 30
0.0
  0
VERTEX
  5
3F1
  8
0
  6
CONTINUOUS
 62
     7
 10
419.457213846
 20
154.0562881408
 30
0.0
  0
VERTEX
  5
3F2
  8
0
  6
CONTINUOUS
 62
     7
 10
418.6218428285
 20
153.9920462546
 30
0.0
  0
VERTEX
  5
3F3
  8
0
  6
CONTINUOUS
 62
     7
 10
417.7677082689
 20
153.9235545573
 30
0.0
  0
VERTEX
  5
3F4
  8
0
  6
CONTINUOUS
 62
     7
 10
416.8904709489
 20
153.8543654857
 30
0.0
  0
VERTEX
  5
3F5
  8
0
  6
CONTINUOUS
 62
     7
 10
415.9898686082
 20
153.787781137
 30
0.0
  0
VERTEX
  5
3F6
  8
0
  6
CONTINUOUS
 62
     7
 10
415.0657343538
 20
153.7243200717
 30
0.0
  0
VERTEX
  5
3F7
  8
0
  6
CONTINUOUS
 62
     7
 10
414.1180443437
 20
153.6637557921
 30
0.0
  0
VERTEX
  5
3F8
  8
0
  6
CONTINUOUS
 62
     7
 10
413.2370638521
 20
153.6111606536
 30
0.0
  0
VERTEX
  5
3F9
  8
0
  6
CONTINUOUS
 62
     7
 10
412.5735211046
 20
153.5734905181
 30
0.0
  0
VERTEX
  5
3FA
  8
0
  6
CONTINUOUS
 62
     7
 10
412.0737003953
 20
153.5461677489
 30
0.0
  0
VERTEX
  5
3FB
  8
0
  6
CONTINUOUS
 62
     7
 10
411.4575552614
 20
153.5136295733
 30
0.0
  0
VERTEX
  5
3FC
  8
0
  6
CONTINUOUS
 62
     7
 10
410.6849360139
 20
153.4745229659
 30
0.0
  0
VERTEX
  5
3FD
  8
0
  6
CONTINUOUS
 62
     7
 10
409.7557949693
 20
153.4298910079
 30
0.0
  0
VERTEX
  5
3FE
  8
0
  6
CONTINUOUS
 62
     7
 10
408.6700963647
 20
153.380961555
 30
0.0
  0
VERTEX
  5
3FF
  8
0
  6
CONTINUOUS
 62
     7
 10
407.0115017564
 20
153.3126963553
 30
0.0
  0
VERTEX
  5
400
  8
0
  6
CONTINUOUS
 62
     7
 10
405.0923275621
 20
153.2431675372
 30
0.0
  0
VERTEX
  5
401
  8
0
  6
CONTINUOUS
 62
     7
 10
403.090386358
 20
153.1809283671
 30
0.0
  0
VERTEX
  5
402
  8
0
  6
CONTINUOUS
 62
     7
 10
397.6779389055
 20
153.0617071566
 30
0.0
  0
VERTEX
  5
403
  8
0
  6
CONTINUOUS
 62
     7
 10
392.1934175165
 20
153.0093444762
 30
0.0
  0
VERTEX
  5
404
  8
0
  6
CONTINUOUS
 62
     7
 10
388.6662053735
 20
153.0107928691
 30
0.0
  0
VERTEX
  5
405
  8
0
  6
CONTINUOUS
 62
     7
 10
385.1104902894
 20
153.0400706706
 30
0.0
  0
VERTEX
  5
406
  8
0
  6
CONTINUOUS
 62
     7
 10
381.6311287553
 20
153.0963672576
 30
0.0
  0
VERTEX
  5
407
  8
0
  6
CONTINUOUS
 62
     7
 10
378.4029173524
 20
153.1739963469
 30
0.0
  0
VERTEX
  5
408
  8
0
  6
CONTINUOUS
 62
     7
 10
376.8133210809
 20
153.2215608535
 30
0.0
  0
VERTEX
  5
409
  8
0
  6
CONTINUOUS
 62
     7
 10
375.2934145601
 20
153.2730533061
 30
0.0
  0
VERTEX
  5
40A
  8
0
  6
CONTINUOUS
 62
     7
 10
373.8432097108
 20
153.327859777
 30
0.0
  0
VERTEX
  5
40B
  8
0
  6
CONTINUOUS
 62
     7
 10
372.4627065332
 20
153.3854199824
 30
0.0
  0
VERTEX
  5
40C
  8
0
  6
CONTINUOUS
 62
     7
 10
371.1519169481
 20
153.4451557574
 30
0.0
  0
VERTEX
  5
40D
  8
0
  6
CONTINUOUS
 62
     7
 10
369.9613141687
 20
153.5039318976
 30
0.0
  0
VERTEX
  5
40E
  8
0
  6
CONTINUOUS
 62
     7
 10
369.1410350473
 20
153.5470439372
 30
0.0
  0
VERTEX
  5
40F
  8
0
  6
CONTINUOUS
 62
     7
 10
368.5043739946
 20
153.5820497451
 30
0.0
  0
VERTEX
  5
410
  8
0
  6
CONTINUOUS
 62
     7
 10
368.2548808725
 20
153.5961462436
 30
0.0
  0
VERTEX
  5
411
  8
0
  6
CONTINUOUS
 62
     7
 10
368.0257010133
 20
153.6093486724
 30
0.0
  0
VERTEX
  5
412
  8
0
  6
CONTINUOUS
 62
     7
 10
367.7588033349
 20
153.625024694
 30
0.0
  0
VERTEX
  5
413
  8
0
  6
CONTINUOUS
 62
     7
 10
367.4519467027
 20
153.6430789409
 30
0.0
  0
VERTEX
  5
414
  8
0
  6
CONTINUOUS
 62
     7
 10
366.8779301317
 20
153.6762668071
 30
0.0
  0
VERTEX
  5
415
  8
0
  6
CONTINUOUS
 62
     7
 10
366.2017035158
 20
153.715790647
 30
0.0
  0
VERTEX
  5
416
  8
0
  6
CONTINUOUS
 62
     7
 10
365.4326009424
 20
153.7630630908
 30
0.0
  0
VERTEX
  5
417
  8
0
  6
CONTINUOUS
 62
     7
 10
364.622883764
 20
153.8167847571
 30
0.0
  0
VERTEX
  5
418
  8
0
  6
CONTINUOUS
 62
     7
 10
363.7806462915
 20
153.8771165786
 30
0.0
  0
VERTEX
  5
419
  8
0
  6
CONTINUOUS
 62
     7
 10
362.3049544961
 20
153.9936794219
 30
0.0
  0
VERTEX
  5
41A
  8
0
  6
CONTINUOUS
 62
     7
 10
360.7396530778
 20
154.1324032721
 30
0.0
  0
VERTEX
  5
41B
  8
0
  6
CONTINUOUS
 62
     7
 10
359.0771007211
 20
154.2966021476
 30
0.0
  0
VERTEX
  5
41C
  8
0
  6
CONTINUOUS
 62
     7
 10
357.6964068086
 20
154.4457925734
 30
0.0
  0
VERTEX
  5
41D
  8
0
  6
CONTINUOUS
 62
     7
 10
356.1781811387
 20
154.622132915
 30
0.0
  0
VERTEX
  5
41E
  8
0
  6
CONTINUOUS
 62
     7
 10
354.5227217347
 20
154.827852386
 30
0.0
  0
VERTEX
  5
41F
  8
0
  6
CONTINUOUS
 62
     7
 10
353.1771587999
 20
155.0057484088
 30
0.0
  0
SEQEND
  5
893
  8
0
  6
CONTINUOUS
 62
     7
  0
LINE
  5
46
  8
0
  6
CONTINUOUS
 62
     7
 10
353.0295180948
 20
153.9441658435
 30
0.0
 11
353.0151533754
 21
153.8808597503
 31
0.0
  0
LINE
  5
47
  8
0
  6
CONTINUOUS
 62
     7
 10
353.1632351549
 20
155.0086392341
 30
0.0
 11
353.1599092157
 21
154.9816442904
 31
0.0
  0
POLYLINE
  5
48
  8
0
  6
CONTINUOUS
 62
     7
 66
     1
 10
0.0
 20
0.0
 30
0.0
  0
VERTEX
  5
420
  8
0
  6
CONTINUOUS
 62
     7
 10
353.1275677354
 20
154.7189725814
 30
0.0
  0
VERTEX
  5
421
  8
0
  6
CONTINUOUS
 62
     7
 10
353.092067209
 20
154.4307543216
 30
0.0
  0
VERTEX
  5
422
  8
0
  6
CONTINUOUS
 62
     7
 10
353.0153560312
 20
153.8340343413
 30
0.0
  0
SEQEND
  5
892
  8
0
  6
CONTINUOUS
 62
     7
  0
POLYLINE
  5
49
  8
0
  6
CONTINUOUS
 62
     7
 66
     1
 10
0.0
 20
0.0
 30
0.0
  0
VERTEX
  5
423
  8
0
  6
CONTINUOUS
 62
     7
 10
428.2160210283
 20
153.8324250159
 30
0.0
  0
VERTEX
  5
424
  8
0
  6
CONTINUOUS
 62
     7
 10
428.1392025621
 20
154.4299615798
 30
0.0
  0
VERTEX
  5
425
  8
0
  6
CONTINUOUS
 62
     7
 10
428.1042027147
 20
154.7139836726
 30
0.0
  0
SEQEND
  5
891
  8
0
  6
CONTINUOUS
 62
     7
  0
LINE
  5
4A
  8
0
  6
CONTINUOUS
 62
     7
 10
428.0701326997
 20
154.9907339988
 30
0.0
 11
428.0679154069
 21
155.0086392341
 31
0.0
  0
LINE
  5
4B
  8
0
  6
CONTINUOUS
 62
     7
 10
428.2159971864
 20
153.8808597503
 30
0.0
 11
428.2016443879
 21
153.9441241202
 31
0.0
  0
LINE
  5
4C
  8
0
  6
CONTINUOUS
 62
     7
 10
232.915580538
 20
143.4213890014
 30
0.0
 11
249.3155795009
 21
143.4213890014
 31
0.0
  0
LINE
  5
4D
  8
0
  6
CONTINUOUS
 62
     7
 10
249.3155795009
 20
155.6213869033
 30
0.0
 11
233.7155806691
 21
155.6213869033
 31
0.0
  0
LINE
  5
4E
  8
0
  6
CONTINUOUS
 62
     7
 10
247.8144991071
 20
157.9405380664
 30
0.0
 11
247.8785681398
 21
157.9405380664
 31
0.0
  0
LINE
  5
4F
  8
0
  6
CONTINUOUS
 62
     7
 10
352.9155778558
 20
143.4903098521
 30
0.0
 11
353.7155794771
 21
143.4903098521
 31
0.0
  0
LINE
  5
50
  8
0
  6
CONTINUOUS
 62
     7
 10
352.9155778558
 20
143.4213890014
 30
0.0
 11
369.315581289
 21
143.4213890014
 31
0.0
  0
LINE
  5
51
  8
0
  6
CONTINUOUS
 62
     7
 10
369.315581289
 20
155.6213869033
 30
0.0
 11
352.9155778558
 21
155.6213869033
 31
0.0
  0
LINE
  5
52
  8
0
  6
CONTINUOUS
 62
     7
 10
-7.0844245284
 20
143.4213890014
 30
0.0
 11
9.3155789049
 21
143.4213890014
 31
0.0
  0
LINE
  5
53
  8
0
  6
CONTINUOUS
 62
     7
 10
9.3155789049
 20
155.6213869033
 30
0.0
 11
-6.2844109862
 21
155.6213869033
 31
0.0
  0
LINE
  5
54
  8
0
  6
CONTINUOUS
 62
     7
 10
7.8144955308
 20
157.9405380664
 30
0.0
 11
7.878558603
 21
157.9405380664
 31
0.0
  0
LINE
  5
55
  8
0
  6
CONTINUOUS
 62
     7
 10
112.91558024
 20
143.4213890014
 30
0.0
 11
129.3155777128
 21
143.4213890014
 31
0.0
  0
LINE
  5
56
  8
0
  6
CONTINUOUS
 62
     7
 10
129.3155777128
 20
155.6213869033
 30
0.0
 11
113.7155818612
 21
155.6213869033
 31
0.0
  0
LINE
  5
57
  8
0
  6
CONTINUOUS
 62
     7
 10
127.8145002992
 20
157.9405380664
 30
0.0
 11
127.8785693319
 21
157.9405380664
 31
0.0
  0
LINE
  5
58
  8
0
  6
CONTINUOUS
 62
     7
 10
427.5155710847
 20
143.4903098521
 30
0.0
 11
428.3155846269
 21
143.4903098521
 31
0.0
  0
LINE
  5
59
  8
0
  6
CONTINUOUS
 62
     7
 10
428.3155846269
 20
155.6213869033
 30
0.0
 11
411.9155811937
 21
155.6213869033
 31
0.0
  0
LINE
  5
5A
  8
0
  6
CONTINUOUS
 62
     7
 10
411.9155811937
 20
143.4213890014
 30
0.0
 11
428.3155846269
 21
143.4213890014
 31
0.0
  0
LINE
  5
5B
  8
0
  6
CONTINUOUS
 62
     7
 10
67.5155806215
 20
155.6213869033
 30
0.0
 11
51.9155788095
 21
155.6213869033
 31
0.0
  0
LINE
  5
5C
  8
0
  6
CONTINUOUS
 62
     7
 10
51.9155788095
 20
143.4213890014
 30
0.0
 11
68.3155822427
 21
143.4213890014
 31
0.0
  0
LINE
  5
5D
  8
0
  6
CONTINUOUS
 62
     7
 10
53.3525871904
 20
157.9405380664
 30
0.0
 11
53.4166621835
 21
157.9405380664
 31
0.0
  0
LINE
  5
5E
  8
0
  6
CONTINUOUS
 62
     7
 10
307.5155782373
 20
155.6213869033
 30
0.0
 11
291.9155823858
 21
155.6213869033
 31
0.0
  0
LINE
  5
5F
  8
0
  6
CONTINUOUS
 62
     7
 10
291.9155823858
 20
143.4213890014
 30
0.0
 11
308.3155798585
 21
143.4213890014
 31
0.0
  0
LINE
  5
60
  8
0
  6
CONTINUOUS
 62
     7
 10
293.3525907667
 20
157.9405380664
 30
0.0
 11
293.4166597993
 21
157.9405380664
 31
0.0
  0
LINE
  5
61
  8
0
  6
CONTINUOUS
 62
     7
 10
187.5155794294
 20
155.6213869033
 30
0.0
 11
171.9155805976
 21
155.6213869033
 31
0.0
  0
LINE
  5
62
  8
0
  6
CONTINUOUS
 62
     7
 10
171.9155805976
 20
143.4213890014
 30
0.0
 11
188.3155795605
 21
143.4213890014
 31
0.0
  0
LINE
  5
63
  8
0
  6
CONTINUOUS
 62
     7
 10
173.3525919587
 20
157.9405380664
 30
0.0
 11
173.4166609914
 21
157.9405380664
 31
0.0
  0
LINE
  5
64
  8
0
  6
CONTINUOUS
 62
     7
 10
72.0155763299
 20
155.9213890014
 30
0.0
 11
68.6155843408
 21
155.9213890014
 31
0.0
  0
LINE
  5
65
  8
0
  6
CONTINUOUS
 62
     7
 10
68.6155843408
 20
155.5213881907
 30
0.0
 11
68.3155822427
 21
155.5213881907
 31
0.0
  0
LINE
  5
66
  8
0
  6
CONTINUOUS
 62
     7
 10
51.9155788095
 20
155.5213881907
 30
0.0
 11
51.2155818612
 21
155.5213881907
 31
0.0
  0
LINE
  5
67
  8
0
  6
CONTINUOUS
 62
     7
 10
51.2155818612
 20
143.5213877139
 30
0.0
 11
51.9155788095
 21
143.5213877139
 31
0.0
  0
LINE
  5
68
  8
0
  6
CONTINUOUS
 62
     7
 10
68.3155822427
 20
143.5213877139
 30
0.0
 11
68.6155843408
 21
143.5213877139
 31
0.0
  0
LINE
  5
69
  8
0
  6
CONTINUOUS
 62
     7
 10
192.0155796082
 20
155.9213890014
 30
0.0
 11
188.6155801685
 21
155.9213890014
 31
0.0
  0
LINE
  5
6A
  8
0
  6
CONTINUOUS
 62
     7
 10
188.6155801685
 20
155.5213881907
 30
0.0
 11
188.3155795605
 21
155.5213881907
 31
0.0
  0
LINE
  5
6B
  8
0
  6
CONTINUOUS
 62
     7
 10
171.9155805976
 20
155.5213881907
 30
0.0
 11
171.2155806691
 21
155.5213881907
 31
0.0
  0
LINE
  5
6C
  8
0
  6
CONTINUOUS
 62
     7
 10
171.2155806691
 20
143.5213877139
 30
0.0
 11
171.9155805976
 21
143.5213877139
 31
0.0
  0
LINE
  5
6D
  8
0
  6
CONTINUOUS
 62
     7
 10
188.3155795605
 20
143.5213877139
 30
0.0
 11
188.6155801685
 21
143.5213877139
 31
0.0
  0
LINE
  5
6E
  8
0
  6
CONTINUOUS
 62
     7
 10
432.0155787141
 20
155.9213890014
 30
0.0
 11
428.615586725
 21
155.9213890014
 31
0.0
  0
LINE
  5
6F
  8
0
  6
CONTINUOUS
 62
     7
 10
428.615586725
 20
155.5213881907
 30
0.0
 11
428.3155846269
 21
155.5213881907
 31
0.0
  0
LINE
  5
70
  8
0
  6
CONTINUOUS
 62
     7
 10
411.9155811937
 20
155.5213881907
 30
0.0
 11
411.2155842454
 21
155.5213881907
 31
0.0
  0
LINE
  5
71
  8
0
  6
CONTINUOUS
 62
     7
 10
411.2155842454
 20
143.5213877139
 30
0.0
 11
411.9155811937
 21
143.5213877139
 31
0.0
  0
LINE
  5
72
  8
0
  6
CONTINUOUS
 62
     7
 10
428.3155846269
 20
143.5213877139
 30
0.0
 11
428.615586725
 21
143.5213877139
 31
0.0
  0
LINE
  5
73
  8
0
  6
CONTINUOUS
 62
     7
 10
312.0155858667
 20
155.9213890014
 30
0.0
 11
308.6155819566
 21
155.9213890014
 31
0.0
  0
LINE
  5
74
  8
0
  6
CONTINUOUS
 62
     7
 10
308.6155819566
 20
155.5213881907
 30
0.0
 11
308.3155798585
 21
155.5213881907
 31
0.0
  0
LINE
  5
75
  8
0
  6
CONTINUOUS
 62
     7
 10
291.9155823858
 20
155.5213881907
 30
0.0
 11
291.2155794771
 21
155.5213881907
 31
0.0
  0
LINE
  5
76
  8
0
  6
CONTINUOUS
 62
     7
 10
291.2155794771
 20
143.5213877139
 30
0.0
 11
291.9155823858
 21
143.5213877139
 31
0.0
  0
LINE
  5
77
  8
0
  6
CONTINUOUS
 62
     7
 10
308.3155798585
 20
143.5213877139
 30
0.0
 11
308.6155819566
 21
143.5213877139
 31
0.0
  0
LINE
  5
78
  8
0
  6
CONTINUOUS
 62
     7
 10
232.6155799301
 20
155.9213890014
 30
0.0
 11
229.2155804903
 21
155.9213890014
 31
0.0
  0
LINE
  5
79
  8
0
  6
CONTINUOUS
 62
     7
 10
232.6155799301
 20
143.5213877139
 30
0.0
 11
232.915580538
 21
143.5213877139
 31
0.0
  0
LINE
  5
7A
  8
0
  6
CONTINUOUS
 62
     7
 10
249.3155795009
 20
143.5213877139
 30
0.0
 11
250.0155794294
 21
143.5213877139
 31
0.0
  0
LINE
  5
7B
  8
0
  6
CONTINUOUS
 62
     7
 10
250.0155794294
 20
155.5213881907
 30
0.0
 11
249.3155795009
 21
155.5213881907
 31
0.0
  0
LINE
  5
7C
  8
0
  6
CONTINUOUS
 62
     7
 10
232.915580538
 20
155.5213881907
 30
0.0
 11
232.6155799301
 21
155.5213881907
 31
0.0
  0
LINE
  5
7D
  8
0
  6
CONTINUOUS
 62
     7
 10
-7.3844266265
 20
155.9213890014
 30
0.0
 11
-10.7844186156
 21
155.9213890014
 31
0.0
  0
LINE
  5
7E
  8
0
  6
CONTINUOUS
 62
     7
 10
-7.3844266265
 20
143.5213877139
 30
0.0
 11
-7.0844245284
 21
143.5213877139
 31
0.0
  0
LINE
  5
7F
  8
0
  6
CONTINUOUS
 62
     7
 10
9.3155789049
 20
143.5213877139
 30
0.0
 11
10.0155758531
 21
143.5213877139
 31
0.0
  0
LINE
  5
80
  8
0
  6
CONTINUOUS
 62
     7
 10
10.0155758531
 20
155.5213881907
 30
0.0
 11
9.3155789049
 21
155.5213881907
 31
0.0
  0
LINE
  5
81
  8
0
  6
CONTINUOUS
 62
     7
 10
-7.0844245284
 20
155.5213881907
 30
0.0
 11
-7.3844266265
 21
155.5213881907
 31
0.0
  0
LINE
  5
82
  8
0
  6
CONTINUOUS
 62
     7
 10
352.6155757577
 20
155.9213890014
 30
0.0
 11
349.2155837686
 21
155.9213890014
 31
0.0
  0
LINE
  5
83
  8
0
  6
CONTINUOUS
 62
     7
 10
352.6155757577
 20
143.5213877139
 30
0.0
 11
352.9155778558
 21
143.5213877139
 31
0.0
  0
LINE
  5
84
  8
0
  6
CONTINUOUS
 62
     7
 10
369.315581289
 20
143.5213877139
 30
0.0
 11
370.0155782373
 21
143.5213877139
 31
0.0
  0
LINE
  5
85
  8
0
  6
CONTINUOUS
 62
     7
 10
370.0155782373
 20
155.5213881907
 30
0.0
 11
369.315581289
 21
155.5213881907
 31
0.0
  0
LINE
  5
86
  8
0
  6
CONTINUOUS
 62
     7
 10
352.9155778558
 20
155.5213881907
 30
0.0
 11
352.6155757577
 21
155.5213881907
 31
0.0
  0
LINE
  5
87
  8
0
  6
CONTINUOUS
 62
     7
 10
112.6155781419
 20
155.9213890014
 30
0.0
 11
109.2155742318
 21
155.9213890014
 31
0.0
  0
LINE
  5
88
  8
0
  6
CONTINUOUS
 62
     7
 10
112.6155781419
 20
143.5213877139
 30
0.0
 11
112.91558024
 21
143.5213877139
 31
0.0
  0
LINE
  5
89
  8
0
  6
CONTINUOUS
 62
     7
 10
129.3155777128
 20
143.5213877139
 30
0.0
 11
130.0155806215
 21
143.5213877139
 31
0.0
  0
LINE
  5
8A
  8
0
  6
CONTINUOUS
 62
     7
 10
130.0155806215
 20
155.5213881907
 30
0.0
 11
129.3155777128
 21
155.5213881907
 31
0.0
  0
LINE
  5
8B
  8
0
  6
CONTINUOUS
 62
     7
 10
112.91558024
 20
155.5213881907
 30
0.0
 11
112.6155781419
 21
155.5213881907
 31
0.0
  0
LINE
  5
8C
  8
0
  6
CONTINUOUS
 62
     7
 10
23.442654577
 20
64.1213882965
 30
0.0
 11
27.2012996347
 21
64.1213882965
 31
0.0
  0
LINE
  5
8D
  8
0
  6
CONTINUOUS
 62
     7
 10
27.2012996347
 20
62.9213882861
 30
0.0
 11
23.442654577
 21
62.9213882861
 31
0.0
  0
LINE
  5
8E
  8
0
  6
CONTINUOUS
 62
     7
 10
27.2012996347
 20
62.9213882861
 30
0.0
 11
34.0298700006
 21
62.9213882861
 31
0.0
  0
LINE
  5
8F
  8
0
  6
CONTINUOUS
 62
     7
 10
27.2012996347
 20
64.1213882965
 30
0.0
 11
34.0298700006
 21
64.1213882965
 31
0.0
  0
LINE
  5
90
  8
0
  6
CONTINUOUS
 62
     7
 10
37.7885150583
 20
62.9213882861
 30
0.0
 11
34.0298700006
 21
62.9213882861
 31
0.0
  0
LINE
  5
91
  8
0
  6
CONTINUOUS
 62
     7
 10
34.0298700006
 20
64.1213882965
 30
0.0
 11
37.7885150583
 21
64.1213882965
 31
0.0
  0
LINE
  5
92
  8
0
  6
CONTINUOUS
 62
     7
 10
383.4426450403
 20
64.1213882965
 30
0.0
 11
387.2012900979
 21
64.1213882965
 31
0.0
  0
LINE
  5
93
  8
0
  6
CONTINUOUS
 62
     7
 10
387.2012900979
 20
62.9213882861
 30
0.0
 11
383.4426450403
 21
62.9213882861
 31
0.0
  0
LINE
  5
94
  8
0
  6
CONTINUOUS
 62
     7
 10
387.2012900979
 20
62.9213882861
 30
0.0
 11
394.0298604638
 21
62.9213882861
 31
0.0
  0
LINE
  5
95
  8
0
  6
CONTINUOUS
 62
     7
 10
387.2012900979
 20
64.1213882965
 30
0.0
 11
394.0298604638
 21
64.1213882965
 31
0.0
  0
LINE
  5
96
  8
0
  6
CONTINUOUS
 62
     7
 10
397.7885055215
 20
62.9213882861
 30
0.0
 11
394.0298604638
 21
62.9213882861
 31
0.0
  0
LINE
  5
97
  8
0
  6
CONTINUOUS
 62
     7
 10
394.0298604638
 20
64.1213882965
 30
0.0
 11
397.7885055215
 21
64.1213882965
 31
0.0
  0
LINE
  5
98
  8
0
  6
CONTINUOUS
 62
     7
 10
18.6155843408
 20
62.9213882861
 30
0.0
 11
18.6155843408
 21
64.1213882965
 31
0.0
  0
LINE
  5
99
  8
0
  6
CONTINUOUS
 62
     7
 10
18.6155843408
 20
62.9213882861
 30
0.0
 11
23.442654577
 21
62.9213882861
 31
0.0
  0
LINE
  5
9A
  8
0
  6
CONTINUOUS
 62
     7
 10
23.442654577
 20
64.1213882965
 30
0.0
 11
18.6155843408
 21
64.1213882965
 31
0.0
  0
LINE
  5
9B
  8
0
  6
CONTINUOUS
 62
     7
 10
42.6155852945
 20
62.9213882861
 30
0.0
 11
42.6155852945
 21
64.1213882965
 31
0.0
  0
LINE
  5
9C
  8
0
  6
CONTINUOUS
 62
     7
 10
37.7885150583
 20
62.9213882861
 30
0.0
 11
42.6155852945
 21
62.9213882861
 31
0.0
  0
LINE
  5
9D
  8
0
  6
CONTINUOUS
 62
     7
 10
42.6155852945
 20
64.1213882965
 30
0.0
 11
37.7885150583
 21
64.1213882965
 31
0.0
  0
LINE
  5
9E
  8
0
  6
CONTINUOUS
 62
     7
 10
378.6155748041
 20
62.9213882861
 30
0.0
 11
378.6155748041
 21
64.1213882965
 31
0.0
  0
LINE
  5
9F
  8
0
  6
CONTINUOUS
 62
     7
 10
378.6155748041
 20
62.9213882861
 30
0.0
 11
383.4426450403
 21
62.9213882861
 31
0.0
  0
LINE
  5
A0
  8
0
  6
CONTINUOUS
 62
     7
 10
383.4426450403
 20
64.1213882965
 30
0.0
 11
378.6155748041
 21
64.1213882965
 31
0.0
  0
LINE
  5
A1
  8
0
  6
CONTINUOUS
 62
     7
 10
402.6155757577
 20
62.9213882861
 30
0.0
 11
402.6155757577
 21
64.1213882965
 31
0.0
  0
LINE
  5
A2
  8
0
  6
CONTINUOUS
 62
     7
 10
397.7885055215
 20
62.9213882861
 30
0.0
 11
402.6155757577
 21
62.9213882861
 31
0.0
  0
LINE
  5
A3
  8
0
  6
CONTINUOUS
 62
     7
 10
402.6155757577
 20
64.1213882965
 30
0.0
 11
397.7885055215
 21
64.1213882965
 31
0.0
  0
LINE
  5
A4
  8
0
  6
CONTINUOUS
 62
     7
 10
-12.9844260543
 20
129.1213883338
 30
0.0
 11
-12.9844260543
 21
137.1213866649
 31
0.0
  0
LINE
  5
A5
  8
0
  6
CONTINUOUS
 62
     7
 10
-12.9844260543
 20
128.5213900981
 30
0.0
 11
-12.9844260543
 21
129.1213883338
 31
0.0
  0
ARC
  5
A6
  8
0
  6
CONTINUOUS
 62
     7
 10
-12.5844199507
 20
128.5213882861
 30
0.0
 40
0.4000000000000057
 50
180.0
 51
270.0
  0
LINE
  5
A7
  8
0
  6
CONTINUOUS
 62
     7
 10
-12.9844260543
 20
137.1213866649
 30
0.0
 11
-12.9844260543
 21
137.721390861
 31
0.0
  0
ARC
  5
A8
  8
0
  6
CONTINUOUS
 62
     7
 10
-12.5844199507
 20
137.7213882861
 30
0.0
 40
0.3999999999999844
 50
90.0
 51
180.0
  0
CIRCLE
  5
A9
  8
0
  6
CONTINUOUS
 62
     7
 10
308.1155800493
 20
132.3213882861
 30
0.0
 40
1.050000000000011
  0
CIRCLE
  5
AA
  8
0
  6
CONTINUOUS
 62
     7
 10
188.1155800493
 20
132.3213882861
 30
0.0
 40
1.049999999999983
  0
CIRCLE
  5
AB
  8
0
  6
CONTINUOUS
 62
     7
 10
353.1155800493
 20
132.3213882861
 30
0.0
 40
1.050000000000011
  0
CIRCLE
  5
AC
  8
0
  6
CONTINUOUS
 62
     7
 10
113.1155800493
 20
132.3213882861
 30
0.0
 40
1.049999999999997
  0
CIRCLE
  5
AD
  8
0
  6
CONTINUOUS
 62
     7
 10
233.1155800493
 20
132.3213882861
 30
0.0
 40
1.050000000000011
  0
CIRCLE
  5
AE
  8
0
  6
CONTINUOUS
 62
     7
 10
68.1155800493
 20
132.3213882861
 30
0.0
 40
1.049999999999983
  0
CIRCLE
  5
AF
  8
0
  6
CONTINUOUS
 62
     7
 10
-6.8844199507
 20
132.3213882861
 30
0.0
 40
1.049999999999995
  0
CIRCLE
  5
B0
  8
0
  6
CONTINUOUS
 62
     7
 10
428.1155800493
 20
132.3213882861
 30
0.0
 40
1.050000000000011
  0
LINE
  5
B1
  8
0
  6
CONTINUOUS
 62
     7
 10
-12.5844312041
 20
138.1213857112
 30
0.0
 11
-10.7844186156
 21
138.1213857112
 31
0.0
  0
LINE
  5
B2
  8
0
  6
CONTINUOUS
 62
     7
 10
-0.9844136565
 20
138.1213857112
 30
0.0
 11
62.2155832918
 21
138.1213857112
 31
0.0
  0
LINE
  5
B3
  8
0
  6
CONTINUOUS
 62
     7
 10
72.0155763299
 20
138.1213857112
 30
0.0
 11
109.2155742318
 21
138.1213857112
 31
0.0
  0
LINE
  5
B4
  8
0
  6
CONTINUOUS
 62
     7
 10
119.015579191
 20
138.1213857112
 30
0.0
 11
182.2155791194
 21
138.1213857112
 31
0.0
  0
LINE
  5
B5
  8
0
  6
CONTINUOUS
 62
     7
 10
192.0155796082
 20
138.1213857112
 30
0.0
 11
229.2155804903
 21
138.1213857112
 31
0.0
  0
LINE
  5
B6
  8
0
  6
CONTINUOUS
 62
     7
 10
239.0155809791
 20
138.1213857112
 30
0.0
 11
302.2155809076
 21
138.1213857112
 31
0.0
  0
LINE
  5
B7
  8
0
  6
CONTINUOUS
 62
     7
 10
312.0155858667
 20
138.1213857112
 30
0.0
 11
349.2155837686
 21
138.1213857112
 31
0.0
  0
LINE
  5
B8
  8
0
  6
CONTINUOUS
 62
     7
 10
359.0155768068
 20
138.1213857112
 30
0.0
 11
422.215573755
 21
138.1213857112
 31
0.0
  0
LINE
  5
B9
  8
0
  6
CONTINUOUS
 62
     7
 10
432.0155787141
 20
138.1213857112
 30
0.0
 11
433.8155913026
 21
138.1213857112
 31
0.0
  0
POLYLINE
  5
BA
  8
0
  6
CONTINUOUS
 62
     7
 66
     1
 10
0.0
 20
0.0
 30
0.0
  0
VERTEX
  5
426
  8
0
  6
CONTINUOUS
 62
     7
 10
386.6155790956
 20
129.1213883338
 30
0.0
  0
VERTEX
  5
427
  8
0
  6
CONTINUOUS
 62
     7
 10
386.4204930932
 20
128.926296371
 30
0.0
  0
VERTEX
  5
428
  8
0
  6
CONTINUOUS
 62
     7
 10
386.2328934343
 20
128.7387026725
 30
0.0
  0
VERTEX
  5
429
  8
0
  6
CONTINUOUS
 62
     7
 10
386.0600042016
 20
128.5658194003
 30
0.0
  0
VERTEX
  5
42A
  8
0
  6
CONTINUOUS
 62
     7
 10
385.9084772737
 20
128.4142805514
 30
0.0
  0
VERTEX
  5
42B
  8
0
  6
CONTINUOUS
 62
     7
 10
385.7841062219
 20
128.2899214206
 30
0.0
  0
VERTEX
  5
42C
  8
0
  6
CONTINUOUS
 62
     7
 10
385.6916951806
 20
128.1975103793
 30
0.0
  0
VERTEX
  5
42D
  8
0
  6
CONTINUOUS
 62
     7
 10
385.6347965867
 20
128.1406058249
 30
0.0
  0
VERTEX
  5
42E
  8
0
  6
CONTINUOUS
 62
     7
 10
385.6155800493
 20
128.1213892875
 30
0.0
  0
SEQEND
  5
890
  8
0
  6
CONTINUOUS
 62
     7
  0
LINE
  5
BB
  8
0
  6
CONTINUOUS
 62
     7
 10
385.6155800493
 20
128.1213892875
 30
0.0
 11
357.8873562486
 21
128.1213892875
 31
0.0
  0
LINE
  5
BC
  8
0
  6
CONTINUOUS
 62
     7
 10
350.3438043268
 20
128.1213892875
 30
0.0
 11
310.8873653085
 21
128.1213892875
 31
0.0
  0
LINE
  5
BD
  8
0
  6
CONTINUOUS
 62
     7
 10
303.3438014657
 20
128.1213892875
 30
0.0
 11
237.8873604209
 21
128.1213892875
 31
0.0
  0
LINE
  5
BE
  8
0
  6
CONTINUOUS
 62
     7
 10
230.3437995584
 20
128.1213892875
 30
0.0
 11
190.8873605401
 21
128.1213892875
 31
0.0
  0
LINE
  5
BF
  8
0
  6
CONTINUOUS
 62
     7
 10
183.3437996776
 20
128.1213892875
 30
0.0
 11
117.8873586328
 21
128.1213892875
 31
0.0
  0
LINE
  5
C0
  8
0
  6
CONTINUOUS
 62
     7
 10
110.34379479
 20
128.1213892875
 30
0.0
 11
70.8873557718
 21
128.1213892875
 31
0.0
  0
LINE
  5
C1
  8
0
  6
CONTINUOUS
 62
     7
 10
63.3438038499
 20
128.1213892875
 30
0.0
 11
35.6155800493
 21
128.1213892875
 31
0.0
  0
POLYLINE
  5
C2
  8
0
  6
CONTINUOUS
 62
     7
 66
     1
 10
0.0
 20
0.0
 30
0.0
  0
VERTEX
  5
42F
  8
0
  6
CONTINUOUS
 62
     7
 10
34.6155810029
 20
129.1213883338
 30
0.0
  0
VERTEX
  5
430
  8
0
  6
CONTINUOUS
 62
     7
 10
34.8106670053
 20
128.926296371
 30
0.0
  0
VERTEX
  5
431
  8
0
  6
CONTINUOUS
 62
     7
 10
34.9982666643
 20
128.7387026725
 30
0.0
  0
VERTEX
  5
432
  8
0
  6
CONTINUOUS
 62
     7
 10
35.1711558969
 20
128.5658194003
 30
0.0
  0
VERTEX
  5
433
  8
0
  6
CONTINUOUS
 62
     7
 10
35.3226828248
 20
128.4142805514
 30
0.0
  0
VERTEX
  5
434
  8
0
  6
CONTINUOUS
 62
     7
 10
35.4470538766
 20
128.2899214206
 30
0.0
  0
VERTEX
  5
435
  8
0
  6
CONTINUOUS
 62
     7
 10
35.5394649179
 20
128.1975103793
 30
0.0
  0
VERTEX
  5
436
  8
0
  6
CONTINUOUS
 62
     7
 10
35.5963635118
 20
128.1406058249
 30
0.0
  0
VERTEX
  5
437
  8
0
  6
CONTINUOUS
 62
     7
 10
35.6155800493
 20
128.1213892875
 30
0.0
  0
SEQEND
  5
88F
  8
0
  6
CONTINUOUS
 62
     7
  0
LINE
  5
C3
  8
0
  6
CONTINUOUS
 62
     7
 10
385.6155800493
 20
64.1213882965
 30
0.0
 11
385.6155800493
 21
128.1213892875
 31
0.0
  0
POLYLINE
  5
C4
  8
0
  6
CONTINUOUS
 62
     7
 66
     1
 10
0.0
 20
0.0
 30
0.0
  0
VERTEX
  5
438
  8
0
  6
CONTINUOUS
 62
     7
 10
25.6155776651
 20
128.1213892875
 30
0.0
  0
VERTEX
  5
439
  8
0
  6
CONTINUOUS
 62
     7
 10
25.6347942026
 20
128.1406058249
 30
0.0
  0
VERTEX
  5
43A
  8
0
  6
CONTINUOUS
 62
     7
 10
25.6917047174
 20
128.1975103793
 30
0.0
  0
VERTEX
  5
43B
  8
0
  6
CONTINUOUS
 62
     7
 10
25.7841157586
 20
128.2899214206
 30
0.0
  0
VERTEX
  5
43C
  8
0
  6
CONTINUOUS
 62
     7
 10
25.9084748895
 20
128.4142805514
 30
0.0
  0
VERTEX
  5
43D
  8
0
  6
CONTINUOUS
 62
     7
 10
26.0600137384
 20
128.5658194003
 30
0.0
  0
VERTEX
  5
43E
  8
0
  6
CONTINUOUS
 62
     7
 10
26.2328910501
 20
128.7387026725
 30
0.0
  0
VERTEX
  5
43F
  8
0
  6
CONTINUOUS
 62
     7
 10
26.4204907091
 20
128.926296371
 30
0.0
  0
VERTEX
  5
440
  8
0
  6
CONTINUOUS
 62
     7
 10
26.6155767114
 20
129.1213883338
 30
0.0
  0
SEQEND
  5
88E
  8
0
  6
CONTINUOUS
 62
     7
  0
LINE
  5
C5
  8
0
  6
CONTINUOUS
 62
     7
 10
25.6155776651
 20
128.1213892875
 30
0.0
 11
-2.1126342147
 21
128.1213892875
 31
0.0
  0
LINE
  5
C6
  8
0
  6
CONTINUOUS
 62
     7
 10
-9.6561980574
 20
128.1213892875
 30
0.0
 11
-12.5844312041
 21
128.1213892875
 31
0.0
  0
LINE
  5
C7
  8
0
  6
CONTINUOUS
 62
     7
 10
35.6155800493
 20
128.1213892875
 30
0.0
 11
35.6155800493
 21
64.1213882965
 31
0.0
  0
ARC
  5
C8
  8
0
  6
CONTINUOUS
 62
     7
 10
433.8155800493
 20
137.7213882861
 30
0.0
 40
0.3999999999999773
 50
0.0
 51
90.0
  0
LINE
  5
C9
  8
0
  6
CONTINUOUS
 62
     7
 10
434.2155861528
 20
137.721390861
 30
0.0
 11
434.2155861528
 21
137.1213866649
 31
0.0
  0
LINE
  5
CA
  8
0
  6
CONTINUOUS
 62
     7
 10
434.2155861528
 20
129.1213883338
 30
0.0
 11
434.2155861528
 21
128.5213900981
 31
0.0
  0
ARC
  5
CB
  8
0
  6
CONTINUOUS
 62
     7
 10
433.8155800493
 20
128.5213882861
 30
0.0
 40
0.4000000000000057
 50
270.0
 51
0.0
  0
POLYLINE
  5
CC
  8
0
  6
CONTINUOUS
 62
     7
 66
     1
 10
0.0
 20
0.0
 30
0.0
  0
VERTEX
  5
441
  8
0
  6
CONTINUOUS
 62
     7
 10
395.6155824334
 20
128.1213892875
 30
0.0
  0
VERTEX
  5
442
  8
0
  6
CONTINUOUS
 62
     7
 10
395.596365896
 20
128.1406058249
 30
0.0
  0
VERTEX
  5
443
  8
0
  6
CONTINUOUS
 62
     7
 10
395.5394553811
 20
128.1975103793
 30
0.0
  0
VERTEX
  5
444
  8
0
  6
CONTINUOUS
 62
     7
 10
395.4470443399
 20
128.2899214206
 30
0.0
  0
VERTEX
  5
445
  8
0
  6
CONTINUOUS
 62
     7
 10
395.322685209
 20
128.4142805514
 30
0.0
  0
VERTEX
  5
446
  8
0
  6
CONTINUOUS
 62
     7
 10
395.1711463601
 20
128.5658194003
 30
0.0
  0
VERTEX
  5
447
  8
0
  6
CONTINUOUS
 62
     7
 10
394.9982690484
 20
128.7387026725
 30
0.0
  0
VERTEX
  5
448
  8
0
  6
CONTINUOUS
 62
     7
 10
394.8106693895
 20
128.926296371
 30
0.0
  0
VERTEX
  5
449
  8
0
  6
CONTINUOUS
 62
     7
 10
394.6155833871
 20
129.1213883338
 30
0.0
  0
SEQEND
  5
88D
  8
0
  6
CONTINUOUS
 62
     7
  0
LINE
  5
CD
  8
0
  6
CONTINUOUS
 62
     7
 10
395.6155824334
 20
128.1213892875
 30
0.0
 11
395.6155824334
 21
64.1213882965
 31
0.0
  0
LINE
  5
CE
  8
0
  6
CONTINUOUS
 62
     7
 10
25.6155776651
 20
64.1213882965
 30
0.0
 11
25.6155776651
 21
128.1213892875
 31
0.0
  0
LINE
  5
CF
  8
0
  6
CONTINUOUS
 62
     7
 10
434.2155861528
 20
137.1213866649
 30
0.0
 11
434.2155861528
 21
129.1213883338
 31
0.0
  0
LINE
  5
D0
  8
0
  6
CONTINUOUS
 62
     7
 10
433.8155913026
 20
128.1213892875
 30
0.0
 11
430.887358156
 21
128.1213892875
 31
0.0
  0
LINE
  5
D1
  8
0
  6
CONTINUOUS
 62
     7
 10
423.3437943132
 20
128.1213892875
 30
0.0
 11
395.6155824334
 21
128.1213892875
 31
0.0
  0
POLYLINE
  5
D2
  8
0
  6
CONTINUOUS
 62
     7
 66
     1
 10
0.0
 20
0.0
 30
0.0
  0
VERTEX
  5
44A
  8
0
  6
CONTINUOUS
 62
     7
 10
353.0155110032
 20
153.4604383883
 30
0.0
  0
VERTEX
  5
44B
  8
0
  6
CONTINUOUS
 62
     7
 10
353.015546766
 20
153.6273790774
 30
0.0
  0
VERTEX
  5
44C
  8
0
  6
CONTINUOUS
 62
     7
 10
353.0156778962
 20
153.7391556678
 30
0.0
  0
VERTEX
  5
44D
  8
0
  6
CONTINUOUS
 62
     7
 10
353.0161189706
 20
153.8367225108
 30
0.0
  0
VERTEX
  5
44E
  8
0
  6
CONTINUOUS
 62
     7
 10
353.0163097055
 20
153.8308276114
 30
0.0
  0
SEQEND
  5
88C
  8
0
  6
CONTINUOUS
 62
     7
  0
POLYLINE
  5
D3
  8
0
  6
CONTINUOUS
 62
     7
 66
     1
 10
0.0
 20
0.0
 30
0.0
  0
VERTEX
  5
44F
  8
0
  6
CONTINUOUS
 62
     7
 10
359.1030764253
 20
149.9307168898
 30
0.0
  0
VERTEX
  5
450
  8
0
  6
CONTINUOUS
 62
     7
 10
358.0003666551
 20
150.1367939887
 30
0.0
  0
VERTEX
  5
451
  8
0
  6
CONTINUOUS
 62
     7
 10
356.9317984254
 20
150.4781617102
 30
0.0
  0
VERTEX
  5
452
  8
0
  6
CONTINUOUS
 62
     7
 10
356.1242866189
 20
150.836522716
 30
0.0
  0
VERTEX
  5
453
  8
0
  6
CONTINUOUS
 62
     7
 10
355.3865718515
 20
151.2472642836
 30
0.0
  0
VERTEX
  5
454
  8
0
  6
CONTINUOUS
 62
     7
 10
354.6286272676
 20
151.7622901378
 30
0.0
  0
VERTEX
  5
455
  8
0
  6
CONTINUOUS
 62
     7
 10
353.9905118615
 20
152.2813095031
 30
0.0
  0
VERTEX
  5
456
  8
0
  6
CONTINUOUS
 62
     7
 10
353.4595179231
 20
152.7919544158
 30
0.0
  0
VERTEX
  5
457
  8
0
  6
CONTINUOUS
 62
     7
 10
353.2599973352
 20
153.0146314082
 30
0.0
  0
VERTEX
  5
458
  8
0
  6
CONTINUOUS
 62
     7
 10
353.1172442109
 20
153.2040311274
 30
0.0
  0
VERTEX
  5
459
  8
0
  6
CONTINUOUS
 62
     7
 10
353.0154871614
 20
153.4604443488
 30
0.0
  0
SEQEND
  5
88B
  8
0
  6
CONTINUOUS
 62
     7
  0
POLYLINE
  5
D4
  8
0
  6
CONTINUOUS
 62
     7
 66
     1
 10
0.0
 20
0.0
 30
0.0
  0
VERTEX
  5
45A
  8
0
  6
CONTINUOUS
 62
     7
 10
422.1280741365
 20
149.9307168898
 30
0.0
  0
VERTEX
  5
45B
  8
0
  6
CONTINUOUS
 62
     7
 10
415.0848555238
 20
149.1446925578
 30
0.0
  0
VERTEX
  5
45C
  8
0
  6
CONTINUOUS
 62
     7
 10
408.0142068536
 20
148.5271526751
 30
0.0
  0
VERTEX
  5
45D
  8
0
  6
CONTINUOUS
 62
     7
 10
400.8886027009
 20
148.1050325808
 30
0.0
  0
VERTEX
  5
45E
  8
0
  6
CONTINUOUS
 62
     7
 10
393.7490033777
 20
147.8965593753
 30
0.0
  0
VERTEX
  5
45F
  8
0
  6
CONTINUOUS
 62
     7
 10
387.9751372011
 20
147.8909505782
 30
0.0
  0
VERTEX
  5
460
  8
0
  6
CONTINUOUS
 62
     7
 10
382.2023796708
 20
148.0299068866
 30
0.0
  0
VERTEX
  5
461
  8
0
  6
CONTINUOUS
 62
     7
 10
376.4385389955
 20
148.3102334914
 30
0.0
  0
VERTEX
  5
462
  8
0
  6
CONTINUOUS
 62
     7
 10
370.6433105142
 20
148.7308157859
 30
0.0
  0
VERTEX
  5
463
  8
0
  6
CONTINUOUS
 62
     7
 10
364.8632812173
 20
149.2764128623
 30
0.0
  0
VERTEX
  5
464
  8
0
  6
CONTINUOUS
 62
     7
 10
359.1030764253
 20
149.9307168898
 30
0.0
  0
SEQEND
  5
88A
  8
0
  6
CONTINUOUS
 62
     7
  0
POLYLINE
  5
D5
  8
0
  6
CONTINUOUS
 62
     7
 66
     1
 10
0.0
 20
0.0
 30
0.0
  0
VERTEX
  5
465
  8
0
  6
CONTINUOUS
 62
     7
 10
428.2156872423
 20
153.4602834163
 30
0.0
  0
VERTEX
  5
466
  8
0
  6
CONTINUOUS
 62
     7
 10
428.1298088701
 20
153.2290114341
 30
0.0
  0
VERTEX
  5
467
  8
0
  6
CONTINUOUS
 62
     7
 10
427.8706955583
 20
152.8990997252
 30
0.0
  0
VERTEX
  5
468
  8
0
  6
CONTINUOUS
 62
     7
 10
427.4763989122
 20
152.4971677241
 30
0.0
  0
VERTEX
  5
469
  8
0
  6
CONTINUOUS
 62
     7
 10
426.9396710069
 20
152.0256651816
 30
0.0
  0
VERTEX
  5
46A
  8
0
  6
CONTINUOUS
 62
     7
 10
426.2165951402
 20
151.4874650416
 30
0.0
  0
VERTEX
  5
46B
  8
0
  6
CONTINUOUS
 62
     7
 10
425.3287481935
 20
150.9513093409
 30
0.0
  0
VERTEX
  5
46C
  8
0
  6
CONTINUOUS
 62
     7
 10
424.4634318025
 20
150.5436910567
 30
0.0
  0
VERTEX
  5
46D
  8
0
  6
CONTINUOUS
 62
     7
 10
423.4781908662
 20
150.2030385909
 30
0.0
  0
VERTEX
  5
46E
  8
0
  6
CONTINUOUS
 62
     7
 10
422.8197025926
 20
150.0431491313
 30
0.0
  0
VERTEX
  5
46F
  8
0
  6
CONTINUOUS
 62
     7
 10
422.1280741365
 20
149.9307168898
 30
0.0
  0
SEQEND
  5
889
  8
0
  6
CONTINUOUS
 62
     7
  0
POLYLINE
  5
D6
  8
0
  6
CONTINUOUS
 62
     7
 66
     1
 10
0.0
 20
0.0
 30
0.0
  0
VERTEX
  5
470
  8
0
  6
CONTINUOUS
 62
     7
 10
428.2148289354
 20
153.8367940364
 30
0.0
  0
VERTEX
  5
471
  8
0
  6
CONTINUOUS
 62
     7
 10
428.2149004609
 20
153.8425101218
 30
0.0
  0
VERTEX
  5
472
  8
0
  6
CONTINUOUS
 62
     7
 10
428.2152819307
 20
153.8059545932
 30
0.0
  0
VERTEX
  5
473
  8
0
  6
CONTINUOUS
 62
     7
 10
428.2155441911
 20
153.6895646033
 30
0.0
  0
VERTEX
  5
474
  8
0
  6
CONTINUOUS
 62
     7
 10
428.2156395585
 20
153.4602774558
 30
0.0
  0
SEQEND
  5
888
  8
0
  6
CONTINUOUS
 62
     7
  0
POLYLINE
  5
D7
  8
0
  6
CONTINUOUS
 62
     7
 66
     1
 10
0.0
 20
0.0
 30
0.0
  0
VERTEX
  5
475
  8
0
  6
CONTINUOUS
 62
     7
 10
355.4092335374
 20
154.8360718665
 30
0.0
  0
VERTEX
  5
476
  8
0
  6
CONTINUOUS
 62
     7
 10
354.6348499925
 20
154.8380745826
 30
0.0
  0
VERTEX
  5
477
  8
0
  6
CONTINUOUS
 62
     7
 10
354.4387626321
 20
154.8389507708
 30
0.0
  0
SEQEND
  5
887
  8
0
  6
CONTINUOUS
 62
     7
  0
POLYLINE
  5
D8
  8
0
  6
CONTINUOUS
 62
     7
 66
     1
 10
0.0
 20
0.0
 30
0.0
  0
VERTEX
  5
478
  8
0
  6
CONTINUOUS
 62
     7
 10
353.1621622712
 20
154.9936963496
 30
0.0
  0
VERTEX
  5
479
  8
0
  6
CONTINUOUS
 62
     7
 10
353.1522798211
 20
154.9408329902
 30
0.0
  0
VERTEX
  5
47A
  8
0
  6
CONTINUOUS
 62
     7
 10
353.12377688
 20
154.6850038943
 30
0.0
  0
SEQEND
  5
886
  8
0
  6
CONTINUOUS
 62
     7
  0
ARC
  5
D9
  8
0
  6
CONTINUOUS
 62
     7
 10
354.2319371326
 20
140.2742264848
 30
0.0
 40
14.60931636124479
 50
75.6821490417
 51
85.3778362891
  0
ARC
  5
DA
  8
0
  6
CONTINUOUS
 62
     7
 10
426.8394200128
 20
141.0614186302
 30
0.0
 40
13.81213908660804
 50
94.2245531847
 51
104.9753578021
  0
POLYLINE
  5
DB
  8
0
  6
CONTINUOUS
 62
     7
 66
     1
 10
0.0
 20
0.0
 30
0.0
  0
VERTEX
  5
47B
  8
0
  6
CONTINUOUS
 62
     7
 10
425.8219408662
 20
154.8360301432
 30
0.0
  0
VERTEX
  5
47C
  8
0
  6
CONTINUOUS
 62
     7
 10
426.6796993883
 20
154.8384024081
 30
0.0
  0
VERTEX
  5
47D
  8
0
  6
CONTINUOUS
 62
     7
 10
426.7999338777
 20
154.8389388499
 30
0.0
  0
SEQEND
  5
885
  8
0
  6
CONTINUOUS
 62
     7
  0
POLYLINE
  5
DC
  8
0
  6
CONTINUOUS
 62
     7
 66
     1
 10
0.0
 20
0.0
 30
0.0
  0
VERTEX
  5
47E
  8
0
  6
CONTINUOUS
 62
     7
 10
428.0278372438
 20
154.8354519782
 30
0.0
  0
VERTEX
  5
47F
  8
0
  6
CONTINUOUS
 62
     7
 10
428.0373501451
 20
154.8237992701
 30
0.0
  0
VERTEX
  5
480
  8
0
  6
CONTINUOUS
 62
     7
 10
428.0498432786
 20
154.8479689536
 30
0.0
  0
VERTEX
  5
481
  8
0
  6
CONTINUOUS
 62
     7
 10
428.0513453157
 20
154.9054457126
 30
0.0
  0
VERTEX
  5
482
  8
0
  6
CONTINUOUS
 62
     7
 10
428.052799669
 20
154.9763335166
 30
0.0
  0
SEQEND
  5
884
  8
0
  6
CONTINUOUS
 62
     7
  0
POLYLINE
  5
DD
  8
0
  6
CONTINUOUS
 62
     7
 66
     1
 10
0.0
 20
0.0
 30
0.0
  0
VERTEX
  5
483
  8
0
  6
CONTINUOUS
 62
     7
 10
428.0545878084
 20
154.9997521815
 30
0.0
  0
VERTEX
  5
484
  8
0
  6
CONTINUOUS
 62
     7
 10
428.0566143663
 20
155.0263894973
 30
0.0
  0
VERTEX
  5
485
  8
0
  6
CONTINUOUS
 62
     7
 10
428.0653404863
 20
155.0199283538
 30
0.0
  0
VERTEX
  5
486
  8
0
  6
CONTINUOUS
 62
     7
 10
428.0816483171
 20
154.9204183993
 30
0.0
  0
VERTEX
  5
487
  8
0
  6
CONTINUOUS
 62
     7
 10
428.1073736818
 20
154.6850038943
 30
0.0
  0
SEQEND
  5
883
  8
0
  6
CONTINUOUS
 62
     7
  0
POLYLINE
  5
DE
  8
0
  6
CONTINUOUS
 62
     7
 66
     1
 10
0.0
 20
0.0
 30
0.0
  0
VERTEX
  5
488
  8
0
  6
CONTINUOUS
 62
     7
 10
428.1073736818
 20
154.6850038943
 30
0.0
  0
VERTEX
  5
489
  8
0
  6
CONTINUOUS
 62
     7
 10
428.0359673173
 20
154.4747485099
 30
0.0
  0
VERTEX
  5
48A
  8
0
  6
CONTINUOUS
 62
     7
 10
427.7883934648
 20
154.1770769534
 30
0.0
  0
VERTEX
  5
48B
  8
0
  6
CONTINUOUS
 62
     7
 10
427.3920702607
 20
153.8105501113
 30
0.0
  0
VERTEX
  5
48C
  8
0
  6
CONTINUOUS
 62
     7
 10
426.8425631196
 20
153.3734632907
 30
0.0
  0
VERTEX
  5
48D
  8
0
  6
CONTINUOUS
 62
     7
 10
426.1220860154
 20
152.8843892989
 30
0.0
  0
VERTEX
  5
48E
  8
0
  6
CONTINUOUS
 62
     7
 10
425.2390789659
 20
152.3920072493
 30
0.0
  0
VERTEX
  5
48F
  8
0
  6
CONTINUOUS
 62
     7
 10
424.3604349763
 20
152.0059956488
 30
0.0
  0
VERTEX
  5
490
  8
0
  6
CONTINUOUS
 62
     7
 10
423.3616518648
 20
151.6825808463
 30
0.0
  0
VERTEX
  5
491
  8
0
  6
CONTINUOUS
 62
     7
 10
422.7058338792
 20
151.5331162391
 30
0.0
  0
VERTEX
  5
492
  8
0
  6
CONTINUOUS
 62
     7
 10
422.0187353761
 20
151.4278782782
 30
0.0
  0
SEQEND
  5
882
  8
0
  6
CONTINUOUS
 62
     7
  0
POLYLINE
  5
DF
  8
0
  6
CONTINUOUS
 62
     7
 66
     1
 10
0.0
 20
0.0
 30
0.0
  0
VERTEX
  5
493
  8
0
  6
CONTINUOUS
 62
     7
 10
422.0187353761
 20
151.4278782782
 30
0.0
  0
VERTEX
  5
494
  8
0
  6
CONTINUOUS
 62
     7
 10
416.9541287095
 20
150.8780969558
 30
0.0
  0
VERTEX
  5
495
  8
0
  6
CONTINUOUS
 62
     7
 10
411.9760441453
 20
150.4142416892
 30
0.0
  0
VERTEX
  5
496
  8
0
  6
CONTINUOUS
 62
     7
 10
406.983714071
 20
150.0350190577
 30
0.0
  0
VERTEX
  5
497
  8
0
  6
CONTINUOUS
 62
     7
 10
401.9372391374
 20
149.7473968444
 30
0.0
  0
VERTEX
  5
498
  8
0
  6
CONTINUOUS
 62
     7
 10
396.9178604753
 20
149.5625330386
 30
0.0
  0
VERTEX
  5
499
  8
0
  6
CONTINUOUS
 62
     7
 10
391.8755101831
 20
149.4822217402
 30
0.0
  0
VERTEX
  5
49A
  8
0
  6
CONTINUOUS
 62
     7
 10
386.8459272058
 20
149.5088709769
 30
0.0
  0
VERTEX
  5
49B
  8
0
  6
CONTINUOUS
 62
     7
 10
382.2238731057
 20
149.626906055
 30
0.0
  0
VERTEX
  5
49C
  8
0
  6
CONTINUOUS
 62
     7
 10
377.6222991617
 20
149.831612247
 30
0.0
  0
VERTEX
  5
49D
  8
0
  6
CONTINUOUS
 62
     7
 10
373.0227398546
 20
150.119627851
 30
0.0
  0
VERTEX
  5
49E
  8
0
  6
CONTINUOUS
 62
     7
 10
368.4123801858
 20
150.4869772372
 30
0.0
  0
VERTEX
  5
49F
  8
0
  6
CONTINUOUS
 62
     7
 10
363.8663458497
 20
150.9198976931
 30
0.0
  0
VERTEX
  5
4A0
  8
0
  6
CONTINUOUS
 62
     7
 10
359.2124151857
 20
151.4278782782
 30
0.0
  0
SEQEND
  5
881
  8
0
  6
CONTINUOUS
 62
     7
  0
POLYLINE
  5
E0
  8
0
  6
CONTINUOUS
 62
     7
 66
     1
 10
0.0
 20
0.0
 30
0.0
  0
VERTEX
  5
4A1
  8
0
  6
CONTINUOUS
 62
     7
 10
359.2124151857
 20
151.4278782782
 30
0.0
  0
VERTEX
  5
4A2
  8
0
  6
CONTINUOUS
 62
     7
 10
358.7808179529
 20
151.487995523
 30
0.0
  0
VERTEX
  5
4A3
  8
0
  6
CONTINUOUS
 62
     7
 10
358.3473252923
 20
151.5689624724
 30
0.0
  0
VERTEX
  5
4A4
  8
0
  6
CONTINUOUS
 62
     7
 10
357.914476362
 20
151.6707731662
 30
0.0
  0
VERTEX
  5
4A5
  8
0
  6
CONTINUOUS
 62
     7
 10
357.5226235063
 20
151.7816080031
 30
0.0
  0
VERTEX
  5
4A6
  8
0
  6
CONTINUOUS
 62
     7
 10
357.1271586091
 20
151.911677259
 30
0.0
  0
VERTEX
  5
4A7
  8
0
  6
CONTINUOUS
 62
     7
 10
356.7307996423
 20
152.0609094081
 30
0.0
  0
VERTEX
  5
4A8
  8
0
  6
CONTINUOUS
 62
     7
 10
356.4234304101
 20
152.1901620803
 30
0.0
  0
VERTEX
  5
4A9
  8
0
  6
CONTINUOUS
 62
     7
 10
356.1196970613
 20
152.3297501979
 30
0.0
  0
VERTEX
  5
4AA
  8
0
  6
CONTINUOUS
 62
     7
 10
355.8321165712
 20
152.4731470523
 30
0.0
  0
VERTEX
  5
4AB
  8
0
  6
CONTINUOUS
 62
     7
 10
355.5591988237
 20
152.6196433482
 30
0.0
  0
VERTEX
  5
4AC
  8
0
  6
CONTINUOUS
 62
     7
 10
355.2930640848
 20
152.7725948272
 30
0.0
  0
VERTEX
  5
4AD
  8
0
  6
CONTINUOUS
 62
     7
 10
355.0669002206
 20
152.9107881961
 30
0.0
  0
VERTEX
  5
4AE
  8
0
  6
CONTINUOUS
 62
     7
 10
354.8038410814
 20
153.0812515197
 30
0.0
  0
VERTEX
  5
4AF
  8
0
  6
CONTINUOUS
 62
     7
 10
354.5081066758
 20
153.2862497744
 30
0.0
  0
VERTEX
  5
4B0
  8
0
  6
CONTINUOUS
 62
     7
 10
354.2967605264
 20
153.4421874461
 30
0.0
  0
VERTEX
  5
4B1
  8
0
  6
CONTINUOUS
 62
     7
 10
354.0864872606
 20
153.6057843146
 30
0.0
  0
VERTEX
  5
4B2
  8
0
  6
CONTINUOUS
 62
     7
 10
353.8752603204
 20
153.77947821
 30
0.0
  0
VERTEX
  5
4B3
  8
0
  6
CONTINUOUS
 62
     7
 10
353.6991762788
 20
153.9331032214
 30
0.0
  0
VERTEX
  5
4B4
  8
0
  6
CONTINUOUS
 62
     7
 10
353.5546826989
 20
154.0668441233
 30
0.0
  0
VERTEX
  5
4B5
  8
0
  6
CONTINUOUS
 62
     7
 10
353.2250690133
 20
154.4300688681
 30
0.0
  0
VERTEX
  5
4B6
  8
0
  6
CONTINUOUS
 62
     7
 10
353.12377688
 20
154.6850038943
 30
0.0
  0
SEQEND
  5
880
  8
0
  6
CONTINUOUS
 62
     7
  0
ARC
  5
E1
  8
0
  6
CONTINUOUS
 62
     7
 10
30.6155788572
 20
227.6561997762
 30
0.0
 40
73.90749144434832
 50
244.576065686
 51
295.423934314
  0
LINE
  5
E2
  8
0
  6
CONTINUOUS
 62
     7
 10
-0.896914038
 20
227.0568086085
 30
0.0
 11
-0.7875752776
 21
227.0671559748
 31
0.0
  0
LINE
  5
E3
  8
0
  6
CONTINUOUS
 62
     7
 10
62.0187449128
 20
227.0671559748
 30
0.0
 11
62.1280836732
 21
227.0568086085
 31
0.0
  0
ARC
  5
E4
  8
0
  6
CONTINUOUS
 62
     7
 10
30.6155848176
 20
-105.0969385572
 30
0.0
 40
333.6452447441191
 50
84.5803860066
 51
95.4196139934
  0
POLYLINE
  5
E5
  8
0
  6
CONTINUOUS
 62
     7
 66
     1
 10
0.0
 20
0.0
 30
0.0
  0
VERTEX
  5
4B7
  8
0
  6
CONTINUOUS
 62
     7
 10
62.3449849756
 20
160.90620293
 30
0.0
  0
VERTEX
  5
4B8
  8
0
  6
CONTINUOUS
 62
     7
 10
63.3458423288
 20
161.4899946627
 30
0.0
  0
VERTEX
  5
4B9
  8
0
  6
CONTINUOUS
 62
     7
 10
63.839118448
 20
161.9028700766
 30
0.0
  0
SEQEND
  5
87F
  8
0
  6
CONTINUOUS
 62
     7
  0
POLYLINE
  5
E6
  8
0
  6
CONTINUOUS
 62
     7
 66
     1
 10
0.0
 20
0.0
 30
0.0
  0
VERTEX
  5
4BA
  8
0
  6
CONTINUOUS
 62
     7
 10
-2.6235413878
 20
161.9169367728
 30
0.0
  0
VERTEX
  5
4BB
  8
0
  6
CONTINUOUS
 62
     7
 10
-2.2469592421
 20
161.5851177153
 30
0.0
  0
VERTEX
  5
4BC
  8
0
  6
CONTINUOUS
 62
     7
 10
-1.1138272612
 20
160.90620293
 30
0.0
  0
SEQEND
  5
87E
  8
0
  6
CONTINUOUS
 62
     7
  0
LINE
  5
E7
  8
0
  6
CONTINUOUS
 62
     7
 10
-6.9844317763
 20
198.5497785983
 30
0.0
 11
-6.9813561766
 21
197.5213838992
 31
0.0
  0
LINE
  5
E8
  8
0
  6
CONTINUOUS
 62
     7
 10
-6.9844317763
 20
208.5491491732
 30
0.0
 11
-6.9844317763
 21
198.5497785983
 31
0.0
  0
POLYLINE
  5
E9
  8
0
  6
CONTINUOUS
 62
     7
 66
     1
 10
0.0
 20
0.0
 30
0.0
  0
VERTEX
  5
4BD
  8
0
  6
CONTINUOUS
 62
     7
 10
-6.98447946
 20
220.2103568492
 30
0.0
  0
VERTEX
  5
4BE
  8
0
  6
CONTINUOUS
 62
     7
 10
-6.9844556182
 20
219.0060450015
 30
0.0
  0
VERTEX
  5
4BF
  8
0
  6
CONTINUOUS
 62
     7
 10
-6.9843364089
 20
217.792470592
 30
0.0
  0
VERTEX
  5
4C0
  8
0
  6
CONTINUOUS
 62
     7
 10
-6.9838834136
 20
215.4873324809
 30
0.0
  0
VERTEX
  5
4C1
  8
0
  6
CONTINUOUS
 62
     7
 10
-6.983478102
 20
213.1794048724
 30
0.0
  0
VERTEX
  5
4C2
  8
0
  6
CONTINUOUS
 62
     7
 10
-6.9844317763
 20
208.5491491732
 30
0.0
  0
SEQEND
  5
87D
  8
0
  6
CONTINUOUS
 62
     7
  0
ARC
  5
EA
  8
0
  6
CONTINUOUS
 62
     7
 10
-0.2242835515
 20
220.3290635965
 30
0.0
 40
6.761285729667394
 50
95.7093787994
 51
181.0059839732
  0
ARC
  5
EB
  8
0
  6
CONTINUOUS
 62
     7
 10
61.4628857353
 20
220.3357132561
 30
0.0
 40
6.753933004768308
 50
358.9445920423
 51
84.3477491833
  0
POLYLINE
  5
EC
  8
0
  6
CONTINUOUS
 62
     7
 66
     1
 10
0.0
 20
0.0
 30
0.0
  0
VERTEX
  5
4C3
  8
0
  6
CONTINUOUS
 62
     7
 10
68.2137655885
 20
197.5213838992
 30
0.0
  0
VERTEX
  5
4C4
  8
0
  6
CONTINUOUS
 62
     7
 10
68.2155775697
 20
198.5497785983
 30
0.0
  0
VERTEX
  5
4C5
  8
0
  6
CONTINUOUS
 62
     7
 10
68.2191419275
 20
200.9803129611
 30
0.0
  0
VERTEX
  5
4C6
  8
0
  6
CONTINUOUS
 62
     7
 10
68.2177352578
 20
205.8415962634
 30
0.0
  0
VERTEX
  5
4C7
  8
0
  6
CONTINUOUS
 62
     7
 10
68.2151245744
 20
209.4333602366
 30
0.0
  0
VERTEX
  5
4C8
  8
0
  6
CONTINUOUS
 62
     7
 10
68.2146358163
 20
213.0248381076
 30
0.0
  0
VERTEX
  5
4C9
  8
0
  6
CONTINUOUS
 62
     7
 10
68.2148980768
 20
214.8197366175
 30
0.0
  0
VERTEX
  5
4CA
  8
0
  6
CONTINUOUS
 62
     7
 10
68.2152795465
 20
216.6141463694
 30
0.0
  0
VERTEX
  5
4CB
  8
0
  6
CONTINUOUS
 62
     7
 10
68.2155537278
 20
218.4186054644
 30
0.0
  0
VERTEX
  5
4CC
  8
0
  6
CONTINUOUS
 62
     7
 10
68.2156490953
 20
220.2113105235
 30
0.0
  0
SEQEND
  5
87C
  8
0
  6
CONTINUOUS
 62
     7
  0
LINE
  5
ED
  8
0
  6
CONTINUOUS
 62
     7
 10
-0.8342814772
 20
160.782201427
 30
0.0
 11
-0.71702722
 21
160.719014543
 31
0.0
  0
LINE
  5
EE
  8
0
  6
CONTINUOUS
 62
     7
 10
61.9481849344
 20
160.719014543
 30
0.0
 11
62.0335626275
 21
160.7650293288
 31
0.0
  0
LINE
  5
EF
  8
0
  6
CONTINUOUS
 62
     7
 10
62.3646068246
 20
227.0167423663
 30
0.0
 11
62.0187449128
 21
227.0671559748
 31
0.0
  0
ARC
  5
F0
  8
0
  6
CONTINUOUS
 62
     7
 10
150.6155791552
 20
227.6561733122
 30
0.0
 40
73.90746562411346
 50
244.5760600083
 51
295.4239399917
  0
LINE
  5
F1
  8
0
  6
CONTINUOUS
 62
     7
 10
119.1030788095
 20
227.0568086085
 30
0.0
 11
119.2124175699
 21
227.0671559748
 31
0.0
  0
LINE
  5
F2
  8
0
  6
CONTINUOUS
 62
     7
 10
182.0187437208
 20
227.0671559748
 30
0.0
 11
182.1280795009
 21
227.0568086085
 31
0.0
  0
ARC
  5
F3
  8
0
  6
CONTINUOUS
 62
     7
 10
150.6155791552
 20
-105.0970502691
 30
0.0
 40
333.6453560973288
 50
84.5803875638
 51
95.4196124362
  0
POLYLINE
  5
F4
  8
0
  6
CONTINUOUS
 62
     7
 66
     1
 10
0.0
 20
0.0
 30
0.0
  0
VERTEX
  5
4CD
  8
0
  6
CONTINUOUS
 62
     7
 10
182.3449808032
 20
160.90620293
 30
0.0
  0
VERTEX
  5
4CE
  8
0
  6
CONTINUOUS
 62
     7
 10
183.3458381564
 20
161.4899946627
 30
0.0
  0
VERTEX
  5
4CF
  8
0
  6
CONTINUOUS
 62
     7
 10
183.8391232164
 20
161.9028700766
 30
0.0
  0
SEQEND
  5
87B
  8
0
  6
CONTINUOUS
 62
     7
  0
POLYLINE
  5
F5
  8
0
  6
CONTINUOUS
 62
     7
 66
     1
 10
0.0
 20
0.0
 30
0.0
  0
VERTEX
  5
4D0
  8
0
  6
CONTINUOUS
 62
     7
 10
117.3764633806
 20
161.9169367728
 30
0.0
  0
VERTEX
  5
4D1
  8
0
  6
CONTINUOUS
 62
     7
 10
117.7530395658
 20
161.5851177153
 30
0.0
  0
VERTEX
  5
4D2
  8
0
  6
CONTINUOUS
 62
     7
 10
118.8861775071
 20
160.90620293
 30
0.0
  0
SEQEND
  5
87A
  8
0
  6
CONTINUOUS
 62
     7
  0
LINE
  5
F6
  8
0
  6
CONTINUOUS
 62
     7
 10
113.0155789525
 20
198.5497785983
 30
0.0
 11
113.0186426313
 21
197.5213838992
 31
0.0
  0
LINE
  5
F7
  8
0
  6
CONTINUOUS
 62
     7
 10
113.0155789525
 20
208.5491491732
 30
0.0
 11
113.0155789525
 21
198.5497785983
 31
0.0
  0
POLYLINE
  5
F8
  8
0
  6
CONTINUOUS
 62
     7
 66
     1
 10
0.0
 20
0.0
 30
0.0
  0
VERTEX
  5
4D3
  8
0
  6
CONTINUOUS
 62
     7
 10
113.015507427
 20
220.2103568492
 30
0.0
  0
VERTEX
  5
4D4
  8
0
  6
CONTINUOUS
 62
     7
 10
113.0155431897
 20
219.0060450015
 30
0.0
  0
VERTEX
  5
4D5
  8
0
  6
CONTINUOUS
 62
     7
 10
113.01567432
 20
217.792470592
 30
0.0
  0
VERTEX
  5
4D6
  8
0
  6
CONTINUOUS
 62
     7
 10
113.0161213548
 20
215.4873324809
 30
0.0
  0
VERTEX
  5
4D7
  8
0
  6
CONTINUOUS
 62
     7
 10
113.0165147455
 20
213.1794048724
 30
0.0
  0
VERTEX
  5
4D8
  8
0
  6
CONTINUOUS
 62
     7
 10
113.0155789525
 20
208.5491491732
 30
0.0
  0
SEQEND
  5
879
  8
0
  6
CONTINUOUS
 62
     7
  0
ARC
  5
F9
  8
0
  6
CONTINUOUS
 62
     7
 10
119.7756898255
 20
220.3290985651
 30
0.0
 40
6.76124899759208
 50
95.709244102
 51
181.0062858134
  0
ARC
  5
FA
  8
0
  6
CONTINUOUS
 62
     7
 10
181.4628709327
 20
220.3356949831
 30
0.0
 40
6.753952235895989
 50
358.9447500892
 51
84.3476747093
  0
POLYLINE
  5
FB
  8
0
  6
CONTINUOUS
 62
     7
 66
     1
 10
0.0
 20
0.0
 30
0.0
  0
VERTEX
  5
4D9
  8
0
  6
CONTINUOUS
 62
     7
 10
188.2137629063
 20
197.5213838992
 30
0.0
  0
VERTEX
  5
4DA
  8
0
  6
CONTINUOUS
 62
     7
 10
188.2155793578
 20
198.5497785983
 30
0.0
  0
VERTEX
  5
4DB
  8
0
  6
CONTINUOUS
 62
     7
 10
188.2191422255
 20
200.9803129611
 30
0.0
  0
VERTEX
  5
4DC
  8
0
  6
CONTINUOUS
 62
     7
 10
188.2177340658
 20
205.8415962634
 30
0.0
  0
VERTEX
  5
4DD
  8
0
  6
CONTINUOUS
 62
     7
 10
188.2151248724
 20
209.4333602366
 30
0.0
  0
VERTEX
  5
4DE
  8
0
  6
CONTINUOUS
 62
     7
 10
188.214631644
 20
213.0248381076
 30
0.0
  0
VERTEX
  5
4DF
  8
0
  6
CONTINUOUS
 62
     7
 10
188.2149028451
 20
214.8197366175
 30
0.0
  0
VERTEX
  5
4E0
  8
0
  6
CONTINUOUS
 62
     7
 10
188.215273884
 20
216.6141463694
 30
0.0
  0
VERTEX
  5
4E1
  8
0
  6
CONTINUOUS
 62
     7
 10
188.2155540259
 20
218.4186054644
 30
0.0
  0
VERTEX
  5
4E2
  8
0
  6
CONTINUOUS
 62
     7
 10
188.2156508834
 20
220.2113105235
 30
0.0
  0
SEQEND
  5
878
  8
0
  6
CONTINUOUS
 62
     7
  0
LINE
  5
FC
  8
0
  6
CONTINUOUS
 62
     7
 10
119.1657113702
 20
160.782201427
 30
0.0
 11
119.2829775483
 21
160.719014543
 31
0.0
  0
LINE
  5
FD
  8
0
  6
CONTINUOUS
 62
     7
 10
181.948180762
 20
160.719014543
 30
0.0
 11
182.0335584552
 21
160.7650293288
 31
0.0
  0
LINE
  5
FE
  8
0
  6
CONTINUOUS
 62
     7
 10
182.3646086128
 20
227.0167423663
 30
0.0
 11
182.0187437208
 21
227.0671559748
 31
0.0
  0
ARC
  5
FF
  8
0
  6
CONTINUOUS
 62
     7
 10
270.6155809433
 20
227.6561748528
 30
0.0
 40
73.90746701549071
 50
244.576060521
 51
295.423939479
  0
LINE
  5
100
  8
0
  6
CONTINUOUS
 62
     7
 10
239.1030805976
 20
227.0568086085
 30
0.0
 11
239.2124163778
 21
227.0671559748
 31
0.0
  0
LINE
  5
101
  8
0
  6
CONTINUOUS
 62
     7
 10
302.0187425287
 20
227.0671559748
 30
0.0
 11
302.128081289
 21
227.0568086085
 31
0.0
  0
ARC
  5
102
  8
0
  6
CONTINUOUS
 62
     7
 10
270.6155809433
 20
-105.0970298266
 30
0.0
 40
333.645335746194
 50
84.5803872322
 51
95.4196127678
  0
POLYLINE
  5
103
  8
0
  6
CONTINUOUS
 62
     7
 66
     1
 10
0.0
 20
0.0
 30
0.0
  0
VERTEX
  5
4E3
  8
0
  6
CONTINUOUS
 62
     7
 10
302.3449825914
 20
160.90620293
 30
0.0
  0
VERTEX
  5
4E4
  8
0
  6
CONTINUOUS
 62
     7
 10
303.3458399446
 20
161.4899946627
 30
0.0
  0
VERTEX
  5
4E5
  8
0
  6
CONTINUOUS
 62
     7
 10
303.8391220243
 20
161.9028700766
 30
0.0
  0
SEQEND
  5
877
  8
0
  6
CONTINUOUS
 62
     7
  0
POLYLINE
  5
104
  8
0
  6
CONTINUOUS
 62
     7
 66
     1
 10
0.0
 20
0.0
 30
0.0
  0
VERTEX
  5
4E6
  8
0
  6
CONTINUOUS
 62
     7
 10
237.3764621885
 20
161.9169367728
 30
0.0
  0
VERTEX
  5
4E7
  8
0
  6
CONTINUOUS
 62
     7
 10
237.7530383737
 20
161.5851177153
 30
0.0
  0
VERTEX
  5
4E8
  8
0
  6
CONTINUOUS
 62
     7
 10
238.8861792953
 20
160.90620293
 30
0.0
  0
SEQEND
  5
876
  8
0
  6
CONTINUOUS
 62
     7
  0
LINE
  5
105
  8
0
  6
CONTINUOUS
 62
     7
 10
233.0155807407
 20
198.5497785983
 30
0.0
 11
233.0186429293
 21
197.5213838992
 31
0.0
  0
LINE
  5
106
  8
0
  6
CONTINUOUS
 62
     7
 10
233.0155807407
 20
208.5491491732
 30
0.0
 11
233.0155807407
 21
198.5497785983
 31
0.0
  0
POLYLINE
  5
107
  8
0
  6
CONTINUOUS
 62
     7
 66
     1
 10
0.0
 20
0.0
 30
0.0
  0
VERTEX
  5
4E9
  8
0
  6
CONTINUOUS
 62
     7
 10
233.0155092151
 20
220.2103568492
 30
0.0
  0
VERTEX
  5
4EA
  8
0
  6
CONTINUOUS
 62
     7
 10
233.0155434878
 20
219.0060450015
 30
0.0
  0
VERTEX
  5
4EB
  8
0
  6
CONTINUOUS
 62
     7
 10
233.015674618
 20
217.792470592
 30
0.0
  0
VERTEX
  5
4EC
  8
0
  6
CONTINUOUS
 62
     7
 10
233.0161231429
 20
215.4873324809
 30
0.0
  0
VERTEX
  5
4ED
  8
0
  6
CONTINUOUS
 62
     7
 10
233.0165135534
 20
213.1794048724
 30
0.0
  0
VERTEX
  5
4EE
  8
0
  6
CONTINUOUS
 62
     7
 10
233.0155777604
 20
208.5491491732
 30
0.0
  0
SEQEND
  5
875
  8
0
  6
CONTINUOUS
 62
     7
  0
ARC
  5
108
  8
0
  6
CONTINUOUS
 62
     7
 10
239.7756856544
 20
220.3291009211
 30
0.0
 40
6.761246060399665
 50
95.709195839
 51
181.0063062192
  0
ARC
  5
109
  8
0
  6
CONTINUOUS
 62
     7
 10
301.4628676538
 20
220.335693417
 30
0.0
 40
6.753954293504378
 50
358.9447636992
 51
84.3476332417
  0
POLYLINE
  5
10A
  8
0
  6
CONTINUOUS
 62
     7
 66
     1
 10
0.0
 20
0.0
 30
0.0
  0
VERTEX
  5
4EF
  8
0
  6
CONTINUOUS
 62
     7
 10
308.2137632043
 20
197.5213838992
 30
0.0
  0
VERTEX
  5
4F0
  8
0
  6
CONTINUOUS
 62
     7
 10
308.215581146
 20
198.5497785983
 30
0.0
  0
VERTEX
  5
4F1
  8
0
  6
CONTINUOUS
 62
     7
 10
308.2191455037
 20
200.9803129611
 30
0.0
  0
VERTEX
  5
4F2
  8
0
  6
CONTINUOUS
 62
     7
 10
308.2177328737
 20
205.8415962634
 30
0.0
  0
VERTEX
  5
4F3
  8
0
  6
CONTINUOUS
 62
     7
 10
308.2151221902
 20
209.4333602366
 30
0.0
  0
VERTEX
  5
4F4
  8
0
  6
CONTINUOUS
 62
     7
 10
308.2146334321
 20
213.0248381076
 30
0.0
  0
VERTEX
  5
4F5
  8
0
  6
CONTINUOUS
 62
     7
 10
308.214901653
 20
214.8197366175
 30
0.0
  0
VERTEX
  5
4F6
  8
0
  6
CONTINUOUS
 62
     7
 10
308.2152712018
 20
216.6141463694
 30
0.0
  0
VERTEX
  5
4F7
  8
0
  6
CONTINUOUS
 62
     7
 10
308.2155513437
 20
218.4186054644
 30
0.0
  0
VERTEX
  5
4F8
  8
0
  6
CONTINUOUS
 62
     7
 10
308.2156526716
 20
220.2113105235
 30
0.0
  0
SEQEND
  5
874
  8
0
  6
CONTINUOUS
 62
     7
  0
LINE
  5
10B
  8
0
  6
CONTINUOUS
 62
     7
 10
239.1657101781
 20
160.782201427
 30
0.0
 11
239.2829793365
 21
160.719014543
 31
0.0
  0
LINE
  5
10C
  8
0
  6
CONTINUOUS
 62
     7
 10
301.9481825502
 20
160.719014543
 30
0.0
 11
302.0335602434
 21
160.7650293288
 31
0.0
  0
LINE
  5
10D
  8
0
  6
CONTINUOUS
 62
     7
 10
302.3646104009
 20
227.0167423663
 30
0.0
 11
302.0187425287
 21
227.0671559748
 31
0.0
  0
LINE
  5
10E
  8
0
  6
CONTINUOUS
 62
     7
 10
232.915580538
 20
150.5219294009
 30
0.0
 11
233.7155806691
 21
150.5219294009
 31
0.0
  0
LINE
  5
10F
  8
0
  6
CONTINUOUS
 62
     7
 10
249.3155795009
 20
143.4213890014
 30
0.0
 11
249.3155795009
 21
155.6213869033
 31
0.0
  0
LINE
  5
110
  8
0
  6
CONTINUOUS
 62
     7
 10
232.915580538
 20
143.4213890014
 30
0.0
 11
232.915580538
 21
150.5219294009
 31
0.0
  0
LINE
  5
111
  8
0
  6
CONTINUOUS
 62
     7
 10
233.7155806691
 20
150.5219294009
 30
0.0
 11
233.7155806691
 21
196.0645033297
 31
0.0
  0
LINE
  5
112
  8
0
  6
CONTINUOUS
 62
     7
 10
232.915580538
 20
150.5219294009
 30
0.0
 11
232.915580538
 21
196.0645033297
 31
0.0
  0
LINE
  5
113
  8
0
  6
CONTINUOUS
 62
     7
 10
233.7155806691
 20
197.5213838992
 30
0.0
 11
232.915580538
 21
197.5213838992
 31
0.0
  0
LINE
  5
114
  8
0
  6
CONTINUOUS
 62
     7
 10
233.7155806691
 20
196.0645033297
 30
0.0
 11
233.7155806691
 21
197.5213838992
 31
0.0
  0
LINE
  5
115
  8
0
  6
CONTINUOUS
 62
     7
 10
232.915580538
 20
196.0645033297
 30
0.0
 11
232.915580538
 21
197.5213838992
 31
0.0
  0
ARC
  5
116
  8
0
  6
CONTINUOUS
 62
     7
 10
236.0637971107
 20
195.5336226422
 30
0.0
 40
1.987799850811697
 50
359.6472866892
 51
89.6429648907
  0
LINE
  5
117
  8
0
  6
CONTINUOUS
 62
     7
 10
238.0515592964
 20
188.359184402
 30
0.0
 11
238.0515592964
 21
195.5213858065
 31
0.0
  0
ARC
  5
118
  8
0
  6
CONTINUOUS
 62
     7
 10
268.179768836
 20
188.3104411512
 30
0.0
 40
30.12824896956833
 50
179.9073034821
 51
232.1235072647
  0
ARC
  5
119
  8
0
  6
CONTINUOUS
 62
     7
 10
248.5839257674
 20
163.1209476405
 30
0.0
 40
1.785819094040071
 50
333.9117095834
 51
52.0487999288
  0
POLYLINE
  5
11A
  8
0
  6
CONTINUOUS
 62
     7
 66
     1
 10
0.0
 20
0.0
 30
0.0
  0
VERTEX
  5
4F9
  8
0
  6
CONTINUOUS
 62
     7
 10
248.9698874624
 20
158.8729752478
 30
0.0
  0
VERTEX
  5
4FA
  8
0
  6
CONTINUOUS
 62
     7
 10
249.4784760148
 20
160.6404854235
 30
0.0
  0
VERTEX
  5
4FB
  8
0
  6
CONTINUOUS
 62
     7
 10
250.18780109
 20
162.3356236396
 30
0.0
  0
SEQEND
  5
873
  8
0
  6
CONTINUOUS
 62
     7
  0
ARC
  5
11B
  8
0
  6
CONTINUOUS
 62
     7
 10
247.8130943051
 20
159.1257396428
 30
0.0
 40
1.184086250242248
 50
252.0748845677
 51
347.6743426337
  0
POLYLINE
  5
11C
  8
0
  6
CONTINUOUS
 62
     7
 66
     1
 10
0.0
 20
0.0
 30
0.0
  0
VERTEX
  5
4FC
  8
0
  6
CONTINUOUS
 62
     7
 10
239.3219905765
 20
161.2006081519
 30
0.0
  0
VERTEX
  5
4FD
  8
0
  6
CONTINUOUS
 62
     7
 10
243.346037236
 20
159.4797505317
 30
0.0
  0
VERTEX
  5
4FE
  8
0
  6
CONTINUOUS
 62
     7
 10
247.4486636789
 20
157.9991294322
 30
0.0
  0
SEQEND
  5
872
  8
0
  6
CONTINUOUS
 62
     7
  0
LINE
  5
11D
  8
0
  6
CONTINUOUS
 62
     7
 10
238.3416819246
 20
161.7729617534
 30
0.0
 11
239.3219905765
 21
161.2006081519
 31
0.0
  0
ARC
  5
11E
  8
0
  6
CONTINUOUS
 62
     7
 10
237.6560597456
 20
160.8066076529
 30
0.0
 40
1.184870465406921
 50
54.6445379963
 51
180.6187406836
  0
LINE
  5
11F
  8
0
  6
CONTINUOUS
 62
     7
 10
236.4712583692
 20
155.6213869033
 30
0.0
 11
236.4712583692
 21
160.7938124118
 31
0.0
  0
LINE
  5
120
  8
0
  6
CONTINUOUS
 62
     7
 10
236.0761838825
 20
197.5213838992
 30
0.0
 11
233.7155806691
 21
197.5213838992
 31
0.0
  0
ARC
  5
121
  8
0
  6
CONTINUOUS
 62
     7
 10
237.787261818
 20
160.8029356738
 30
0.0
 40
1.190892483190293
 50
90.2709222324
 51
180.438939306
  0
LINE
  5
122
  8
0
  6
CONTINUOUS
 62
     7
 10
236.1601817281
 20
197.5213838992
 30
0.0
 11
236.0761838825
 21
197.5213838992
 31
0.0
  0
LINE
  5
123
  8
0
  6
CONTINUOUS
 62
     7
 10
236.5964042814
 20
155.6213869033
 30
0.0
 11
236.5964042814
 21
160.7938124118
 31
0.0
  0
LINE
  5
124
  8
0
  6
CONTINUOUS
 62
     7
 10
353.7155794771
 20
152.5457097468
 30
0.0
 11
353.7155794771
 21
151.4276935038
 31
0.0
  0
LINE
  5
125
  8
0
  6
CONTINUOUS
 62
     7
 10
352.9155778558
 20
151.4276935038
 30
0.0
 11
352.9155778558
 21
153.1213892875
 31
0.0
  0
LINE
  5
126
  8
0
  6
CONTINUOUS
 62
     7
 10
352.9728221567
 20
153.482813972
 30
0.0
 11
352.9155778558
 21
153.1213892875
 31
0.0
  0
LINE
  5
127
  8
0
  6
CONTINUOUS
 62
     7
 10
352.9155778558
 20
149.5028509078
 30
0.0
 11
352.9155778558
 21
151.4276935038
 31
0.0
  0
LINE
  5
128
  8
0
  6
CONTINUOUS
 62
     7
 10
353.7155794771
 20
149.5028509078
 30
0.0
 11
353.7155794771
 21
151.4276935038
 31
0.0
  0
LINE
  5
129
  8
0
  6
CONTINUOUS
 62
     7
 10
352.9155778558
 20
143.4903098521
 30
0.0
 11
352.9155778558
 21
149.5028509078
 31
0.0
  0
LINE
  5
12A
  8
0
  6
CONTINUOUS
 62
     7
 10
353.7155794771
 20
143.4903098521
 30
0.0
 11
353.7155794771
 21
149.5028509078
 31
0.0
  0
LINE
  5
12B
  8
0
  6
CONTINUOUS
 62
     7
 10
369.315581289
 20
153.5600437102
 30
0.0
 11
369.315581289
 21
155.6213869033
 31
0.0
  0
LINE
  5
12C
  8
0
  6
CONTINUOUS
 62
     7
 10
369.315581289
 20
143.4213890014
 30
0.0
 11
369.315581289
 21
148.8527430472
 31
0.0
  0
LINE
  5
12D
  8
0
  6
CONTINUOUS
 62
     7
 10
352.9155778558
 20
153.1213892875
 30
0.0
 11
352.9155778558
 21
155.6213869033
 31
0.0
  0
LINE
  5
12E
  8
0
  6
CONTINUOUS
 62
     7
 10
352.9155778558
 20
143.4213890014
 30
0.0
 11
352.9155778558
 21
143.4903098521
 31
0.0
  0
LINE
  5
12F
  8
0
  6
CONTINUOUS
 62
     7
 10
-7.0844245284
 20
150.5219294009
 30
0.0
 11
-6.2844109862
 21
150.5219294009
 31
0.0
  0
LINE
  5
130
  8
0
  6
CONTINUOUS
 62
     7
 10
9.3155789049
 20
143.4213890014
 30
0.0
 11
9.3155789049
 21
155.6213869033
 31
0.0
  0
LINE
  5
131
  8
0
  6
CONTINUOUS
 62
     7
 10
-7.0844245284
 20
143.4213890014
 30
0.0
 11
-7.0844245284
 21
150.5219294009
 31
0.0
  0
LINE
  5
132
  8
0
  6
CONTINUOUS
 62
     7
 10
-6.2844109862
 20
150.5219294009
 30
0.0
 11
-6.2844109862
 21
196.0645033297
 31
0.0
  0
LINE
  5
133
  8
0
  6
CONTINUOUS
 62
     7
 10
-7.0844245284
 20
150.5219294009
 30
0.0
 11
-7.0844245284
 21
196.0645033297
 31
0.0
  0
LINE
  5
134
  8
0
  6
CONTINUOUS
 62
     7
 10
-6.2844109862
 20
197.5213838992
 30
0.0
 11
-7.0844245284
 21
197.5213838992
 31
0.0
  0
LINE
  5
135
  8
0
  6
CONTINUOUS
 62
     7
 10
-6.2844109862
 20
196.0645033297
 30
0.0
 11
-6.2844109862
 21
197.5213838992
 31
0.0
  0
LINE
  5
136
  8
0
  6
CONTINUOUS
 62
     7
 10
-7.0844245284
 20
196.0645033297
 30
0.0
 11
-7.0844245284
 21
197.5213838992
 31
0.0
  0
ARC
  5
137
  8
0
  6
CONTINUOUS
 62
     7
 10
-3.9362011506
 20
195.5336189504
 30
0.0
 40
1.987803453773806
 50
359.6473937422
 51
89.6433764455
  0
LINE
  5
138
  8
0
  6
CONTINUOUS
 62
     7
 10
-1.9484353392
 20
188.359184402
 30
0.0
 11
-1.9484353392
 21
195.5213858065
 31
0.0
  0
ARC
  5
139
  8
0
  6
CONTINUOUS
 62
     7
 10
28.1796759657
 20
188.3103955195
 30
0.0
 40
30.1281508087897
 50
179.9072164006
 51
232.1236059202
  0
ARC
  5
13A
  8
0
  6
CONTINUOUS
 62
     7
 10
8.5838554567
 20
163.12092951
 30
0.0
 40
1.785881763556888
 50
333.9133417051
 51
52.0471678071
  0
POLYLINE
  5
13B
  8
0
  6
CONTINUOUS
 62
     7
 66
     1
 10
0.0
 20
0.0
 30
0.0
  0
VERTEX
  5
4FF
  8
0
  6
CONTINUOUS
 62
     7
 10
8.969895807
 20
158.8729752478
 30
0.0
  0
VERTEX
  5
500
  8
0
  6
CONTINUOUS
 62
     7
 10
9.4784664781
 20
160.6404854235
 30
0.0
  0
VERTEX
  5
501
  8
0
  6
CONTINUOUS
 62
     7
 10
10.1878094346
 20
162.3356236396
 30
0.0
  0
SEQEND
  5
871
  8
0
  6
CONTINUOUS
 62
     7
  0
ARC
  5
13C
  8
0
  6
CONTINUOUS
 62
     7
 10
7.8130940139
 20
159.1257521907
 30
0.0
 40
1.184097365695318
 50
252.0751946109
 51
347.6738386645
  0
POLYLINE
  5
13D
  8
0
  6
CONTINUOUS
 62
     7
 66
     1
 10
0.0
 20
0.0
 30
0.0
  0
VERTEX
  5
502
  8
0
  6
CONTINUOUS
 62
     7
 10
-0.6779980986
 20
161.2006081519
 30
0.0
  0
VERTEX
  5
503
  8
0
  6
CONTINUOUS
 62
     7
 10
3.3460306794
 20
159.4797505317
 30
0.0
  0
VERTEX
  5
504
  8
0
  6
CONTINUOUS
 62
     7
 10
7.4486660631
 20
157.9991294322
 30
0.0
  0
SEQEND
  5
870
  8
0
  6
CONTINUOUS
 62
     7
  0
LINE
  5
13E
  8
0
  6
CONTINUOUS
 62
     7
 10
-1.6583276122
 20
161.7729617534
 30
0.0
 11
-0.6779980986
 21
161.2006081519
 31
0.0
  0
ARC
  5
13F
  8
0
  6
CONTINUOUS
 62
     7
 10
-2.3439435915
 20
160.8066030224
 30
0.0
 40
1.184870654543621
 50
54.6449120634
 51
180.6185166607
  0
LINE
  5
140
  8
0
  6
CONTINUOUS
 62
     7
 10
-3.5287452071
 20
155.6213869033
 30
0.0
 11
-3.5287452071
 21
160.7938124118
 31
0.0
  0
LINE
  5
141
  8
0
  6
CONTINUOUS
 62
     7
 10
-3.9238286345
 20
197.5213838992
 30
0.0
 11
-6.2844109862
 21
197.5213838992
 31
0.0
  0
ARC
  5
142
  8
0
  6
CONTINUOUS
 62
     7
 10
-2.2127245036
 20
160.8029186316
 30
0.0
 40
1.190909606911623
 50
90.2717484841
 51
180.4381130542
  0
LINE
  5
143
  8
0
  6
CONTINUOUS
 62
     7
 10
-3.8398099272
 20
197.5213838992
 30
0.0
 11
-3.9238286345
 21
197.5213838992
 31
0.0
  0
LINE
  5
144
  8
0
  6
CONTINUOUS
 62
     7
 10
-3.4035992949
 20
155.6213869033
 30
0.0
 11
-3.4035992949
 21
160.7938124118
 31
0.0
  0
LINE
  5
145
  8
0
  6
CONTINUOUS
 62
     7
 10
112.91558024
 20
150.5219294009
 30
0.0
 11
113.7155818612
 21
150.5219294009
 31
0.0
  0
LINE
  5
146
  8
0
  6
CONTINUOUS
 62
     7
 10
129.3155777128
 20
143.4213890014
 30
0.0
 11
129.3155777128
 21
155.6213869033
 31
0.0
  0
LINE
  5
147
  8
0
  6
CONTINUOUS
 62
     7
 10
112.91558024
 20
143.4213890014
 30
0.0
 11
112.91558024
 21
150.5219294009
 31
0.0
  0
LINE
  5
148
  8
0
  6
CONTINUOUS
 62
     7
 10
113.7155818612
 20
150.5219294009
 30
0.0
 11
113.7155818612
 21
196.0645033297
 31
0.0
  0
LINE
  5
149
  8
0
  6
CONTINUOUS
 62
     7
 10
112.91558024
 20
150.5219294009
 30
0.0
 11
112.91558024
 21
196.0645033297
 31
0.0
  0
LINE
  5
14A
  8
0
  6
CONTINUOUS
 62
     7
 10
113.7155818612
 20
197.5213838992
 30
0.0
 11
112.91558024
 21
197.5213838992
 31
0.0
  0
LINE
  5
14B
  8
0
  6
CONTINUOUS
 62
     7
 10
113.7155818612
 20
196.0645033297
 30
0.0
 11
113.7155818612
 21
197.5213838992
 31
0.0
  0
LINE
  5
14C
  8
0
  6
CONTINUOUS
 62
     7
 10
112.91558024
 20
196.0645033297
 30
0.0
 11
112.91558024
 21
197.5213838992
 31
0.0
  0
ARC
  5
14D
  8
0
  6
CONTINUOUS
 62
     7
 10
116.0638000585
 20
195.5336273199
 30
0.0
 40
1.987795143731928
 50
359.6471510234
 51
89.6431005564
  0
LINE
  5
14E
  8
0
  6
CONTINUOUS
 62
     7
 10
118.0515575082
 20
188.359184402
 30
0.0
 11
118.0515575082
 21
195.5213858065
 31
0.0
  0
ARC
  5
14F
  8
0
  6
CONTINUOUS
 62
     7
 10
148.1797846197
 20
188.3104520407
 30
0.0
 40
30.12826652370217
 50
179.9073242451
 51
232.1234980757
  0
ARC
  5
150
  8
0
  6
CONTINUOUS
 62
     7
 10
128.5839178338
 20
163.1209455369
 30
0.0
 40
1.785826364995469
 50
333.9118989509
 51
52.0486105613
  0
POLYLINE
  5
151
  8
0
  6
CONTINUOUS
 62
     7
 66
     1
 10
0.0
 20
0.0
 30
0.0
  0
VERTEX
  5
505
  8
0
  6
CONTINUOUS
 62
     7
 10
128.9698886545
 20
158.8729752478
 30
0.0
  0
VERTEX
  5
506
  8
0
  6
CONTINUOUS
 62
     7
 10
129.4784772069
 20
160.6404854235
 30
0.0
  0
VERTEX
  5
507
  8
0
  6
CONTINUOUS
 62
     7
 10
130.1878022821
 20
162.3356236396
 30
0.0
  0
SEQEND
  5
86F
  8
0
  6
CONTINUOUS
 62
     7
  0
ARC
  5
152
  8
0
  6
CONTINUOUS
 62
     7
 10
127.8130947514
 20
159.1257409411
 30
0.0
 40
1.184087255999999
 50
252.0749382391
 51
347.6742889623
  0
POLYLINE
  5
153
  8
0
  6
CONTINUOUS
 62
     7
 66
     1
 10
0.0
 20
0.0
 30
0.0
  0
VERTEX
  5
508
  8
0
  6
CONTINUOUS
 62
     7
 10
119.3219887884
 20
161.2006081519
 30
0.0
  0
VERTEX
  5
509
  8
0
  6
CONTINUOUS
 62
     7
 10
123.3460354478
 20
159.4797505317
 30
0.0
  0
VERTEX
  5
50A
  8
0
  6
CONTINUOUS
 62
     7
 10
127.448664871
 20
157.9991294322
 30
0.0
  0
SEQEND
  5
86E
  8
0
  6
CONTINUOUS
 62
     7
  0
LINE
  5
154
  8
0
  6
CONTINUOUS
 62
     7
 10
118.3416831167
 20
161.7729617534
 30
0.0
 11
119.3219887884
 21
161.2006081519
 31
0.0
  0
ARC
  5
155
  8
0
  6
CONTINUOUS
 62
     7
 10
117.6560609377
 20
160.8066076529
 30
0.0
 40
1.184870465406921
 50
54.6445379963
 51
180.6187406836
  0
LINE
  5
156
  8
0
  6
CONTINUOUS
 62
     7
 10
116.4712595613
 20
155.6213869033
 30
0.0
 11
116.4712595613
 21
160.7938124118
 31
0.0
  0
LINE
  5
157
  8
0
  6
CONTINUOUS
 62
     7
 10
116.0761820943
 20
197.5213838992
 30
0.0
 11
113.7155818612
 21
197.5213838992
 31
0.0
  0
ARC
  5
158
  8
0
  6
CONTINUOUS
 62
     7
 10
117.7872579765
 20
160.8029406454
 30
0.0
 40
1.190887487839015
 50
90.2706811906
 51
180.4391803478
  0
LINE
  5
159
  8
0
  6
CONTINUOUS
 62
     7
 10
116.1601829202
 20
197.5213838992
 30
0.0
 11
116.0761820943
 21
197.5213838992
 31
0.0
  0
LINE
  5
15A
  8
0
  6
CONTINUOUS
 62
     7
 10
116.5964054735
 20
155.6213869033
 30
0.0
 11
116.5964054735
 21
160.7938124118
 31
0.0
  0
LINE
  5
15B
  8
0
  6
CONTINUOUS
 62
     7
 10
428.2265352876
 20
153.6835564551
 30
0.0
 11
428.3155846269
 21
153.1213892875
 31
0.0
  0
LINE
  5
15C
  8
0
  6
CONTINUOUS
 62
     7
 10
428.3155846269
 20
153.1213892875
 30
0.0
 11
428.3155846269
 21
151.4276935038
 31
0.0
  0
LINE
  5
15D
  8
0
  6
CONTINUOUS
 62
     7
 10
427.5155710847
 20
151.4276935038
 30
0.0
 11
427.5155710847
 21
152.5371087966
 31
0.0
  0
LINE
  5
15E
  8
0
  6
CONTINUOUS
 62
     7
 10
428.3155846269
 20
151.4276935038
 30
0.0
 11
428.3155846269
 21
149.5028509078
 31
0.0
  0
LINE
  5
15F
  8
0
  6
CONTINUOUS
 62
     7
 10
427.5155710847
 20
151.4276935038
 30
0.0
 11
427.5155710847
 21
149.5028509078
 31
0.0
  0
LINE
  5
160
  8
0
  6
CONTINUOUS
 62
     7
 10
428.3155846269
 20
149.5028509078
 30
0.0
 11
428.3155846269
 21
143.4903098521
 31
0.0
  0
LINE
  5
161
  8
0
  6
CONTINUOUS
 62
     7
 10
427.5155710847
 20
149.5028509078
 30
0.0
 11
427.5155710847
 21
143.4903098521
 31
0.0
  0
LINE
  5
162
  8
0
  6
CONTINUOUS
 62
     7
 10
411.9155811937
 20
155.6213869033
 30
0.0
 11
411.9155811937
 21
153.5560084758
 31
0.0
  0
LINE
  5
163
  8
0
  6
CONTINUOUS
 62
     7
 10
411.9155811937
 20
148.8649679599
 30
0.0
 11
411.9155811937
 21
143.4213890014
 31
0.0
  0
LINE
  5
164
  8
0
  6
CONTINUOUS
 62
     7
 10
428.3155846269
 20
143.4903098521
 30
0.0
 11
428.3155846269
 21
143.4213890014
 31
0.0
  0
LINE
  5
165
  8
0
  6
CONTINUOUS
 62
     7
 10
428.3155846269
 20
155.6213869033
 30
0.0
 11
428.3155846269
 21
153.1213892875
 31
0.0
  0
LINE
  5
166
  8
0
  6
CONTINUOUS
 62
     7
 10
51.9155788095
 20
155.6213869033
 30
0.0
 11
51.9155788095
 21
143.4213890014
 31
0.0
  0
LINE
  5
167
  8
0
  6
CONTINUOUS
 62
     7
 10
68.3155822427
 20
150.5219294009
 30
0.0
 11
67.5155806215
 21
150.5219294009
 31
0.0
  0
LINE
  5
168
  8
0
  6
CONTINUOUS
 62
     7
 10
68.3155822427
 20
150.5219294009
 30
0.0
 11
68.3155822427
 21
143.4213890014
 31
0.0
  0
LINE
  5
169
  8
0
  6
CONTINUOUS
 62
     7
 10
67.5155806215
 20
196.0645033297
 30
0.0
 11
67.5155806215
 21
150.5219294009
 31
0.0
  0
LINE
  5
16A
  8
0
  6
CONTINUOUS
 62
     7
 10
68.3155822427
 20
196.0645033297
 30
0.0
 11
68.3155822427
 21
150.5219294009
 31
0.0
  0
LINE
  5
16B
  8
0
  6
CONTINUOUS
 62
     7
 10
68.3155822427
 20
197.5213838992
 30
0.0
 11
67.5155806215
 21
197.5213838992
 31
0.0
  0
LINE
  5
16C
  8
0
  6
CONTINUOUS
 62
     7
 10
67.5155806215
 20
197.5213838992
 30
0.0
 11
67.5155806215
 21
196.0645033297
 31
0.0
  0
LINE
  5
16D
  8
0
  6
CONTINUOUS
 62
     7
 10
68.3155822427
 20
197.5213838992
 30
0.0
 11
68.3155822427
 21
196.0645033297
 31
0.0
  0
ARC
  5
16E
  8
0
  6
CONTINUOUS
 62
     7
 10
59.3773895501
 20
166.6626344808
 30
0.0
 40
6.020268464933372
 50
294.8688365684
 51
305.6883881063
  0
ARC
  5
16F
  8
0
  6
CONTINUOUS
 62
     7
 10
30.170001742
 20
229.8525578659
 30
0.0
 40
75.63375474874881
 50
288.1915691329
 51
294.8120425034
  0
ARC
  5
170
  8
0
  6
CONTINUOUS
 62
     7
 10
53.4180634358
 20
159.1257359492
 30
0.0
 40
1.184081993932901
 50
192.3255194236
 51
287.9250594479
  0
ARC
  5
171
  8
0
  6
CONTINUOUS
 62
     7
 10
36.8107240588
 20
155.3840817746
 30
0.0
 40
15.83956646645691
 50
12.724566171
 51
26.0319310232
  0
ARC
  5
172
  8
0
  6
CONTINUOUS
 62
     7
 10
52.6472348387
 20
163.1209477982
 30
0.0
 40
1.785818548724847
 50
127.9511858687
 51
206.0883046191
  0
ARC
  5
173
  8
0
  6
CONTINUOUS
 62
     7
 10
33.0580492126
 20
188.3071959845
 30
0.0
 40
30.12160062668816
 50
307.8702879017
 51
0.0988897775
  0
LINE
  5
174
  8
0
  6
CONTINUOUS
 62
     7
 10
63.1796049745
 20
195.5213858065
 30
0.0
 11
63.1796049745
 21
188.359184402
 31
0.0
  0
ARC
  5
175
  8
0
  6
CONTINUOUS
 62
     7
 10
65.1673539377
 20
195.5336357388
 30
0.0
 40
1.987786709256512
 50
90.3568281463
 51
180.3530931442
  0
LINE
  5
176
  8
0
  6
CONTINUOUS
 62
     7
 10
67.5155806215
 20
197.5213838992
 30
0.0
 11
65.1549744279
 21
197.5213838992
 31
0.0
  0
LINE
  5
177
  8
0
  6
CONTINUOUS
 62
     7
 10
64.7599029214
 20
160.7938124118
 30
0.0
 11
64.7599029214
 21
155.6213869033
 31
0.0
  0
ARC
  5
178
  8
0
  6
CONTINUOUS
 62
     7
 10
63.5747744871
 20
160.8059870611
 30
0.0
 40
1.185190966822411
 50
359.4114296249
 51
125.3254417385
  0
ARC
  5
179
  8
0
  6
CONTINUOUS
 62
     7
 10
63.4408761126
 20
160.8003676501
 30
0.0
 40
1.193898892945129
 50
359.6854093944
 51
86.5797313937
  0
LINE
  5
17A
  8
0
  6
CONTINUOUS
 62
     7
 10
65.1549744279
 20
197.5213838992
 30
0.0
 11
65.0709795625
 21
197.5213838992
 31
0.0
  0
LINE
  5
17B
  8
0
  6
CONTINUOUS
 62
     7
 10
64.6347570093
 20
160.7938124118
 30
0.0
 11
64.6347570093
 21
155.6213869033
 31
0.0
  0
LINE
  5
17C
  8
0
  6
CONTINUOUS
 62
     7
 10
291.9155823858
 20
155.6213869033
 30
0.0
 11
291.9155823858
 21
143.4213890014
 31
0.0
  0
LINE
  5
17D
  8
0
  6
CONTINUOUS
 62
     7
 10
308.3155798585
 20
150.5219294009
 30
0.0
 11
307.5155782373
 21
150.5219294009
 31
0.0
  0
LINE
  5
17E
  8
0
  6
CONTINUOUS
 62
     7
 10
308.3155798585
 20
150.5219294009
 30
0.0
 11
308.3155798585
 21
143.4213890014
 31
0.0
  0
LINE
  5
17F
  8
0
  6
CONTINUOUS
 62
     7
 10
307.5155782373
 20
196.0645033297
 30
0.0
 11
307.5155782373
 21
150.5219294009
 31
0.0
  0
LINE
  5
180
  8
0
  6
CONTINUOUS
 62
     7
 10
308.3155798585
 20
196.0645033297
 30
0.0
 11
308.3155798585
 21
150.5219294009
 31
0.0
  0
LINE
  5
181
  8
0
  6
CONTINUOUS
 62
     7
 10
308.3155798585
 20
197.5213838992
 30
0.0
 11
307.5155782373
 21
197.5213838992
 31
0.0
  0
LINE
  5
182
  8
0
  6
CONTINUOUS
 62
     7
 10
307.5155782373
 20
197.5213838992
 30
0.0
 11
307.5155782373
 21
196.0645033297
 31
0.0
  0
LINE
  5
183
  8
0
  6
CONTINUOUS
 62
     7
 10
308.3155798585
 20
197.5213838992
 30
0.0
 11
308.3155798585
 21
196.0645033297
 31
0.0
  0
ARC
  5
184
  8
0
  6
CONTINUOUS
 62
     7
 10
299.3770107665
 20
166.6632893723
 30
0.0
 40
6.021023429223161
 50
294.8695169121
 51
305.6877077626
  0
ARC
  5
185
  8
0
  6
CONTINUOUS
 62
     7
 10
270.1700053183
 20
229.8525578659
 30
0.0
 40
75.63375474873929
 50
288.1915691329
 51
294.8120425034
  0
ARC
  5
186
  8
0
  6
CONTINUOUS
 62
     7
 10
293.4180653471
 20
159.1257409411
 30
0.0
 40
1.18408725599996
 50
192.3257110377
 51
287.9250617609
  0
ARC
  5
187
  8
0
  6
CONTINUOUS
 62
     7
 10
276.811683156
 20
155.3844199554
 30
0.0
 40
15.83855411013739
 50
12.7241389637
 51
26.0323582304
  0
ARC
  5
188
  8
0
  6
CONTINUOUS
 62
     7
 10
292.6472422647
 20
163.1209455369
 30
0.0
 40
1.785826364995446
 50
127.9513894387
 51
206.0881010491
  0
ARC
  5
189
  8
0
  6
CONTINUOUS
 62
     7
 10
273.0580688779
 20
188.3071852229
 30
0.0
 40
30.12157859575293
 50
307.8702673591
 51
0.09891032
  0
LINE
  5
18A
  8
0
  6
CONTINUOUS
 62
     7
 10
303.1796025903
 20
195.5213858065
 30
0.0
 11
303.1796025903
 21
188.359184402
 31
0.0
  0
ARC
  5
18B
  8
0
  6
CONTINUOUS
 62
     7
 10
305.16736004
 20
195.5336273199
 30
0.0
 40
1.987795143731962
 50
90.3568994436
 51
180.3528489766
  0
LINE
  5
18C
  8
0
  6
CONTINUOUS
 62
     7
 10
307.5155782373
 20
197.5213838992
 30
0.0
 11
305.1549780042
 21
197.5213838992
 31
0.0
  0
LINE
  5
18D
  8
0
  6
CONTINUOUS
 62
     7
 10
304.7599005372
 20
160.7938124118
 30
0.0
 11
304.7599005372
 21
155.6213869033
 31
0.0
  0
ARC
  5
18E
  8
0
  6
CONTINUOUS
 62
     7
 10
303.574778917
 20
160.805995906
 30
0.0
 40
1.185184243991652
 50
359.4109986692
 51
125.3257226509
  0
ARC
  5
18F
  8
0
  6
CONTINUOUS
 62
     7
 10
303.4408835406
 20
160.8003768426
 30
0.0
 40
1.193889131423143
 50
359.6849656575
 51
86.5801751307
  0
LINE
  5
190
  8
0
  6
CONTINUOUS
 62
     7
 10
305.1549780042
 20
197.5213838992
 30
0.0
 11
305.0709771783
 21
197.5213838992
 31
0.0
  0
LINE
  5
191
  8
0
  6
CONTINUOUS
 62
     7
 10
304.6347546251
 20
160.7938124118
 30
0.0
 11
304.6347546251
 21
155.6213869033
 31
0.0
  0
LINE
  5
192
  8
0
  6
CONTINUOUS
 62
     7
 10
188.3155795605
 20
150.5219294009
 30
0.0
 11
187.5155794294
 21
150.5219294009
 31
0.0
  0
LINE
  5
193
  8
0
  6
CONTINUOUS
 62
     7
 10
171.9155805976
 20
155.6213869033
 30
0.0
 11
171.9155805976
 21
143.4213890014
 31
0.0
  0
LINE
  5
194
  8
0
  6
CONTINUOUS
 62
     7
 10
188.3155795605
 20
150.5219294009
 30
0.0
 11
188.3155795605
 21
143.4213890014
 31
0.0
  0
LINE
  5
195
  8
0
  6
CONTINUOUS
 62
     7
 10
187.5155794294
 20
196.0645033297
 30
0.0
 11
187.5155794294
 21
150.5219294009
 31
0.0
  0
LINE
  5
196
  8
0
  6
CONTINUOUS
 62
     7
 10
188.3155795605
 20
196.0645033297
 30
0.0
 11
188.3155795605
 21
150.5219294009
 31
0.0
  0
LINE
  5
197
  8
0
  6
CONTINUOUS
 62
     7
 10
188.3155795605
 20
197.5213838992
 30
0.0
 11
187.5155794294
 21
197.5213838992
 31
0.0
  0
LINE
  5
198
  8
0
  6
CONTINUOUS
 62
     7
 10
187.5155794294
 20
197.5213838992
 30
0.0
 11
187.5155794294
 21
196.0645033297
 31
0.0
  0
LINE
  5
199
  8
0
  6
CONTINUOUS
 62
     7
 10
188.3155795605
 20
197.5213838992
 30
0.0
 11
188.3155795605
 21
196.0645033297
 31
0.0
  0
ARC
  5
19A
  8
0
  6
CONTINUOUS
 62
     7
 10
179.3769921142
 20
166.663336546
 30
0.0
 40
6.021073320662154
 50
294.8694737219
 51
305.6875992645
  0
ARC
  5
19B
  8
0
  6
CONTINUOUS
 62
     7
 10
150.1698079375
 20
229.85303238
 30
0.0
 40
75.63426753917415
 50
288.1915998183
 51
294.8120261488
  0
ARC
  5
19C
  8
0
  6
CONTINUOUS
 62
     7
 10
173.4180657934
 20
159.1257396428
 30
0.0
 40
1.18408625024223
 50
192.3256573663
 51
287.9251154323
  0
ARC
  5
19D
  8
0
  6
CONTINUOUS
 62
     7
 10
156.811334869
 20
155.3842970335
 30
0.0
 40
15.83892208115135
 50
12.7242942513
 51
26.0322029428
  0
ARC
  5
19E
  8
0
  6
CONTINUOUS
 62
     7
 10
172.6472343311
 20
163.1209476405
 30
0.0
 40
1.785819094040122
 50
127.9512000712
 51
206.0882904166
  0
ARC
  5
19F
  8
0
  6
CONTINUOUS
 62
     7
 10
153.0580805918
 20
188.3071763205
 30
0.0
 40
30.12156510914822
 50
307.8702619552
 51
0.098927298
  0
LINE
  5
1A0
  8
0
  6
CONTINUOUS
 62
     7
 10
183.1796008022
 20
195.5213858065
 30
0.0
 11
183.1796008022
 21
188.359184402
 31
0.0
  0
ARC
  5
1A1
  8
0
  6
CONTINUOUS
 62
     7
 10
185.1673629878
 20
195.5336226422
 30
0.0
 40
1.987799850811669
 50
90.3570351093
 51
180.3527133108
  0
LINE
  5
1A2
  8
0
  6
CONTINUOUS
 62
     7
 10
187.5155794294
 20
197.5213838992
 30
0.0
 11
185.1549762161
 21
197.5213838992
 31
0.0
  0
LINE
  5
1A3
  8
0
  6
CONTINUOUS
 62
     7
 10
184.7599017293
 20
160.7938124118
 30
0.0
 11
184.7599017293
 21
155.6213869033
 31
0.0
  0
ARC
  5
1A4
  8
0
  6
CONTINUOUS
 62
     7
 10
183.5747789907
 20
160.8059937696
 30
0.0
 40
1.185185340397805
 50
359.4111025039
 51
125.3256188161
  0
ARC
  5
1A5
  8
0
  6
CONTINUOUS
 62
     7
 10
183.4408778456
 20
160.8003703905
 30
0.0
 40
1.193895982895888
 50
359.6852771112
 51
86.5798636769
  0
LINE
  5
1A6
  8
0
  6
CONTINUOUS
 62
     7
 10
185.1549762161
 20
197.5213838992
 30
0.0
 11
185.0709783704
 21
197.5213838992
 31
0.0
  0
LINE
  5
1A7
  8
0
  6
CONTINUOUS
 62
     7
 10
184.6347558172
 20
160.7938124118
 30
0.0
 11
184.6347558172
 21
155.6213869033
 31
0.0
  0
LINE
  5
1A8
  8
0
  6
CONTINUOUS
 62
     7
 10
68.6155843408
 20
155.9213890014
 30
0.0
 11
68.6155843408
 21
146.764154571
 31
0.0
  0
LINE
  5
1A9
  8
0
  6
CONTINUOUS
 62
     7
 10
72.0155763299
 20
155.9213890014
 30
0.0
 11
72.0155763299
 21
146.764154571
 31
0.0
  0
LINE
  5
1AA
  8
0
  6
CONTINUOUS
 62
     7
 10
51.2155818612
 20
155.5213881907
 30
0.0
 11
51.2155818612
 21
143.5213877139
 31
0.0
  0
LINE
  5
1AB
  8
0
  6
CONTINUOUS
 62
     7
 10
62.2155832918
 20
137.9213882861
 30
0.0
 11
62.2155832918
 21
138.9213873324
 31
0.0
  0
LINE
  5
1AC
  8
0
  6
CONTINUOUS
 62
     7
 10
62.2155832918
 20
138.9213873324
 30
0.0
 11
72.0155763299
 21
138.9213873324
 31
0.0
  0
LINE
  5
1AD
  8
0
  6
CONTINUOUS
 62
     7
 10
72.0155763299
 20
138.9213873324
 30
0.0
 11
72.0155763299
 21
137.9213882861
 31
0.0
  0
ARC
  5
1AE
  8
0
  6
CONTINUOUS
 62
     7
 10
70.0155800493
 20
129.9213882861
 30
0.0
 40
2.0
 50
270.0
 51
0.0
  0
LINE
  5
1AF
  8
0
  6
CONTINUOUS
 62
     7
 10
62.2155832918
 20
129.921389955
 30
0.0
 11
62.2155832918
 21
137.9213882861
 31
0.0
  0
ARC
  5
1B0
  8
0
  6
CONTINUOUS
 62
     7
 10
64.2155800493
 20
129.9213882861
 30
0.0
 40
2.0
 50
180.0
 51
270.0
  0
LINE
  5
1B1
  8
0
  6
CONTINUOUS
 62
     7
 10
70.0155782373
 20
127.9213859019
 30
0.0
 11
64.2155813844
 21
127.9213859019
 31
0.0
  0
CIRCLE
  5
1B2
  8
0
  6
CONTINUOUS
 62
     7
 10
68.1155800493
 20
132.3213882861
 30
0.0
 40
1.099999999999994
  0
LINE
  5
1B3
  8
0
  6
CONTINUOUS
 62
     7
 10
72.0155763299
 20
129.921389955
 30
0.0
 11
72.0155763299
 21
137.9213882861
 31
0.0
  0
LINE
  5
1B4
  8
0
  6
CONTINUOUS
 62
     7
 10
68.6155843408
 20
142.4559785304
 30
0.0
 11
68.6155843408
 21
146.764154571
 31
0.0
  0
LINE
  5
1B5
  8
0
  6
CONTINUOUS
 62
     7
 10
72.0155763299
 20
146.764154571
 30
0.0
 11
72.0155763299
 21
142.4559785304
 31
0.0
  0
LINE
  5
1B6
  8
0
  6
CONTINUOUS
 62
     7
 10
68.6155843408
 20
142.4559785304
 30
0.0
 11
68.6155843408
 21
138.9213873324
 31
0.0
  0
LINE
  5
1B7
  8
0
  6
CONTINUOUS
 62
     7
 10
72.0155763299
 20
142.4559785304
 30
0.0
 11
72.0155763299
 21
138.9213873324
 31
0.0
  0
LINE
  5
1B8
  8
0
  6
CONTINUOUS
 62
     7
 10
188.6155801685
 20
155.9213890014
 30
0.0
 11
188.6155801685
 21
146.764154571
 31
0.0
  0
LINE
  5
1B9
  8
0
  6
CONTINUOUS
 62
     7
 10
192.0155796082
 20
155.9213890014
 30
0.0
 11
192.0155796082
 21
146.764154571
 31
0.0
  0
LINE
  5
1BA
  8
0
  6
CONTINUOUS
 62
     7
 10
171.2155806691
 20
155.5213881907
 30
0.0
 11
171.2155806691
 21
143.5213877139
 31
0.0
  0
CIRCLE
  5
1BB
  8
0
  6
CONTINUOUS
 62
     7
 10
188.1155800493
 20
132.3213882861
 30
0.0
 40
1.100000000000023
  0
ARC
  5
1BC
  8
0
  6
CONTINUOUS
 62
     7
 10
190.0155800493
 20
129.9213882861
 30
0.0
 40
2.0
 50
270.0
 51
0.0
  0
LINE
  5
1BD
  8
0
  6
CONTINUOUS
 62
     7
 10
190.0155800254
 20
127.9213859019
 30
0.0
 11
184.2155801923
 21
127.9213859019
 31
0.0
  0
ARC
  5
1BE
  8
0
  6
CONTINUOUS
 62
     7
 10
184.2155800493
 20
129.9213882861
 30
0.0
 40
2.0
 50
180.0
 51
270.0
  0
LINE
  5
1BF
  8
0
  6
CONTINUOUS
 62
     7
 10
182.2155791194
 20
129.921389955
 30
0.0
 11
182.2155791194
 21
137.9213882861
 31
0.0
  0
LINE
  5
1C0
  8
0
  6
CONTINUOUS
 62
     7
 10
192.0155796082
 20
129.921389955
 30
0.0
 11
192.0155796082
 21
137.9213882861
 31
0.0
  0
LINE
  5
1C1
  8
0
  6
CONTINUOUS
 62
     7
 10
182.2155791194
 20
137.9213882861
 30
0.0
 11
182.2155791194
 21
138.9213873324
 31
0.0
  0
LINE
  5
1C2
  8
0
  6
CONTINUOUS
 62
     7
 10
182.2155791194
 20
138.9213873324
 30
0.0
 11
192.0155796082
 21
138.9213873324
 31
0.0
  0
LINE
  5
1C3
  8
0
  6
CONTINUOUS
 62
     7
 10
192.0155796082
 20
138.9213873324
 30
0.0
 11
192.0155796082
 21
137.9213882861
 31
0.0
  0
LINE
  5
1C4
  8
0
  6
CONTINUOUS
 62
     7
 10
188.6155801685
 20
142.4559785304
 30
0.0
 11
188.6155801685
 21
146.764154571
 31
0.0
  0
LINE
  5
1C5
  8
0
  6
CONTINUOUS
 62
     7
 10
192.0155796082
 20
146.764154571
 30
0.0
 11
192.0155796082
 21
142.4559785304
 31
0.0
  0
LINE
  5
1C6
  8
0
  6
CONTINUOUS
 62
     7
 10
188.6155801685
 20
142.4559785304
 30
0.0
 11
188.6155801685
 21
138.9213873324
 31
0.0
  0
LINE
  5
1C7
  8
0
  6
CONTINUOUS
 62
     7
 10
192.0155796082
 20
142.4559785304
 30
0.0
 11
192.0155796082
 21
138.9213873324
 31
0.0
  0
LINE
  5
1C8
  8
0
  6
CONTINUOUS
 62
     7
 10
432.0155787141
 20
155.9213890014
 30
0.0
 11
432.0155787141
 21
146.764154571
 31
0.0
  0
LINE
  5
1C9
  8
0
  6
CONTINUOUS
 62
     7
 10
428.615586725
 20
155.9213890014
 30
0.0
 11
428.615586725
 21
146.764154571
 31
0.0
  0
LINE
  5
1CA
  8
0
  6
CONTINUOUS
 62
     7
 10
411.2155842454
 20
155.5213881907
 30
0.0
 11
411.2155842454
 21
153.5136474547
 31
0.0
  0
LINE
  5
1CB
  8
0
  6
CONTINUOUS
 62
     7
 10
411.2155842454
 20
148.8047255454
 30
0.0
 11
411.2155842454
 21
143.5213877139
 31
0.0
  0
LINE
  5
1CC
  8
0
  6
CONTINUOUS
 62
     7
 10
430.0155806215
 20
127.9213859019
 30
0.0
 11
424.2155718477
 21
127.9213859019
 31
0.0
  0
ARC
  5
1CD
  8
0
  6
CONTINUOUS
 62
     7
 10
430.0155800493
 20
129.9213882861
 30
0.0
 40
2.0
 50
270.0
 51
0.0
  0
LINE
  5
1CE
  8
0
  6
CONTINUOUS
 62
     7
 10
422.215573755
 20
129.921389955
 30
0.0
 11
422.215573755
 21
137.9213882861
 31
0.0
  0
CIRCLE
  5
1CF
  8
0
  6
CONTINUOUS
 62
     7
 10
428.1155800493
 20
132.3213882861
 30
0.0
 40
1.100000000000023
  0
ARC
  5
1D0
  8
0
  6
CONTINUOUS
 62
     7
 10
424.2155800493
 20
129.9213882861
 30
0.0
 40
2.0
 50
180.0
 51
270.0
  0
LINE
  5
1D1
  8
0
  6
CONTINUOUS
 62
     7
 10
432.0155787141
 20
129.921389955
 30
0.0
 11
432.0155787141
 21
137.9213882861
 31
0.0
  0
LINE
  5
1D2
  8
0
  6
CONTINUOUS
 62
     7
 10
422.215573755
 20
138.9213873324
 30
0.0
 11
432.0155787141
 21
138.9213873324
 31
0.0
  0
LINE
  5
1D3
  8
0
  6
CONTINUOUS
 62
     7
 10
422.215573755
 20
137.9213882861
 30
0.0
 11
422.215573755
 21
138.9213873324
 31
0.0
  0
LINE
  5
1D4
  8
0
  6
CONTINUOUS
 62
     7
 10
432.0155787141
 20
138.9213873324
 30
0.0
 11
432.0155787141
 21
137.9213882861
 31
0.0
  0
LINE
  5
1D5
  8
0
  6
CONTINUOUS
 62
     7
 10
432.0155787141
 20
146.764154571
 30
0.0
 11
432.0155787141
 21
142.4559785304
 31
0.0
  0
LINE
  5
1D6
  8
0
  6
CONTINUOUS
 62
     7
 10
428.615586725
 20
142.4559785304
 30
0.0
 11
428.615586725
 21
146.764154571
 31
0.0
  0
LINE
  5
1D7
  8
0
  6
CONTINUOUS
 62
     7
 10
432.0155787141
 20
142.4559785304
 30
0.0
 11
432.0155787141
 21
138.9213873324
 31
0.0
  0
LINE
  5
1D8
  8
0
  6
CONTINUOUS
 62
     7
 10
428.615586725
 20
142.4559785304
 30
0.0
 11
428.615586725
 21
138.9213873324
 31
0.0
  0
LINE
  5
1D9
  8
0
  6
CONTINUOUS
 62
     7
 10
308.6155819566
 20
155.9213890014
 30
0.0
 11
308.6155819566
 21
146.764154571
 31
0.0
  0
LINE
  5
1DA
  8
0
  6
CONTINUOUS
 62
     7
 10
312.0155858667
 20
155.9213890014
 30
0.0
 11
312.0155858667
 21
146.764154571
 31
0.0
  0
LINE
  5
1DB
  8
0
  6
CONTINUOUS
 62
     7
 10
291.2155794771
 20
155.5213881907
 30
0.0
 11
291.2155794771
 21
143.5213877139
 31
0.0
  0
CIRCLE
  5
1DC
  8
0
  6
CONTINUOUS
 62
     7
 10
308.1155800493
 20
132.3213882861
 30
0.0
 40
1.099999999999966
  0
ARC
  5
1DD
  8
0
  6
CONTINUOUS
 62
     7
 10
310.0155800493
 20
129.9213882861
 30
0.0
 40
2.0
 50
270.0
 51
0.0
  0
LINE
  5
1DE
  8
0
  6
CONTINUOUS
 62
     7
 10
310.0155818136
 20
127.9213859019
 30
0.0
 11
304.2155790002
 21
127.9213859019
 31
0.0
  0
ARC
  5
1DF
  8
0
  6
CONTINUOUS
 62
     7
 10
304.2155800493
 20
129.9213882861
 30
0.0
 40
2.0
 50
180.0
 51
270.0
  0
LINE
  5
1E0
  8
0
  6
CONTINUOUS
 62
     7
 10
302.2155809076
 20
129.921389955
 30
0.0
 11
302.2155809076
 21
137.9213882861
 31
0.0
  0
LINE
  5
1E1
  8
0
  6
CONTINUOUS
 62
     7
 10
312.0155858667
 20
129.921389955
 30
0.0
 11
312.0155858667
 21
137.9213882861
 31
0.0
  0
LINE
  5
1E2
  8
0
  6
CONTINUOUS
 62
     7
 10
302.2155809076
 20
137.9213882861
 30
0.0
 11
302.2155809076
 21
138.9213873324
 31
0.0
  0
LINE
  5
1E3
  8
0
  6
CONTINUOUS
 62
     7
 10
302.2155809076
 20
138.9213873324
 30
0.0
 11
312.0155858667
 21
138.9213873324
 31
0.0
  0
LINE
  5
1E4
  8
0
  6
CONTINUOUS
 62
     7
 10
312.0155858667
 20
138.9213873324
 30
0.0
 11
312.0155858667
 21
137.9213882861
 31
0.0
  0
LINE
  5
1E5
  8
0
  6
CONTINUOUS
 62
     7
 10
308.6155819566
 20
142.4559785304
 30
0.0
 11
308.6155819566
 21
146.764154571
 31
0.0
  0
LINE
  5
1E6
  8
0
  6
CONTINUOUS
 62
     7
 10
312.0155858667
 20
146.764154571
 30
0.0
 11
312.0155858667
 21
142.4559785304
 31
0.0
  0
LINE
  5
1E7
  8
0
  6
CONTINUOUS
 62
     7
 10
308.6155819566
 20
142.4559785304
 30
0.0
 11
308.6155819566
 21
138.9213873324
 31
0.0
  0
LINE
  5
1E8
  8
0
  6
CONTINUOUS
 62
     7
 10
312.0155858667
 20
142.4559785304
 30
0.0
 11
312.0155858667
 21
138.9213873324
 31
0.0
  0
LINE
  5
1E9
  8
0
  6
CONTINUOUS
 62
     7
 10
232.6155799301
 20
155.9213890014
 30
0.0
 11
232.6155799301
 21
146.764154571
 31
0.0
  0
LINE
  5
1EA
  8
0
  6
CONTINUOUS
 62
     7
 10
229.2155804903
 20
155.9213890014
 30
0.0
 11
229.2155804903
 21
146.764154571
 31
0.0
  0
LINE
  5
1EB
  8
0
  6
CONTINUOUS
 62
     7
 10
250.0155794294
 20
155.5213881907
 30
0.0
 11
250.0155794294
 21
143.5213877139
 31
0.0
  0
LINE
  5
1EC
  8
0
  6
CONTINUOUS
 62
     7
 10
229.2155804903
 20
138.9213873324
 30
0.0
 11
239.0155809791
 21
138.9213873324
 31
0.0
  0
LINE
  5
1ED
  8
0
  6
CONTINUOUS
 62
     7
 10
239.0155809791
 20
138.9213873324
 30
0.0
 11
239.0155809791
 21
137.9213882861
 31
0.0
  0
LINE
  5
1EE
  8
0
  6
CONTINUOUS
 62
     7
 10
229.2155804903
 20
137.9213882861
 30
0.0
 11
229.2155804903
 21
138.9213873324
 31
0.0
  0
ARC
  5
1EF
  8
0
  6
CONTINUOUS
 62
     7
 10
237.0155800493
 20
129.9213882861
 30
0.0
 40
2.0
 50
270.0
 51
0.0
  0
LINE
  5
1F0
  8
0
  6
CONTINUOUS
 62
     7
 10
237.0155799062
 20
127.9213859019
 30
0.0
 11
231.2155800731
 21
127.9213859019
 31
0.0
  0
LINE
  5
1F1
  8
0
  6
CONTINUOUS
 62
     7
 10
239.0155809791
 20
137.9213882861
 30
0.0
 11
239.0155809791
 21
129.921389955
 31
0.0
  0
ARC
  5
1F2
  8
0
  6
CONTINUOUS
 62
     7
 10
231.2155800493
 20
129.9213882861
 30
0.0
 40
2.0
 50
180.0
 51
270.0
  0
CIRCLE
  5
1F3
  8
0
  6
CONTINUOUS
 62
     7
 10
233.1155800493
 20
132.3213882861
 30
0.0
 40
1.099999999999966
  0
LINE
  5
1F4
  8
0
  6
CONTINUOUS
 62
     7
 10
229.2155804903
 20
129.921389955
 30
0.0
 11
229.2155804903
 21
137.9213882861
 31
0.0
  0
LINE
  5
1F5
  8
0
  6
CONTINUOUS
 62
     7
 10
232.6155799301
 20
146.764154571
 30
0.0
 11
232.6155799301
 21
142.4559785304
 31
0.0
  0
LINE
  5
1F6
  8
0
  6
CONTINUOUS
 62
     7
 10
229.2155804903
 20
142.4559785304
 30
0.0
 11
229.2155804903
 21
146.764154571
 31
0.0
  0
LINE
  5
1F7
  8
0
  6
CONTINUOUS
 62
     7
 10
232.6155799301
 20
142.4559785304
 30
0.0
 11
232.6155799301
 21
138.9213873324
 31
0.0
  0
LINE
  5
1F8
  8
0
  6
CONTINUOUS
 62
     7
 10
229.2155804903
 20
142.4559785304
 30
0.0
 11
229.2155804903
 21
138.9213873324
 31
0.0
  0
LINE
  5
1F9
  8
0
  6
CONTINUOUS
 62
     7
 10
-10.7844186156
 20
155.9213890014
 30
0.0
 11
-10.7844186156
 21
146.764154571
 31
0.0
  0
LINE
  5
1FA
  8
0
  6
CONTINUOUS
 62
     7
 10
-7.3844266265
 20
155.9213890014
 30
0.0
 11
-7.3844266265
 21
146.764154571
 31
0.0
  0
LINE
  5
1FB
  8
0
  6
CONTINUOUS
 62
     7
 10
10.0155758531
 20
155.5213881907
 30
0.0
 11
10.0155758531
 21
143.5213877139
 31
0.0
  0
LINE
  5
1FC
  8
0
  6
CONTINUOUS
 62
     7
 10
-10.7844186156
 20
138.9213873324
 30
0.0
 11
-0.9844136565
 21
138.9213873324
 31
0.0
  0
LINE
  5
1FD
  8
0
  6
CONTINUOUS
 62
     7
 10
-0.9844136565
 20
138.9213873324
 30
0.0
 11
-0.9844136565
 21
137.9213882861
 31
0.0
  0
LINE
  5
1FE
  8
0
  6
CONTINUOUS
 62
     7
 10
-10.7844186156
 20
137.9213882861
 30
0.0
 11
-10.7844186156
 21
138.9213873324
 31
0.0
  0
LINE
  5
1FF
  8
0
  6
CONTINUOUS
 62
     7
 10
-2.9844117491
 20
127.9213859019
 30
0.0
 11
-8.7844205229
 21
127.9213859019
 31
0.0
  0
CIRCLE
  5
200
  8
0
  6
CONTINUOUS
 62
     7
 10
-6.8844199507
 20
132.3213882861
 30
0.0
 40
1.09999999999999
  0
ARC
  5
201
  8
0
  6
CONTINUOUS
 62
     7
 10
-8.7844199507
 20
129.9213882861
 30
0.0
 40
2.000000000000002
 50
180.0
 51
270.0
  0
LINE
  5
202
  8
0
  6
CONTINUOUS
 62
     7
 10
-0.9844136565
 20
137.9213882861
 30
0.0
 11
-0.9844136565
 21
129.921389955
 31
0.0
  0
ARC
  5
203
  8
0
  6
CONTINUOUS
 62
     7
 10
-2.9844199507
 20
129.9213882861
 30
0.0
 40
2.000000000000002
 50
270.0
 51
0.0
  0
LINE
  5
204
  8
0
  6
CONTINUOUS
 62
     7
 10
-10.7844186156
 20
129.921389955
 30
0.0
 11
-10.7844186156
 21
137.9213882861
 31
0.0
  0
LINE
  5
205
  8
0
  6
CONTINUOUS
 62
     7
 10
-10.7844186156
 20
142.4559785304
 30
0.0
 11
-10.7844186156
 21
146.764154571
 31
0.0
  0
LINE
  5
206
  8
0
  6
CONTINUOUS
 62
     7
 10
-7.3844266265
 20
146.764154571
 30
0.0
 11
-7.3844266265
 21
142.4559785304
 31
0.0
  0
LINE
  5
207
  8
0
  6
CONTINUOUS
 62
     7
 10
-10.7844186156
 20
142.4559785304
 30
0.0
 11
-10.7844186156
 21
138.9213873324
 31
0.0
  0
LINE
  5
208
  8
0
  6
CONTINUOUS
 62
     7
 10
-7.3844266265
 20
142.4559785304
 30
0.0
 11
-7.3844266265
 21
138.9213873324
 31
0.0
  0
LINE
  5
209
  8
0
  6
CONTINUOUS
 62
     7
 10
352.6155757577
 20
155.9213890014
 30
0.0
 11
352.6155757577
 21
146.764154571
 31
0.0
  0
LINE
  5
20A
  8
0
  6
CONTINUOUS
 62
     7
 10
349.2155837686
 20
155.9213890014
 30
0.0
 11
349.2155837686
 21
146.764154571
 31
0.0
  0
LINE
  5
20B
  8
0
  6
CONTINUOUS
 62
     7
 10
370.0155782373
 20
155.5213881907
 30
0.0
 11
370.0155782373
 21
153.5135282454
 31
0.0
  0
LINE
  5
20C
  8
0
  6
CONTINUOUS
 62
     7
 10
370.0155782373
 20
148.787756103
 30
0.0
 11
370.0155782373
 21
143.5213877139
 31
0.0
  0
CIRCLE
  5
20D
  8
0
  6
CONTINUOUS
 62
     7
 10
353.1155800493
 20
132.3213882861
 30
0.0
 40
1.099999999999966
  0
ARC
  5
20E
  8
0
  6
CONTINUOUS
 62
     7
 10
357.0155800493
 20
129.9213882861
 30
0.0
 40
2.0
 50
270.0
 51
0.0
  0
ARC
  5
20F
  8
0
  6
CONTINUOUS
 62
     7
 10
351.2155800493
 20
129.9213882861
 30
0.0
 40
2.0
 50
180.0
 51
270.0
  0
LINE
  5
210
  8
0
  6
CONTINUOUS
 62
     7
 10
359.0155768068
 20
137.9213882861
 30
0.0
 11
359.0155768068
 21
129.921389955
 31
0.0
  0
LINE
  5
211
  8
0
  6
CONTINUOUS
 62
     7
 10
357.0155787141
 20
127.9213859019
 30
0.0
 11
351.2155818612
 21
127.9213859019
 31
0.0
  0
LINE
  5
212
  8
0
  6
CONTINUOUS
 62
     7
 10
349.2155837686
 20
129.921389955
 30
0.0
 11
349.2155837686
 21
137.9213882861
 31
0.0
  0
LINE
  5
213
  8
0
  6
CONTINUOUS
 62
     7
 10
349.2155837686
 20
138.9213873324
 30
0.0
 11
359.0155768068
 21
138.9213873324
 31
0.0
  0
LINE
  5
214
  8
0
  6
CONTINUOUS
 62
     7
 10
359.0155768068
 20
138.9213873324
 30
0.0
 11
359.0155768068
 21
137.9213882861
 31
0.0
  0
LINE
  5
215
  8
0
  6
CONTINUOUS
 62
     7
 10
349.2155837686
 20
137.9213882861
 30
0.0
 11
349.2155837686
 21
138.9213873324
 31
0.0
  0
LINE
  5
216
  8
0
  6
CONTINUOUS
 62
     7
 10
352.6155757577
 20
146.764154571
 30
0.0
 11
352.6155757577
 21
142.4559785304
 31
0.0
  0
LINE
  5
217
  8
0
  6
CONTINUOUS
 62
     7
 10
349.2155837686
 20
142.4559785304
 30
0.0
 11
349.2155837686
 21
146.764154571
 31
0.0
  0
LINE
  5
218
  8
0
  6
CONTINUOUS
 62
     7
 10
352.6155757577
 20
142.4559785304
 30
0.0
 11
352.6155757577
 21
138.9213873324
 31
0.0
  0
LINE
  5
219
  8
0
  6
CONTINUOUS
 62
     7
 10
349.2155837686
 20
142.4559785304
 30
0.0
 11
349.2155837686
 21
138.9213873324
 31
0.0
  0
LINE
  5
21A
  8
0
  6
CONTINUOUS
 62
     7
 10
112.6155781419
 20
155.9213890014
 30
0.0
 11
112.6155781419
 21
146.764154571
 31
0.0
  0
LINE
  5
21B
  8
0
  6
CONTINUOUS
 62
     7
 10
109.2155742318
 20
155.9213890014
 30
0.0
 11
109.2155742318
 21
146.764154571
 31
0.0
  0
LINE
  5
21C
  8
0
  6
CONTINUOUS
 62
     7
 10
130.0155806215
 20
155.5213881907
 30
0.0
 11
130.0155806215
 21
143.5213877139
 31
0.0
  0
LINE
  5
21D
  8
0
  6
CONTINUOUS
 62
     7
 10
109.2155742318
 20
138.9213873324
 30
0.0
 11
119.015579191
 21
138.9213873324
 31
0.0
  0
LINE
  5
21E
  8
0
  6
CONTINUOUS
 62
     7
 10
119.015579191
 20
138.9213873324
 30
0.0
 11
119.015579191
 21
137.9213882861
 31
0.0
  0
LINE
  5
21F
  8
0
  6
CONTINUOUS
 62
     7
 10
109.2155742318
 20
137.9213882861
 30
0.0
 11
109.2155742318
 21
138.9213873324
 31
0.0
  0
LINE
  5
220
  8
0
  6
CONTINUOUS
 62
     7
 10
117.0155810983
 20
127.9213859019
 30
0.0
 11
111.215578285
 21
127.9213859019
 31
0.0
  0
ARC
  5
221
  8
0
  6
CONTINUOUS
 62
     7
 10
111.2155800493
 20
129.9213882861
 30
0.0
 40
2.0
 50
180.0
 51
270.0
  0
ARC
  5
222
  8
0
  6
CONTINUOUS
 62
     7
 10
117.0155800493
 20
129.9213882861
 30
0.0
 40
2.0
 50
270.0
 51
0.0
  0
CIRCLE
  5
223
  8
0
  6
CONTINUOUS
 62
     7
 10
113.1155800493
 20
132.3213882861
 30
0.0
 40
1.099999999999994
  0
LINE
  5
224
  8
0
  6
CONTINUOUS
 62
     7
 10
119.015579191
 20
137.9213882861
 30
0.0
 11
119.015579191
 21
129.921389955
 31
0.0
  0
LINE
  5
225
  8
0
  6
CONTINUOUS
 62
     7
 10
109.2155742318
 20
129.921389955
 30
0.0
 11
109.2155742318
 21
137.9213882861
 31
0.0
  0
LINE
  5
226
  8
0
  6
CONTINUOUS
 62
     7
 10
109.2155742318
 20
142.4559785304
 30
0.0
 11
109.2155742318
 21
146.764154571
 31
0.0
  0
LINE
  5
227
  8
0
  6
CONTINUOUS
 62
     7
 10
112.6155781419
 20
146.764154571
 30
0.0
 11
112.6155781419
 21
142.4559785304
 31
0.0
  0
LINE
  5
228
  8
0
  6
CONTINUOUS
 62
     7
 10
109.2155742318
 20
142.4559785304
 30
0.0
 11
109.2155742318
 21
138.9213873324
 31
0.0
  0
LINE
  5
229
  8
0
  6
CONTINUOUS
 62
     7
 10
112.6155781419
 20
142.4559785304
 30
0.0
 11
112.6155781419
 21
138.9213873324
 31
0.0
  0
POLYLINE
  5
22A
  8
0
  6
CONTINUOUS
 62
     7
 66
     1
 10
0.0
 20
0.0
 30
0.0
  0
VERTEX
  5
50B
  8
0
  6
CONTINUOUS
 62
     7
 10
562.195255625
 20
150.365860599
 30
0.0
  0
VERTEX
  5
50C
  8
0
  6
CONTINUOUS
 62
     7
 10
562.6550041315
 20
150.4050327716
 30
0.0
  0
VERTEX
  5
50D
  8
0
  6
CONTINUOUS
 62
     7
 10
565.3432421562
 20
150.6080819545
 30
0.0
  0
VERTEX
  5
50E
  8
0
  6
CONTINUOUS
 62
     7
 10
567.7862994549
 20
150.7663442073
 30
0.0
  0
VERTEX
  5
50F
  8
0
  6
CONTINUOUS
 62
     7
 10
569.9798874733
 20
150.8922232566
 30
0.0
  0
VERTEX
  5
510
  8
0
  6
CONTINUOUS
 62
     7
 10
571.6509275315
 20
150.9806229052
 30
0.0
  0
VERTEX
  5
511
  8
0
  6
CONTINUOUS
 62
     7
 10
573.1389813301
 20
151.0556174693
 30
0.0
  0
VERTEX
  5
512
  8
0
  6
CONTINUOUS
 62
     7
 10
574.4616620419
 20
151.1205626902
 30
0.0
  0
VERTEX
  5
513
  8
0
  6
CONTINUOUS
 62
     7
 10
575.7413141606
 20
151.1834634719
 30
0.0
  0
VERTEX
  5
514
  8
0
  6
CONTINUOUS
 62
     7
 10
577.0033769486
 20
151.2474192557
 30
0.0
  0
VERTEX
  5
515
  8
0
  6
CONTINUOUS
 62
     7
 10
578.2497398732
 20
151.3142122207
 30
0.0
  0
VERTEX
  5
516
  8
0
  6
CONTINUOUS
 62
     7
 10
579.4821255085
 20
151.3854516921
 30
0.0
  0
VERTEX
  5
517
  8
0
  6
CONTINUOUS
 62
     7
 10
580.7021074173
 20
151.4626218257
 30
0.0
  0
VERTEX
  5
518
  8
0
  6
CONTINUOUS
 62
     7
 10
582.311891782
 20
151.5770150599
 30
0.0
  0
VERTEX
  5
519
  8
0
  6
CONTINUOUS
 62
     7
 10
583.9213483212
 20
151.708139318
 30
0.0
  0
VERTEX
  5
51A
  8
0
  6
CONTINUOUS
 62
     7
 10
585.5500869629
 20
151.8123461184
 30
0.0
  0
VERTEX
  5
51B
  8
0
  6
CONTINUOUS
 62
     7
 10
586.0356681225
 20
151.8167449412
 30
0.0
  0
VERTEX
  5
51C
  8
0
  6
CONTINUOUS
 62
     7
 10
586.526804435
 20
151.8001927314
 30
0.0
  0
VERTEX
  5
51D
  8
0
  6
CONTINUOUS
 62
     7
 10
587.118440139
 20
151.7440570769
 30
0.0
  0
VERTEX
  5
51E
  8
0
  6
CONTINUOUS
 62
     7
 10
587.8255717633
 20
151.6094995913
 30
0.0
  0
VERTEX
  5
51F
  8
0
  6
CONTINUOUS
 62
     7
 10
588.63462733
 20
151.3512982306
 30
0.0
  0
VERTEX
  5
520
  8
0
  6
CONTINUOUS
 62
     7
 10
589.5355574963
 20
150.9355558333
 30
0.0
  0
VERTEX
  5
521
  8
0
  6
CONTINUOUS
 62
     7
 10
590.5211143372
 20
150.3377927718
 30
0.0
  0
VERTEX
  5
522
  8
0
  6
CONTINUOUS
 62
     7
 10
591.5883831856
 20
149.5481623587
 30
0.0
  0
VERTEX
  5
523
  8
0
  6
CONTINUOUS
 62
     7
 10
592.7407913086
 20
148.5782338557
 30
0.0
  0
VERTEX
  5
524
  8
0
  6
CONTINUOUS
 62
     7
 10
593.516951072
 20
147.8885306296
 30
0.0
  0
SEQEND
  5
86D
  8
0
  6
CONTINUOUS
 62
     7
  0
LINE
  5
22B
  8
0
  6
CONTINUOUS
 62
     7
 10
593.5338191864
 20
147.8935135779
 30
0.0
 11
593.5338191864
 21
149.4888974604
 31
0.0
  0
POLYLINE
  5
22C
  8
0
  6
CONTINUOUS
 62
     7
 66
     1
 10
0.0
 20
0.0
 30
0.0
  0
VERTEX
  5
525
  8
0
  6
CONTINUOUS
 62
     7
 10
513.6623787404
 20
197.2097946582
 30
0.0
  0
VERTEX
  5
526
  8
0
  6
CONTINUOUS
 62
     7
 10
513.6232107123
 20
197.6695372043
 30
0.0
  0
VERTEX
  5
527
  8
0
  6
CONTINUOUS
 62
     7
 10
513.4201583629
 20
200.3577782092
 30
0.0
  0
VERTEX
  5
528
  8
0
  6
CONTINUOUS
 62
     7
 10
513.2618956444
 20
202.8008295474
 30
0.0
  0
VERTEX
  5
529
  8
0
  6
CONTINUOUS
 62
     7
 10
513.1360209723
 20
204.9944235263
 30
0.0
  0
VERTEX
  5
52A
  8
0
  6
CONTINUOUS
 62
     7
 10
513.0476214168
 20
206.6654635844
 30
0.0
  0
VERTEX
  5
52B
  8
0
  6
CONTINUOUS
 62
     7
 10
512.9726213579
 20
208.1535173831
 30
0.0
  0
VERTEX
  5
52C
  8
0
  6
CONTINUOUS
 62
     7
 10
512.9076803279
 20
209.4762040553
 30
0.0
  0
VERTEX
  5
52D
  8
0
  6
CONTINUOUS
 62
     7
 10
512.8447774974
 20
210.755844253
 30
0.0
  0
VERTEX
  5
52E
  8
0
  6
CONTINUOUS
 62
     7
 10
512.7808204097
 20
212.0179130015
 30
0.0
  0
VERTEX
  5
52F
  8
0
  6
CONTINUOUS
 62
     7
 10
512.7140317288
 20
213.2642699656
 30
0.0
  0
VERTEX
  5
530
  8
0
  6
CONTINUOUS
 62
     7
 10
512.6427890909
 20
214.496655601
 30
0.0
  0
VERTEX
  5
531
  8
0
  6
CONTINUOUS
 62
     7
 10
512.5656189573
 20
215.7166434703
 30
0.0
  0
VERTEX
  5
532
  8
0
  6
CONTINUOUS
 62
     7
 10
512.4512259093
 20
217.3264218745
 30
0.0
  0
VERTEX
  5
533
  8
0
  6
CONTINUOUS
 62
     7
 10
512.3201046315
 20
218.9358784137
 30
0.0
  0
VERTEX
  5
534
  8
0
  6
CONTINUOUS
 62
     7
 10
512.2158924294
 20
220.5646230159
 30
0.0
  0
VERTEX
  5
535
  8
0
  6
CONTINUOUS
 62
     7
 10
512.2114936066
 20
221.050198215
 30
0.0
  0
VERTEX
  5
536
  8
0
  6
CONTINUOUS
 62
     7
 10
512.2280463753
 20
221.5413404879
 30
0.0
  0
VERTEX
  5
537
  8
0
  6
CONTINUOUS
 62
     7
 10
512.2841833336
 20
222.132976192
 30
0.0
  0
VERTEX
  5
538
  8
0
  6
CONTINUOUS
 62
     7
 10
512.4187439856
 20
222.8401018557
 30
0.0
  0
VERTEX
  5
539
  8
0
  6
CONTINUOUS
 62
     7
 10
512.6769449738
 20
223.649163383
 30
0.0
  0
VERTEX
  5
53A
  8
0
  6
CONTINUOUS
 62
     7
 10
513.0926876505
 20
224.5500875888
 30
0.0
  0
VERTEX
  5
53B
  8
0
  6
CONTINUOUS
 62
     7
 10
513.6904479646
 20
225.5356503901
 30
0.0
  0
VERTEX
  5
53C
  8
0
  6
CONTINUOUS
 62
     7
 10
514.4800810203
 20
226.6029192386
 30
0.0
  0
VERTEX
  5
53D
  8
0
  6
CONTINUOUS
 62
     7
 10
515.4500061822
 20
227.7553273616
 30
0.0
  0
VERTEX
  5
53E
  8
0
  6
CONTINUOUS
 62
     7
 10
516.1397103396
 20
228.5314871249
 30
0.0
  0
SEQEND
  5
86C
  8
0
  6
CONTINUOUS
 62
     7
  0
LINE
  5
22D
  8
0
  6
CONTINUOUS
 62
     7
 10
516.1347277639
 20
228.5483552394
 30
0.0
 11
514.5393450106
 21
228.5483552394
 31
0.0
  0
ARC
  5
22E
  8
0
  6
CONTINUOUS
 62
     7
 10
518.4068531868
 20
137.1213882861
 30
0.0
 40
1.0
 50
0.0
 51
90.0
  0
LINE
  5
22F
  8
0
  6
CONTINUOUS
 62
     7
 10
518.4068530974
 20
128.1213892875
 30
0.0
 11
510.4068532762
 21
128.1213892875
 31
0.0
  0
ARC
  5
230
  8
0
  6
CONTINUOUS
 62
     7
 10
518.4068531868
 20
129.1213882861
 30
0.0
 40
1.0
 50
270.0
 51
0.0
  0
LINE
  5
231
  8
0
  6
CONTINUOUS
 62
     7
 10
519.4068532613
 20
137.1213866649
 30
0.0
 11
519.4068532613
 21
129.1213883338
 31
0.0
  0
LINE
  5
232
  8
0
  6
CONTINUOUS
 62
     7
 10
509.4068531123
 20
129.1213883338
 30
0.0
 11
509.4068531123
 21
137.1213866649
 31
0.0
  0
LINE
  5
233
  8
0
  6
CONTINUOUS
 62
     7
 10
510.4068532762
 20
138.1213857112
 30
0.0
 11
518.4068530974
 21
138.1213857112
 31
0.0
  0
ARC
  5
234
  8
0
  6
CONTINUOUS
 62
     7
 10
510.4068531868
 20
129.1213882861
 30
0.0
 40
1.0
 50
180.0
 51
270.0
  0
ARC
  5
235
  8
0
  6
CONTINUOUS
 62
     7
 10
510.4068531868
 20
137.1213882861
 30
0.0
 40
1.0
 50
90.0
 51
180.0
  0
LINE
  5
236
  8
0
  6
CONTINUOUS
 62
     7
 10
502.406853455
 20
62.9213882861
 30
0.0
 11
502.406853455
 21
64.1213882965
 31
0.0
  0
LINE
  5
237
  8
0
  6
CONTINUOUS
 62
     7
 10
502.406853455
 20
64.1213882965
 30
0.0
 11
506.4068533656
 21
64.1213882965
 31
0.0
  0
LINE
  5
238
  8
0
  6
CONTINUOUS
 62
     7
 10
506.4068533656
 20
62.9213882861
 30
0.0
 11
502.406853455
 21
62.9213882861
 31
0.0
  0
LINE
  5
239
  8
0
  6
CONTINUOUS
 62
     7
 10
535.775274801
 20
64.1213882965
 30
0.0
 11
508.4068533209
 21
64.1213882965
 31
0.0
  0
LINE
  5
23A
  8
0
  6
CONTINUOUS
 62
     7
 10
508.4068533209
 20
62.9213882861
 30
0.0
 11
535.775274801
 21
62.9213882861
 31
0.0
  0
LINE
  5
23B
  8
0
  6
CONTINUOUS
 62
     7
 10
506.4068533656
 20
64.1213882965
 30
0.0
 11
508.4068533209
 21
64.1213882965
 31
0.0
  0
LINE
  5
23C
  8
0
  6
CONTINUOUS
 62
     7
 10
506.4068533656
 20
62.9213882861
 30
0.0
 11
508.4068533209
 21
62.9213882861
 31
0.0
  0
LINE
  5
23D
  8
0
  6
CONTINUOUS
 62
     7
 10
538.4068526504
 20
64.1213882965
 30
0.0
 11
538.4068526504
 21
62.9213882861
 31
0.0
  0
LINE
  5
23E
  8
0
  6
CONTINUOUS
 62
     7
 10
535.775274801
 20
64.1213882965
 30
0.0
 11
538.4068526504
 21
64.1213882965
 31
0.0
  0
LINE
  5
23F
  8
0
  6
CONTINUOUS
 62
     7
 10
538.4068526504
 20
62.9213882861
 30
0.0
 11
535.775274801
 21
62.9213882861
 31
0.0
  0
LINE
  5
240
  8
0
  6
CONTINUOUS
 62
     7
 10
509.4068531123
 20
64.1213882965
 30
0.0
 11
509.4068531123
 21
127.9213859019
 31
0.0
  0
LINE
  5
241
  8
0
  6
CONTINUOUS
 62
     7
 10
519.4068532613
 20
129.1213883338
 30
0.0
 11
519.4068532613
 21
64.1213882965
 31
0.0
  0
POLYLINE
  5
242
  8
0
  6
CONTINUOUS
 62
     7
 66
     1
 10
0.0
 20
0.0
 30
0.0
  0
VERTEX
  5
53F
  8
0
  6
CONTINUOUS
 62
     7
 10
585.1958148358
 20
153.4604383883
 30
0.0
  0
VERTEX
  5
540
  8
0
  6
CONTINUOUS
 62
     7
 10
583.9915089485
 20
153.6273790774
 30
0.0
  0
VERTEX
  5
541
  8
0
  6
CONTINUOUS
 62
     7
 10
582.7779285786
 20
153.7391556678
 30
0.0
  0
VERTEX
  5
542
  8
0
  6
CONTINUOUS
 62
     7
 10
580.4728023884
 20
153.8367225108
 30
0.0
  0
VERTEX
  5
543
  8
0
  6
CONTINUOUS
 62
     7
 10
578.1648688195
 20
153.8245333609
 30
0.0
  0
VERTEX
  5
544
  8
0
  6
CONTINUOUS
 62
     7
 10
573.5346131203
 20
153.6751343188
 30
0.0
  0
SEQEND
  5
86B
  8
0
  6
CONTINUOUS
 62
     7
  0
POLYLINE
  5
243
  8
0
  6
CONTINUOUS
 62
     7
 66
     1
 10
0.0
 20
0.0
 30
0.0
  0
VERTEX
  5
545
  8
0
  6
CONTINUOUS
 62
     7
 10
573.5346131203
 20
153.6751402793
 30
0.0
  0
VERTEX
  5
546
  8
0
  6
CONTINUOUS
 62
     7
 10
572.1716992733
 20
153.6542667327
 30
0.0
  0
VERTEX
  5
547
  8
0
  6
CONTINUOUS
 62
     7
 10
570.69911288
 20
153.6482407031
 30
0.0
  0
VERTEX
  5
548
  8
0
  6
CONTINUOUS
 62
     7
 10
569.3002574322
 20
153.6529733119
 30
0.0
  0
VERTEX
  5
549
  8
0
  6
CONTINUOUS
 62
     7
 10
567.8208045838
 20
153.6632014689
 30
0.0
  0
VERTEX
  5
54A
  8
0
  6
CONTINUOUS
 62
     7
 10
566.3923196671
 20
153.6733223376
 30
0.0
  0
VERTEX
  5
54B
  8
0
  6
CONTINUOUS
 62
     7
 10
564.880096185
 20
153.6787403998
 30
0.0
  0
VERTEX
  5
54C
  8
0
  6
CONTINUOUS
 62
     7
 10
563.5352455256
 20
153.6751045165
 30
0.0
  0
SEQEND
  5
86A
  8
0
  6
CONTINUOUS
 62
     7
  0
POLYLINE
  5
244
  8
0
  6
CONTINUOUS
 62
     7
 66
     1
 10
0.0
 20
0.0
 30
0.0
  0
VERTEX
  5
54D
  8
0
  6
CONTINUOUS
 62
     7
 10
563.5352455256
 20
153.6751045165
 30
0.0
  0
VERTEX
  5
54E
  8
0
  6
CONTINUOUS
 62
     7
 10
561.1046485779
 20
153.6857916293
 30
0.0
  0
VERTEX
  5
54F
  8
0
  6
CONTINUOUS
 62
     7
 10
553.5338275311
 20
153.6751343188
 30
0.0
  0
SEQEND
  5
869
  8
0
  6
CONTINUOUS
 62
     7
  0
POLYLINE
  5
245
  8
0
  6
CONTINUOUS
 62
     7
 66
     1
 10
0.0
 20
0.0
 30
0.0
  0
VERTEX
  5
550
  8
0
  6
CONTINUOUS
 62
     7
 10
553.5338275311
 20
153.6751223979
 30
0.0
  0
VERTEX
  5
551
  8
0
  6
CONTINUOUS
 62
     7
 10
552.0116679547
 20
153.74624266
 30
0.0
  0
VERTEX
  5
552
  8
0
  6
CONTINUOUS
 62
     7
 10
550.2727084038
 20
153.831733602
 30
0.0
  0
VERTEX
  5
553
  8
0
  6
CONTINUOUS
 62
     7
 10
548.6150942919
 20
153.8849843917
 30
0.0
  0
VERTEX
  5
554
  8
0
  6
CONTINUOUS
 62
     7
 10
547.0228485939
 20
153.8806570945
 30
0.0
  0
VERTEX
  5
555
  8
0
  6
CONTINUOUS
 62
     7
 10
545.4190217135
 20
153.7917567668
 30
0.0
  0
SEQEND
  5
868
  8
0
  6
CONTINUOUS
 62
     7
  0
POLYLINE
  5
246
  8
0
  6
CONTINUOUS
 62
     7
 66
     1
 10
0.0
 20
0.0
 30
0.0
  0
VERTEX
  5
556
  8
0
  6
CONTINUOUS
 62
     7
 10
530.3473286507
 20
154.8360718665
 30
0.0
  0
VERTEX
  5
557
  8
0
  6
CONTINUOUS
 62
     7
 10
533.0739014027
 20
154.8380745826
 30
0.0
  0
VERTEX
  5
558
  8
0
  6
CONTINUOUS
 62
     7
 10
535.7810251591
 20
154.8406435428
 30
0.0
  0
VERTEX
  5
559
  8
0
  6
CONTINUOUS
 62
     7
 10
538.499922323
 20
154.8422171054
 30
0.0
  0
VERTEX
  5
55A
  8
0
  6
CONTINUOUS
 62
     7
 10
541.2251912234
 20
154.8435522494
 30
0.0
  0
VERTEX
  5
55B
  8
0
  6
CONTINUOUS
 62
     7
 10
543.9513586638
 20
154.8439933238
 30
0.0
  0
VERTEX
  5
55C
  8
0
  6
CONTINUOUS
 62
     7
 10
548.5002838251
 20
154.8428191123
 30
0.0
  0
VERTEX
  5
55D
  8
0
  6
CONTINUOUS
 62
     7
 10
553.0509613631
 20
154.8470927653
 30
0.0
  0
VERTEX
  5
55E
  8
0
  6
CONTINUOUS
 62
     7
 10
557.5972043154
 20
154.8615349707
 30
0.0
  0
VERTEX
  5
55F
  8
0
  6
CONTINUOUS
 62
     7
 10
562.1481649754
 20
154.8641337333
 30
0.0
  0
VERTEX
  5
560
  8
0
  6
CONTINUOUS
 62
     7
 10
566.7084805844
 20
154.8319293437
 30
0.0
  0
VERTEX
  5
561
  8
0
  6
CONTINUOUS
 62
     7
 10
571.2413780567
 20
154.8241747794
 30
0.0
  0
VERTEX
  5
562
  8
0
  6
CONTINUOUS
 62
     7
 10
573.4881095764
 20
154.8629476008
 30
0.0
  0
VERTEX
  5
563
  8
0
  6
CONTINUOUS
 62
     7
 10
575.7362298844
 20
154.9379958091
 30
0.0
  0
VERTEX
  5
564
  8
0
  6
CONTINUOUS
 62
     7
 10
578.0116193173
 20
155.0107134757
 30
0.0
  0
VERTEX
  5
565
  8
0
  6
CONTINUOUS
 62
     7
 10
580.3249053833
 20
155.0293518481
 30
0.0
  0
VERTEX
  5
566
  8
0
  6
CONTINUOUS
 62
     7
 10
582.6859764931
 20
154.9408329902
 30
0.0
  0
VERTEX
  5
567
  8
0
  6
CONTINUOUS
 62
     7
 10
585.1081662056
 20
154.6850038943
 30
0.0
  0
SEQEND
  5
867
  8
0
  6
CONTINUOUS
 62
     7
  0
POLYLINE
  5
247
  8
0
  6
CONTINUOUS
 62
     7
 66
     1
 10
0.0
 20
0.0
 30
0.0
  0
VERTEX
  5
568
  8
0
  6
CONTINUOUS
 62
     7
 10
545.4190217135
 20
153.7917567668
 30
0.0
  0
VERTEX
  5
569
  8
0
  6
CONTINUOUS
 62
     7
 10
544.5305250761
 20
153.7253869948
 30
0.0
  0
VERTEX
  5
56A
  8
0
  6
CONTINUOUS
 62
     7
 10
543.5679219839
 20
153.6750389514
 30
0.0
  0
SEQEND
  5
866
  8
0
  6
CONTINUOUS
 62
     7
  0
LINE
  5
248
  8
0
  6
CONTINUOUS
 62
     7
 10
553.5338275311
 20
153.6751164374
 30
0.0
 11
545.4190217135
 21
153.6678685126
 31
0.0
  0
POLYLINE
  5
249
  8
0
  6
CONTINUOUS
 62
     7
 66
     1
 10
0.0
 20
0.0
 30
0.0
  0
VERTEX
  5
56B
  8
0
  6
CONTINUOUS
 62
     7
 10
573.5346131203
 20
153.6751343188
 30
0.0
  0
VERTEX
  5
56C
  8
0
  6
CONTINUOUS
 62
     7
 10
568.5360603211
 20
153.632737535
 30
0.0
  0
VERTEX
  5
56D
  8
0
  6
CONTINUOUS
 62
     7
 10
563.5352455256
 20
153.6751045165
 30
0.0
  0
SEQEND
  5
865
  8
0
  6
CONTINUOUS
 62
     7
  0
ARC
  5
24A
  8
0
  6
CONTINUOUS
 62
     7
 10
583.1566354568
 20
141.1004016634
 30
0.0
 40
12.52712687431336
 50
44.8211014007
 51
80.6316422878
  0
POLYLINE
  5
24B
  8
0
  6
CONTINUOUS
 62
     7
 66
     1
 10
0.0
 20
0.0
 30
0.0
  0
VERTEX
  5
56E
  8
0
  6
CONTINUOUS
 62
     7
 10
593.5213796971
 20
147.8935135779
 30
0.0
  0
VERTEX
  5
56F
  8
0
  6
CONTINUOUS
 62
     7
 10
593.5232930062
 20
147.8909505782
 30
0.0
  0
VERTEX
  5
570
  8
0
  6
CONTINUOUS
 62
     7
 10
593.4276513932
 20
148.0299068866
 30
0.0
  0
VERTEX
  5
571
  8
0
  6
CONTINUOUS
 62
     7
 10
593.2324700234
 20
148.3102334914
 30
0.0
  0
VERTEX
  5
572
  8
0
  6
CONTINUOUS
 62
     7
 10
592.9354421971
 20
148.7308157859
 30
0.0
  0
VERTEX
  5
573
  8
0
  6
CONTINUOUS
 62
     7
 10
592.5384156582
 20
149.2764128623
 30
0.0
  0
VERTEX
  5
574
  8
0
  6
CONTINUOUS
 62
     7
 10
592.0422665951
 20
149.9307168898
 30
0.0
  0
SEQEND
  5
864
  8
0
  6
CONTINUOUS
 62
     7
  0
POLYLINE
  5
24C
  8
0
  6
CONTINUOUS
 62
     7
 66
     1
 10
0.0
 20
0.0
 30
0.0
  0
VERTEX
  5
575
  8
0
  6
CONTINUOUS
 62
     7
 10
530.3473256705
 20
154.8360301432
 30
0.0
  0
VERTEX
  5
576
  8
0
  6
CONTINUOUS
 62
     7
 10
529.6003930447
 20
154.8237575469
 30
0.0
  0
VERTEX
  5
577
  8
0
  6
CONTINUOUS
 62
     7
 10
528.8840778348
 20
154.786647695
 30
0.0
  0
VERTEX
  5
578
  8
0
  6
CONTINUOUS
 62
     7
 10
528.1879134652
 20
154.7218574462
 30
0.0
  0
VERTEX
  5
579
  8
0
  6
CONTINUOUS
 62
     7
 10
527.5880374191
 20
154.6386493621
 30
0.0
  0
VERTEX
  5
57A
  8
0
  6
CONTINUOUS
 62
     7
 10
527.0228780982
 20
154.5311643061
 30
0.0
  0
VERTEX
  5
57B
  8
0
  6
CONTINUOUS
 62
     7
 10
526.5134938237
 20
154.4036401687
 30
0.0
  0
VERTEX
  5
57C
  8
0
  6
CONTINUOUS
 62
     7
 10
526.0710768578
 20
154.2603982863
 30
0.0
  0
VERTEX
  5
57D
  8
0
  6
CONTINUOUS
 62
     7
 10
525.7044814703
 20
154.106171268
 30
0.0
  0
SEQEND
  5
863
  8
0
  6
CONTINUOUS
 62
     7
  0
LINE
  5
24D
  8
0
  6
CONTINUOUS
 62
     7
 10
525.7044814703
 20
154.106171268
 30
0.0
 11
525.3091968772
 21
153.9115382609
 31
0.0
  0
ARC
  5
24E
  8
0
  6
CONTINUOUS
 62
     7
 10
564.1085401528
 20
128.6540612135
 30
0.0
 40
36.04883730380285
 50
35.3072853006
 51
39.1792790855
  0
ARC
  5
24F
  8
0
  6
CONTINUOUS
 62
     7
 10
583.4871599644
 20
142.1972429011
 30
0.0
 40
12.59253095524291
 50
47.14056264
 51
82.6039288339
  0
LINE
  5
250
  8
0
  6
CONTINUOUS
 62
     7
 10
545.4190217135
 20
153.7917567668
 30
0.0
 11
545.4190217135
 21
153.7527634082
 31
0.0
  0
POLYLINE
  5
251
  8
0
  6
CONTINUOUS
 62
     7
 66
     1
 10
0.0
 20
0.0
 30
0.0
  0
VERTEX
  5
57E
  8
0
  6
CONTINUOUS
 62
     7
 10
510.5678014633
 20
220.2103568492
 30
0.0
  0
VERTEX
  5
57F
  8
0
  6
CONTINUOUS
 62
     7
 10
510.4008652446
 20
219.0060450015
 30
0.0
  0
VERTEX
  5
580
  8
0
  6
CONTINUOUS
 62
     7
 10
510.289084929
 20
217.792470592
 30
0.0
  0
VERTEX
  5
581
  8
0
  6
CONTINUOUS
 62
     7
 10
510.1915169684
 20
215.4873324809
 30
0.0
  0
VERTEX
  5
582
  8
0
  6
CONTINUOUS
 62
     7
 10
510.2037068633
 20
213.1794048724
 30
0.0
  0
VERTEX
  5
583
  8
0
  6
CONTINUOUS
 62
     7
 10
510.3531047878
 20
208.5491491732
 30
0.0
  0
SEQEND
  5
862
  8
0
  6
CONTINUOUS
 62
     7
  0
POLYLINE
  5
252
  8
0
  6
CONTINUOUS
 62
     7
 66
     1
 10
0.0
 20
0.0
 30
0.0
  0
VERTEX
  5
584
  8
0
  6
CONTINUOUS
 62
     7
 10
510.3531003175
 20
208.5491491732
 30
0.0
  0
VERTEX
  5
585
  8
0
  6
CONTINUOUS
 62
     7
 10
510.3739723739
 20
207.1862293658
 30
0.0
  0
VERTEX
  5
586
  8
0
  6
CONTINUOUS
 62
     7
 10
510.3800021288
 20
205.7136489329
 30
0.0
  0
VERTEX
  5
587
  8
0
  6
CONTINUOUS
 62
     7
 10
510.3752698926
 20
204.3147994456
 30
0.0
  0
VERTEX
  5
588
  8
0
  6
CONTINUOUS
 62
     7
 10
510.3650395003
 20
202.8353406367
 30
0.0
  0
VERTEX
  5
589
  8
0
  6
CONTINUOUS
 62
     7
 10
510.3549216119
 20
201.40685572
 30
0.0
  0
VERTEX
  5
58A
  8
0
  6
CONTINUOUS
 62
     7
 10
510.3494994519
 20
199.8946262774
 30
0.0
  0
VERTEX
  5
58B
  8
0
  6
CONTINUOUS
 62
     7
 10
510.3531383154
 20
198.5497785983
 30
0.0
  0
SEQEND
  5
861
  8
0
  6
CONTINUOUS
 62
     7
  0
POLYLINE
  5
253
  8
0
  6
CONTINUOUS
 62
     7
 66
     1
 10
0.0
 20
0.0
 30
0.0
  0
VERTEX
  5
58C
  8
0
  6
CONTINUOUS
 62
     7
 10
510.3531368253
 20
198.5497785983
 30
0.0
  0
VERTEX
  5
58D
  8
0
  6
CONTINUOUS
 62
     7
 10
510.34244934
 20
196.1191846309
 30
0.0
  0
VERTEX
  5
58E
  8
0
  6
CONTINUOUS
 62
     7
 10
510.3531044153
 20
188.5483576236
 30
0.0
  0
SEQEND
  5
860
  8
0
  6
CONTINUOUS
 62
     7
  0
POLYLINE
  5
254
  8
0
  6
CONTINUOUS
 62
     7
 66
     1
 10
0.0
 20
0.0
 30
0.0
  0
VERTEX
  5
58F
  8
0
  6
CONTINUOUS
 62
     7
 10
510.3531211791
 20
188.5483576236
 30
0.0
  0
VERTEX
  5
590
  8
0
  6
CONTINUOUS
 62
     7
 10
510.2819979367
 20
187.0262099681
 30
0.0
  0
VERTEX
  5
591
  8
0
  6
CONTINUOUS
 62
     7
 10
510.1965099749
 20
185.2872444568
 30
0.0
  0
VERTEX
  5
592
  8
0
  6
CONTINUOUS
 62
     7
 10
510.1432584402
 20
183.6296273646
 30
0.0
  0
VERTEX
  5
593
  8
0
  6
CONTINUOUS
 62
     7
 10
510.1475838748
 20
182.0373846469
 30
0.0
  0
VERTEX
  5
594
  8
0
  6
CONTINUOUS
 62
     7
 10
510.2364875552
 20
180.4335547862
 30
0.0
  0
SEQEND
  5
85F
  8
0
  6
CONTINUOUS
 62
     7
  0
POLYLINE
  5
255
  8
0
  6
CONTINUOUS
 62
     7
 66
     1
 10
0.0
 20
0.0
 30
0.0
  0
VERTEX
  5
595
  8
0
  6
CONTINUOUS
 62
     7
 10
509.1921713379
 20
165.3618647036
 30
0.0
  0
VERTEX
  5
596
  8
0
  6
CONTINUOUS
 62
     7
 10
509.1901689944
 20
168.0884314952
 30
0.0
  0
VERTEX
  5
597
  8
0
  6
CONTINUOUS
 62
     7
 10
509.1875974265
 20
170.7955552516
 30
0.0
  0
VERTEX
  5
598
  8
0
  6
CONTINUOUS
 62
     7
 10
509.1860242364
 20
173.5144568858
 30
0.0
  0
VERTEX
  5
599
  8
0
  6
CONTINUOUS
 62
     7
 10
509.1846872297
 20
176.2397242961
 30
0.0
  0
VERTEX
  5
59A
  8
0
  6
CONTINUOUS
 62
     7
 10
509.1842502532
 20
178.965897697
 30
0.0
  0
VERTEX
  5
59B
  8
0
  6
CONTINUOUS
 62
     7
 10
509.185422602
 20
183.5148168979
 30
0.0
  0
VERTEX
  5
59C
  8
0
  6
CONTINUOUS
 62
     7
 10
509.1811504391
 20
188.0655003962
 30
0.0
  0
VERTEX
  5
59D
  8
0
  6
CONTINUOUS
 62
     7
 10
509.1667082337
 20
192.6117373881
 30
0.0
  0
VERTEX
  5
59E
  8
0
  6
CONTINUOUS
 62
     7
 10
509.1641094712
 20
197.1626950679
 30
0.0
  0
VERTEX
  5
59F
  8
0
  6
CONTINUOUS
 62
     7
 10
509.1963138608
 20
201.7230106768
 30
0.0
  0
VERTEX
  5
5A0
  8
0
  6
CONTINUOUS
 62
     7
 10
509.2040654448
 20
206.2559081492
 30
0.0
  0
VERTEX
  5
5A1
  8
0
  6
CONTINUOUS
 62
     7
 10
509.1652911333
 20
208.5026456294
 30
0.0
  0
VERTEX
  5
5A2
  8
0
  6
CONTINUOUS
 62
     7
 10
509.0902466503
 20
210.7507659373
 30
0.0
  0
VERTEX
  5
5A3
  8
0
  6
CONTINUOUS
 62
     7
 10
509.0175274936
 20
213.0261613307
 30
0.0
  0
VERTEX
  5
5A4
  8
0
  6
CONTINUOUS
 62
     7
 10
508.9988894937
 20
215.3394414363
 30
0.0
  0
VERTEX
  5
5A5
  8
0
  6
CONTINUOUS
 62
     7
 10
509.0874079791
 20
217.700512546
 30
0.0
  0
VERTEX
  5
5A6
  8
0
  6
CONTINUOUS
 62
     7
 10
509.3432381925
 20
220.1227022586
 30
0.0
  0
SEQEND
  5
85E
  8
0
  6
CONTINUOUS
 62
     7
  0
POLYLINE
  5
256
  8
0
  6
CONTINUOUS
 62
     7
 66
     1
 10
0.0
 20
0.0
 30
0.0
  0
VERTEX
  5
5A7
  8
0
  6
CONTINUOUS
 62
     7
 10
510.2364875552
 20
180.4335547862
 30
0.0
  0
VERTEX
  5
5A8
  8
0
  6
CONTINUOUS
 62
     7
 10
510.302855092
 20
179.5450641093
 30
0.0
  0
VERTEX
  5
5A9
  8
0
  6
CONTINUOUS
 62
     7
 10
510.353203508
 20
178.5824610171
 30
0.0
  0
SEQEND
  5
85D
  8
0
  6
CONTINUOUS
 62
     7
  0
LINE
  5
257
  8
0
  6
CONTINUOUS
 62
     7
 10
510.3531263945
 20
188.5483576236
 30
0.0
 11
510.3603732017
 21
180.4335547862
 31
0.0
  0
POLYLINE
  5
258
  8
0
  6
CONTINUOUS
 62
     7
 66
     1
 10
0.0
 20
0.0
 30
0.0
  0
VERTEX
  5
5AA
  8
0
  6
CONTINUOUS
 62
     7
 10
510.3531051603
 20
208.5491491732
 30
0.0
  0
VERTEX
  5
5AB
  8
0
  6
CONTINUOUS
 62
     7
 10
510.3955038068
 20
203.550596374
 30
0.0
  0
VERTEX
  5
5AC
  8
0
  6
CONTINUOUS
 62
     7
 10
510.3531368253
 20
198.5497785983
 30
0.0
  0
SEQEND
  5
85C
  8
0
  6
CONTINUOUS
 62
     7
  0
ARC
  5
259
  8
0
  6
CONTINUOUS
 62
     7
 10
522.9279613779
 20
218.1711163483
 30
0.0
 40
12.52725506230374
 50
134.821294778
 51
170.6314556836
  0
POLYLINE
  5
25A
  8
0
  6
CONTINUOUS
 62
     7
 66
     1
 10
0.0
 20
0.0
 30
0.0
  0
VERTEX
  5
5AD
  8
0
  6
CONTINUOUS
 62
     7
 10
516.1347277639
 20
228.5359097895
 30
0.0
  0
VERTEX
  5
5AE
  8
0
  6
CONTINUOUS
 62
     7
 10
516.13729244
 20
228.5378290591
 30
0.0
  0
VERTEX
  5
5AF
  8
0
  6
CONTINUOUS
 62
     7
 10
515.9983333376
 20
228.4421874461
 30
0.0
  0
VERTEX
  5
5B0
  8
0
  6
CONTINUOUS
 62
     7
 10
515.7180107375
 20
228.2470060763
 30
0.0
  0
VERTEX
  5
5B1
  8
0
  6
CONTINUOUS
 62
     7
 10
515.2974271392
 20
227.9499842105
 30
0.0
  0
VERTEX
  5
5B2
  8
0
  6
CONTINUOUS
 62
     7
 10
514.7518302956
 20
227.5529576716
 30
0.0
  0
VERTEX
  5
5B3
  8
0
  6
CONTINUOUS
 62
     7
 10
514.0975258024
 20
227.0568086085
 30
0.0
  0
SEQEND
  5
85B
  8
0
  6
CONTINUOUS
 62
     7
  0
POLYLINE
  5
25B
  8
0
  6
CONTINUOUS
 62
     7
 66
     1
 10
0.0
 20
0.0
 30
0.0
  0
VERTEX
  5
5B4
  8
0
  6
CONTINUOUS
 62
     7
 10
509.1922085908
 20
165.3618647036
 30
0.0
  0
VERTEX
  5
5B5
  8
0
  6
CONTINUOUS
 62
     7
 10
509.2044867751
 20
164.6149231372
 30
0.0
  0
VERTEX
  5
5B6
  8
0
  6
CONTINUOUS
 62
     7
 10
509.2415955094
 20
163.8986183581
 30
0.0
  0
VERTEX
  5
5B7
  8
0
  6
CONTINUOUS
 62
     7
 10
509.306382033
 20
163.2024480281
 30
0.0
  0
VERTEX
  5
5B8
  8
0
  6
CONTINUOUS
 62
     7
 10
509.3895912347
 20
162.6025749621
 30
0.0
  0
VERTEX
  5
5B9
  8
0
  6
CONTINUOUS
 62
     7
 10
509.4970800159
 20
162.0374156413
 30
0.0
  0
VERTEX
  5
5BA
  8
0
  6
CONTINUOUS
 62
     7
 10
509.6246019182
 20
161.5280283866
 30
0.0
  0
VERTEX
  5
5BB
  8
0
  6
CONTINUOUS
 62
     7
 10
509.7678415654
 20
161.0856129107
 30
0.0
  0
VERTEX
  5
5BC
  8
0
  6
CONTINUOUS
 62
     7
 10
509.9220719365
 20
160.719014543
 30
0.0
  0
SEQEND
  5
85A
  8
0
  6
CONTINUOUS
 62
     7
  0
LINE
  5
25C
  8
0
  6
CONTINUOUS
 62
     7
 10
509.9220719365
 20
160.719014543
 30
0.0
 11
510.1167023358
 21
160.3237344203
 31
0.0
  0
ARC
  5
25D
  8
0
  6
CONTINUOUS
 62
     7
 10
535.3770025475
 20
199.1195107558
 30
0.0
 40
36.05337758414768
 50
125.3076694524
 51
129.179178497
  0
ARC
  5
25E
  8
0
  6
CONTINUOUS
 62
     7
 10
521.8308717358
 20
218.5017458941
 30
0.0
 40
12.5923977757575
 50
137.1403469291
 51
172.6040790193
  0
LINE
  5
25F
  8
0
  6
CONTINUOUS
 62
     7
 10
510.2364875552
 20
180.4335547862
 30
0.0
 11
510.2754779336
 21
180.4335547862
 31
0.0
  0
ARC
  5
260
  8
0
  6
CONTINUOUS
 62
     7
 10
560.5068531868
 20
151.4276934391
 30
0.0
 40
2.000000000000028
 50
285.7570898053
 51
0.0
  0
ARC
  5
261
  8
0
  6
CONTINUOUS
 62
     7
 10
517.6004454833
 20
303.490312705
 30
0.0
 40
160.0000000000003
 50
270.6306446184
 51
285.7570898053
  0
LINE
  5
262
  8
0
  6
CONTINUOUS
 62
     7
 10
562.5068538067
 20
153.1213892875
 30
0.0
 11
520.5371271995
 21
153.1213892875
 31
0.0
  0
LINE
  5
263
  8
0
  6
CONTINUOUS
 62
     7
 10
562.5068538067
 20
151.4276935038
 30
0.0
 11
562.5068538067
 21
153.1213892875
 31
0.0
  0
LINE
  5
264
  8
0
  6
CONTINUOUS
 62
     7
 10
520.5326754776
 20
153.9115382609
 30
0.0
 11
545.5421231863
 21
153.9115382609
 31
0.0
  0
LINE
  5
265
  8
0
  6
CONTINUOUS
 62
     7
 10
550.9874276993
 20
153.9115382609
 30
0.0
 11
562.5068538067
 21
153.9115382609
 31
0.0
  0
LINE
  5
266
  8
0
  6
CONTINUOUS
 62
     7
 10
562.5068538067
 20
153.9115382609
 30
0.0
 11
562.5068538067
 21
153.1213892875
 31
0.0
  0
ARC
  5
267
  8
0
  6
CONTINUOUS
 62
     7
 10
512.6005480338
 20
195.5213882861
 30
0.0
 40
2.0
 50
15.7570898053
 51
90.0
  0
ARC
  5
268
  8
0
  6
CONTINUOUS
 62
     7
 10
360.537928768
 20
152.6149805826
 30
0.0
 40
160.0000000000003
 50
359.6618680049
 51
15.7570898053
  0
LINE
  5
269
  8
0
  6
CONTINUOUS
 62
     7
 10
510.9068531719
 20
197.5213838992
 30
0.0
 11
510.9068531719
 21
154.8128916201
 31
0.0
  0
LINE
  5
26A
  8
0
  6
CONTINUOUS
 62
     7
 10
512.6005480242
 20
197.5213838992
 30
0.0
 11
510.9068531719
 21
197.5213838992
 31
0.0
  0
LINE
  5
26B
  8
0
  6
CONTINUOUS
 62
     7
 10
510.2736510513
 20
154.3213857589
 30
0.0
 11
510.1167023358
 21
154.3213857589
 31
0.0
  0
LINE
  5
26C
  8
0
  6
CONTINUOUS
 62
     7
 10
510.1167023358
 20
154.3213857589
 30
0.0
 11
510.1167023358
 21
180.5566622195
 31
0.0
  0
LINE
  5
26D
  8
0
  6
CONTINUOUS
 62
     7
 10
510.1167023358
 20
186.0019637523
 30
0.0
 11
510.1167023358
 21
197.5213838992
 31
0.0
  0
LINE
  5
26E
  8
0
  6
CONTINUOUS
 62
     7
 10
510.1167023358
 20
197.5213838992
 30
0.0
 11
510.9068531719
 21
197.5213838992
 31
0.0
  0
LINE
  5
26F
  8
0
  6
CONTINUOUS
 62
     7
 10
519.6068532941
 20
129.921389955
 30
0.0
 11
519.6068532941
 21
137.721390861
 31
0.0
  0
ARC
  5
270
  8
0
  6
CONTINUOUS
 62
     7
 10
519.2068531868
 20
137.7213882861
 30
0.0
 40
0.3999999999999773
 50
0.0
 51
90.0
  0
LINE
  5
271
  8
0
  6
CONTINUOUS
 62
     7
 10
519.2068532286
 20
138.1213857112
 30
0.0
 11
518.4068530974
 21
138.1213857112
 31
0.0
  0
LINE
  5
272
  8
0
  6
CONTINUOUS
 62
     7
 10
510.4068532762
 20
138.1213857112
 30
0.0
 11
509.8068531779
 21
138.1213857112
 31
0.0
  0
ARC
  5
273
  8
0
  6
CONTINUOUS
 62
     7
 10
509.8068531868
 20
137.7213882861
 30
0.0
 40
0.4000000000000909
 50
90.0
 51
180.0
  0
LINE
  5
274
  8
0
  6
CONTINUOUS
 62
     7
 10
509.4068531123
 20
137.721390861
 30
0.0
 11
509.4068531123
 21
137.1213866649
 31
0.0
  0
LINE
  5
275
  8
0
  6
CONTINUOUS
 62
     7
 10
508.6068533537
 20
134.9213911471
 30
0.0
 11
508.6068533537
 21
129.921389955
 31
0.0
  0
ARC
  5
276
  8
0
  6
CONTINUOUS
 62
     7
 10
514.5068531868
 20
149.5213882861
 30
0.0
 40
6.399999999999999
 50
334.4805415091
 51
151.3013359141
  0
ARC
  5
277
  8
0
  6
CONTINUOUS
 62
     7
 10
529.3068531868
 20
142.455979593
 30
0.0
 40
10.0
 50
154.4805415091
 51
180.0
  0
LINE
  5
278
  8
0
  6
CONTINUOUS
 62
     7
 10
519.3068530587
 20
142.4559785304
 30
0.0
 11
519.3068530587
 21
138.9213873324
 31
0.0
  0
LINE
  5
279
  8
0
  6
CONTINUOUS
 62
     7
 10
519.4068532613
 20
138.9213873324
 30
0.0
 11
519.3068530587
 21
138.9213873324
 31
0.0
  0
ARC
  5
27A
  8
0
  6
CONTINUOUS
 62
     7
 10
519.4068531868
 20
137.9213882861
 30
0.0
 40
1.0
 50
0.0
 51
90.0
  0
LINE
  5
27B
  8
0
  6
CONTINUOUS
 62
     7
 10
520.4068530527
 20
129.921389955
 30
0.0
 11
520.4068530527
 21
137.9213882861
 31
0.0
  0
LINE
  5
27C
  8
0
  6
CONTINUOUS
 62
     7
 10
508.6068533537
 20
134.9213911471
 30
0.0
 11
506.6589512107
 21
134.9213911471
 31
0.0
  0
ARC
  5
27D
  8
0
  6
CONTINUOUS
 62
     7
 10
530.2159440959
 20
140.9213882861
 30
0.0
 40
24.30909090909085
 50
151.3013359141
 51
194.2894890274
  0
LINE
  5
27E
  8
0
  6
CONTINUOUS
 62
     7
 10
509.4068531123
 20
127.9213859019
 30
0.0
 11
508.6068533537
 21
127.9213859019
 31
0.0
  0
LINE
  5
27F
  8
0
  6
CONTINUOUS
 62
     7
 10
509.4068531123
 20
129.1213883338
 30
0.0
 11
509.4068531123
 21
127.9213859019
 31
0.0
  0
LINE
  5
280
  8
0
  6
CONTINUOUS
 62
     7
 10
508.6068533537
 20
127.9213859019
 30
0.0
 11
508.6068533537
 21
129.921389955
 31
0.0
  0
LINE
  5
281
  8
0
  6
CONTINUOUS
 62
     7
 10
520.4068530527
 20
127.9213859019
 30
0.0
 11
519.6068532941
 21
127.9213859019
 31
0.0
  0
LINE
  5
282
  8
0
  6
CONTINUOUS
 62
     7
 10
519.6068532941
 20
127.9213859019
 30
0.0
 11
519.6068532941
 21
129.921389955
 31
0.0
  0
LINE
  5
283
  8
0
  6
CONTINUOUS
 62
     7
 10
520.4068530527
 20
129.921389955
 30
0.0
 11
520.4068530527
 21
127.9213859019
 31
0.0
  0
POLYLINE
  5
284
  8
0
  6
CONTINUOUS
 62
     7
 66
     1
 10
0.0
 20
0.0
 30
0.0
  0
VERTEX
  5
5BD
  8
0
  6
CONTINUOUS
 62
     7
 10
68.0538701684
 20
-32.4253501621
 30
0.0
  0
VERTEX
  5
5BE
  8
0
  6
CONTINUOUS
 62
     7
 10
67.0662688882
 20
-32.5572220859
 30
0.0
  0
VERTEX
  5
5BF
  8
0
  6
CONTINUOUS
 62
     7
 10
65.8567475946
 20
-32.7131362883
 30
0.0
  0
VERTEX
  5
5C0
  8
0
  6
CONTINUOUS
 62
     7
 10
64.8726391466
 20
-32.8360280273
 30
0.0
  0
VERTEX
  5
5C1
  8
0
  6
CONTINUOUS
 62
     7
 10
64.1142296464
 20
-32.9283165065
 30
0.0
  0
VERTEX
  5
5C2
  8
0
  6
CONTINUOUS
 62
     7
 10
63.5085391672
 20
-32.9996126023
 30
0.0
  0
VERTEX
  5
5C3
  8
0
  6
CONTINUOUS
 62
     7
 10
62.9123615892
 20
-33.0657409755
 30
0.0
  0
VERTEX
  5
5C4
  8
0
  6
CONTINUOUS
 62
     7
 10
62.0288777025
 20
-33.1561004994
 30
0.0
  0
VERTEX
  5
5C5
  8
0
  6
CONTINUOUS
 62
     7
 10
61.1583995492
 20
-33.2365023223
 30
0.0
  0
VERTEX
  5
5C6
  8
0
  6
CONTINUOUS
 62
     7
 10
60.3010940225
 20
-33.3084004251
 30
0.0
  0
VERTEX
  5
5C7
  8
0
  6
CONTINUOUS
 62
     7
 10
59.4572114618
 20
-33.3742039529
 30
0.0
  0
VERTEX
  5
5C8
  8
0
  6
CONTINUOUS
 62
     7
 10
58.6218523652
 20
-33.4384454665
 30
0.0
  0
VERTEX
  5
5C9
  8
0
  6
CONTINUOUS
 62
     7
 10
57.7677058847
 20
-33.5069386539
 30
0.0
  0
VERTEX
  5
5CA
  8
0
  6
CONTINUOUS
 62
     7
 10
56.8904685647
 20
-33.5761232552
 30
0.0
  0
VERTEX
  5
5CB
  8
0
  6
CONTINUOUS
 62
     7
 10
55.989866224
 20
-33.6427131919
 30
0.0
  0
VERTEX
  5
5CC
  8
0
  6
CONTINUOUS
 62
     7
 10
55.0657319696
 20
-33.7061723945
 30
0.0
  0
VERTEX
  5
5CD
  8
0
  6
CONTINUOUS
 62
     7
 10
54.1180419595
 20
-33.7667340664
 30
0.0
  0
VERTEX
  5
5CE
  8
0
  6
CONTINUOUS
 62
     7
 10
53.2370614679
 20
-33.8193325577
 30
0.0
  0
VERTEX
  5
5CF
  8
0
  6
CONTINUOUS
 62
     7
 10
52.5735187204
 20
-33.8569997129
 30
0.0
  0
VERTEX
  5
5D0
  8
0
  6
CONTINUOUS
 62
     7
 10
52.0737099321
 20
-33.8843247173
 30
0.0
  0
VERTEX
  5
5D1
  8
0
  6
CONTINUOUS
 62
     7
 10
51.4575409562
 20
-33.9168636379
 30
0.0
  0
VERTEX
  5
5D2
  8
0
  6
CONTINUOUS
 62
     7
 10
50.6849336297
 20
-33.9559706179
 30
0.0
  0
VERTEX
  5
5D3
  8
0
  6
CONTINUOUS
 62
     7
 10
49.755804506
 20
-34.0005995957
 30
0.0
  0
VERTEX
  5
5D4
  8
0
  6
CONTINUOUS
 62
     7
 10
48.6701059015
 20
-34.0495316563
 30
0.0
  0
VERTEX
  5
5D5
  8
0
  6
CONTINUOUS
 62
     7
 10
47.0114993722
 20
-34.1177938757
 30
0.0
  0
VERTEX
  5
5D6
  8
0
  6
CONTINUOUS
 62
     7
 10
45.0923251779
 20
-34.1873238114
 30
0.0
  0
VERTEX
  5
5D7
  8
0
  6
CONTINUOUS
 62
     7
 10
43.0903839738
 20
-34.2495607463
 30
0.0
  0
VERTEX
  5
5D8
  8
0
  6
CONTINUOUS
 62
     7
 10
37.6779365213
 20
-34.3687823293
 30
0.0
  0
VERTEX
  5
5D9
  8
0
  6
CONTINUOUS
 62
     7
 10
32.1934151323
 20
-34.4211494801
 30
0.0
  0
VERTEX
  5
5DA
  8
0
  6
CONTINUOUS
 62
     7
 10
28.6662029893
 20
-34.4197007147
 30
0.0
  0
VERTEX
  5
5DB
  8
0
  6
CONTINUOUS
 62
     7
 10
25.1104998262
 20
-34.3904229132
 30
0.0
  0
VERTEX
  5
5DC
  8
0
  6
CONTINUOUS
 62
     7
 10
21.6311263711
 20
-34.3341263262
 30
0.0
  0
VERTEX
  5
5DD
  8
0
  6
CONTINUOUS
 62
     7
 10
18.4029268892
 20
-34.2564953742
 30
0.0
  0
VERTEX
  5
5DE
  8
0
  6
CONTINUOUS
 62
     7
 10
16.8133186967
 20
-34.20892826
 30
0.0
  0
VERTEX
  5
5DF
  8
0
  6
CONTINUOUS
 62
     7
 10
15.2934121759
 20
-34.1574399052
 30
0.0
  0
VERTEX
  5
5E0
  8
0
  6
CONTINUOUS
 62
     7
 10
13.8432073266
 20
-34.1026293365
 30
0.0
  0
VERTEX
  5
5E1
  8
0
  6
CONTINUOUS
 62
     7
 10
12.462704149
 20
-34.0450732288
 30
0.0
  0
VERTEX
  5
5E2
  8
0
  6
CONTINUOUS
 62
     7
 10
11.1519145639
 20
-33.9853337285
 30
0.0
  0
VERTEX
  5
5E3
  8
0
  6
CONTINUOUS
 62
     7
 10
9.9613117845
 20
-33.9265590784
 30
0.0
  0
VERTEX
  5
5E4
  8
0
  6
CONTINUOUS
 62
     7
 10
9.1410326631
 20
-33.8834466664
 30
0.0
  0
VERTEX
  5
5E5
  8
0
  6
CONTINUOUS
 62
     7
 10
8.5043835313
 20
-33.8484445838
 30
0.0
  0
VERTEX
  5
5E6
  8
0
  6
CONTINUOUS
 62
     7
 10
8.2548784883
 20
-33.8343424973
 30
0.0
  0
VERTEX
  5
5E7
  8
0
  6
CONTINUOUS
 62
     7
 10
8.0257105501
 20
-33.8211430488
 30
0.0
  0
VERTEX
  5
5E8
  8
0
  6
CONTINUOUS
 62
     7
 10
7.7588009508
 20
-33.8054677722
 30
0.0
  0
VERTEX
  5
5E9
  8
0
  6
CONTINUOUS
 62
     7
 10
7.4519323976
 20
-33.7874109176
 30
0.0
  0
VERTEX
  5
5EA
  8
0
  6
CONTINUOUS
 62
     7
 10
6.8779396684
 20
-33.754223424
 30
0.0
  0
VERTEX
  5
5EB
  8
0
  6
CONTINUOUS
 62
     7
 10
6.2017130525
 20
-33.7146992115
 30
0.0
  0
VERTEX
  5
5EC
  8
0
  6
CONTINUOUS
 62
     7
 10
5.4325985582
 20
-33.6674271402
 30
0.0
  0
VERTEX
  5
5ED
  8
0
  6
CONTINUOUS
 62
     7
 10
4.6228813798
 20
-33.613706219
 30
0.0
  0
VERTEX
  5
5EE
  8
0
  6
CONTINUOUS
 62
     7
 10
3.7806439073
 20
-33.553374025
 30
0.0
  0
VERTEX
  5
5EF
  8
0
  6
CONTINUOUS
 62
     7
 10
2.3049521119
 20
-33.4368119267
 30
0.0
  0
VERTEX
  5
5F0
  8
0
  6
CONTINUOUS
 62
     7
 10
0.7396626146
 20
-33.2980880765
 30
0.0
  0
VERTEX
  5
5F1
  8
0
  6
CONTINUOUS
 62
     7
 10
-0.9229016631
 20
-33.1338903186
 30
0.0
  0
VERTEX
  5
5F2
  8
0
  6
CONTINUOUS
 62
     7
 10
-2.3035836547
 20
-32.9846961675
 30
0.0
  0
VERTEX
  5
5F3
  8
0
  6
CONTINUOUS
 62
     7
 10
-3.8218093245
 20
-32.8083614138
 30
0.0
  0
VERTEX
  5
5F4
  8
0
  6
CONTINUOUS
 62
     7
 10
-5.4772687285
 20
-32.6026415703
 30
0.0
  0
VERTEX
  5
5F5
  8
0
  6
CONTINUOUS
 62
     7
 10
-6.8228316634
 20
-32.4247425673
 30
0.0
  0
SEQEND
  5
859
  8
0
  6
CONTINUOUS
 62
     7
  0
LINE
  5
285
  8
0
  6
CONTINUOUS
 62
     7
 10
-6.9704842894
 20
-33.4863281128
 30
0.0
 11
-6.9848370879
 21
-33.5496297357
 31
0.0
  0
LINE
  5
286
  8
0
  6
CONTINUOUS
 62
     7
 10
-6.8367553084
 20
-32.4218498794
 30
0.0
 11
-6.8400931685
 21
-32.4488451955
 31
0.0
  0
POLYLINE
  5
287
  8
0
  6
CONTINUOUS
 62
     7
 66
     1
 10
0.0
 20
0.0
 30
0.0
  0
VERTEX
  5
5F6
  8
0
  6
CONTINUOUS
 62
     7
 10
-6.8724465697
 20
-32.7115183947
 30
0.0
  0
VERTEX
  5
5F7
  8
0
  6
CONTINUOUS
 62
     7
 10
-6.9079232543
 20
-32.999737027
 30
0.0
  0
VERTEX
  5
5F8
  8
0
  6
CONTINUOUS
 62
     7
 10
-6.984646353
 20
-33.5964558897
 30
0.0
  0
SEQEND
  5
858
  8
0
  6
CONTINUOUS
 62
     7
  0
POLYLINE
  5
288
  8
0
  6
CONTINUOUS
 62
     7
 66
     1
 10
0.0
 20
0.0
 30
0.0
  0
VERTEX
  5
5F9
  8
0
  6
CONTINUOUS
 62
     7
 10
68.2160067232
 20
-33.59806447
 30
0.0
  0
VERTEX
  5
5FA
  8
0
  6
CONTINUOUS
 62
     7
 10
68.1392001779
 20
-33.0005323765
 30
0.0
  0
VERTEX
  5
5FB
  8
0
  6
CONTINUOUS
 62
     7
 10
68.1042122514
 20
-32.7165087936
 30
0.0
  0
SEQEND
  5
857
  8
0
  6
CONTINUOUS
 62
     7
  0
LINE
  5
289
  8
0
  6
CONTINUOUS
 62
     7
 10
68.0701303155
 20
-32.4397554872
 30
0.0
 11
68.0679249437
 21
-32.4218506244
 31
0.0
  0
LINE
  5
28A
  8
0
  6
CONTINUOUS
 62
     7
 10
68.2160067232
 20
-33.5496315983
 30
0.0
 11
68.2016539247
 21
-33.486368346
 31
0.0
  0
POLYLINE
  5
28B
  8
0
  6
CONTINUOUS
 62
     7
 66
     1
 10
0.0
 20
0.0
 30
0.0
  0
VERTEX
  5
5FC
  8
0
  6
CONTINUOUS
 62
     7
 10
188.0538719566
 20
-32.4253501621
 30
0.0
  0
VERTEX
  5
5FD
  8
0
  6
CONTINUOUS
 62
     7
 10
187.066266206
 20
-32.5572220859
 30
0.0
  0
VERTEX
  5
5FE
  8
0
  6
CONTINUOUS
 62
     7
 10
185.856752363
 20
-32.7131362883
 30
0.0
  0
VERTEX
  5
5FF
  8
0
  6
CONTINUOUS
 62
     7
 10
184.8726409347
 20
-32.8360280273
 30
0.0
  0
VERTEX
  5
600
  8
0
  6
CONTINUOUS
 62
     7
 10
184.1142284543
 20
-32.9283165065
 30
0.0
  0
VERTEX
  5
601
  8
0
  6
CONTINUOUS
 62
     7
 10
183.5085439355
 20
-32.9996126023
 30
0.0
  0
VERTEX
  5
602
  8
0
  6
CONTINUOUS
 62
     7
 10
182.9123633773
 20
-33.0657409755
 30
0.0
  0
VERTEX
  5
603
  8
0
  6
CONTINUOUS
 62
     7
 10
182.0288765104
 20
-33.1561004994
 30
0.0
  0
VERTEX
  5
604
  8
0
  6
CONTINUOUS
 62
     7
 10
181.1584013374
 20
-33.2365023223
 30
0.0
  0
VERTEX
  5
605
  8
0
  6
CONTINUOUS
 62
     7
 10
180.3010928304
 20
-33.3084004251
 30
0.0
  0
VERTEX
  5
606
  8
0
  6
CONTINUOUS
 62
     7
 10
179.4572072894
 20
-33.3742039529
 30
0.0
  0
VERTEX
  5
607
  8
0
  6
CONTINUOUS
 62
     7
 10
178.6218541534
 20
-33.4384454665
 30
0.0
  0
VERTEX
  5
608
  8
0
  6
CONTINUOUS
 62
     7
 10
177.7677046926
 20
-33.5069386539
 30
0.0
  0
VERTEX
  5
609
  8
0
  6
CONTINUOUS
 62
     7
 10
176.8904673726
 20
-33.5761232552
 30
0.0
  0
VERTEX
  5
60A
  8
0
  6
CONTINUOUS
 62
     7
 10
175.9898650319
 20
-33.6427131919
 30
0.0
  0
VERTEX
  5
60B
  8
0
  6
CONTINUOUS
 62
     7
 10
175.065724817
 20
-33.7061723945
 30
0.0
  0
VERTEX
  5
60C
  8
0
  6
CONTINUOUS
 62
     7
 10
174.1180377872
 20
-33.7667340664
 30
0.0
  0
VERTEX
  5
60D
  8
0
  6
CONTINUOUS
 62
     7
 10
173.2370662362
 20
-33.8193325577
 30
0.0
  0
VERTEX
  5
60E
  8
0
  6
CONTINUOUS
 62
     7
 10
172.5735234887
 20
-33.8569997129
 30
0.0
  0
VERTEX
  5
60F
  8
0
  6
CONTINUOUS
 62
     7
 10
172.0737057597
 20
-33.8843247173
 30
0.0
  0
VERTEX
  5
610
  8
0
  6
CONTINUOUS
 62
     7
 10
171.4575457246
 20
-33.9168636379
 30
0.0
  0
VERTEX
  5
611
  8
0
  6
CONTINUOUS
 62
     7
 10
170.6849294574
 20
-33.9559706179
 30
0.0
  0
VERTEX
  5
612
  8
0
  6
CONTINUOUS
 62
     7
 10
169.7558003337
 20
-34.0005995957
 30
0.0
  0
VERTEX
  5
613
  8
0
  6
CONTINUOUS
 62
     7
 10
168.6701017291
 20
-34.0495316563
 30
0.0
  0
VERTEX
  5
614
  8
0
  6
CONTINUOUS
 62
     7
 10
167.0114951999
 20
-34.1177938757
 30
0.0
  0
VERTEX
  5
615
  8
0
  6
CONTINUOUS
 62
     7
 10
165.092326966
 20
-34.1873238114
 30
0.0
  0
VERTEX
  5
616
  8
0
  6
CONTINUOUS
 62
     7
 10
163.0903887422
 20
-34.2495607463
 30
0.0
  0
VERTEX
  5
617
  8
0
  6
CONTINUOUS
 62
     7
 10
157.6779353292
 20
-34.3687823293
 30
0.0
  0
VERTEX
  5
618
  8
0
  6
CONTINUOUS
 62
     7
 10
152.1934139402
 20
-34.4211494801
 30
0.0
  0
VERTEX
  5
619
  8
0
  6
CONTINUOUS
 62
     7
 10
148.6662077577
 20
-34.4197007147
 30
0.0
  0
VERTEX
  5
61A
  8
0
  6
CONTINUOUS
 62
     7
 10
145.1104926736
 20
-34.3904229132
 30
0.0
  0
VERTEX
  5
61B
  8
0
  6
CONTINUOUS
 62
     7
 10
141.631125179
 20
-34.3341263262
 30
0.0
  0
VERTEX
  5
61C
  8
0
  6
CONTINUOUS
 62
     7
 10
138.4029197366
 20
-34.2564953742
 30
0.0
  0
VERTEX
  5
61D
  8
0
  6
CONTINUOUS
 62
     7
 10
136.8133175046
 20
-34.20892826
 30
0.0
  0
VERTEX
  5
61E
  8
0
  6
CONTINUOUS
 62
     7
 10
135.2934109838
 20
-34.1574399052
 30
0.0
  0
VERTEX
  5
61F
  8
0
  6
CONTINUOUS
 62
     7
 10
133.8432061345
 20
-34.1026293365
 30
0.0
  0
VERTEX
  5
620
  8
0
  6
CONTINUOUS
 62
     7
 10
132.4627089174
 20
-34.0450732288
 30
0.0
  0
VERTEX
  5
621
  8
0
  6
CONTINUOUS
 62
     7
 10
131.1519133718
 20
-33.9853337285
 30
0.0
  0
VERTEX
  5
622
  8
0
  6
CONTINUOUS
 62
     7
 10
129.9613165529
 20
-33.9265590784
 30
0.0
  0
VERTEX
  5
623
  8
0
  6
CONTINUOUS
 62
     7
 10
129.141031471
 20
-33.8834466664
 30
0.0
  0
VERTEX
  5
624
  8
0
  6
CONTINUOUS
 62
     7
 10
128.5043763788
 20
-33.8484445838
 30
0.0
  0
VERTEX
  5
625
  8
0
  6
CONTINUOUS
 62
     7
 10
128.2548832567
 20
-33.8343424973
 30
0.0
  0
VERTEX
  5
626
  8
0
  6
CONTINUOUS
 62
     7
 10
128.025709358
 20
-33.8211430488
 30
0.0
  0
VERTEX
  5
627
  8
0
  6
CONTINUOUS
 62
     7
 10
127.7587997587
 20
-33.8054677722
 30
0.0
  0
VERTEX
  5
628
  8
0
  6
CONTINUOUS
 62
     7
 10
127.4519431264
 20
-33.7874109176
 30
0.0
  0
VERTEX
  5
629
  8
0
  6
CONTINUOUS
 62
     7
 10
126.8779325158
 20
-33.754223424
 30
0.0
  0
VERTEX
  5
62A
  8
0
  6
CONTINUOUS
 62
     7
 10
126.2017058999
 20
-33.7146992115
 30
0.0
  0
VERTEX
  5
62B
  8
0
  6
CONTINUOUS
 62
     7
 10
125.432609287
 20
-33.6674271402
 30
0.0
  0
VERTEX
  5
62C
  8
0
  6
CONTINUOUS
 62
     7
 10
124.6228861482
 20
-33.613706219
 30
0.0
  0
VERTEX
  5
62D
  8
0
  6
CONTINUOUS
 62
     7
 10
123.7806486757
 20
-33.553374025
 30
0.0
  0
VERTEX
  5
62E
  8
0
  6
CONTINUOUS
 62
     7
 10
122.3049509199
 20
-33.4368119267
 30
0.0
  0
VERTEX
  5
62F
  8
0
  6
CONTINUOUS
 62
     7
 10
120.739655462
 20
-33.2980880765
 30
0.0
  0
VERTEX
  5
630
  8
0
  6
CONTINUOUS
 62
     7
 10
119.0771090658
 20
-33.1338903186
 30
0.0
  0
VERTEX
  5
631
  8
0
  6
CONTINUOUS
 62
     7
 10
117.6964091928
 20
-32.9846961675
 30
0.0
  0
VERTEX
  5
632
  8
0
  6
CONTINUOUS
 62
     7
 10
116.1781835229
 20
-32.8083614138
 30
0.0
  0
VERTEX
  5
633
  8
0
  6
CONTINUOUS
 62
     7
 10
114.5227300794
 20
-32.6026415703
 30
0.0
  0
VERTEX
  5
634
  8
0
  6
CONTINUOUS
 62
     7
 10
113.1771552236
 20
-32.4247425673
 30
0.0
  0
SEQEND
  5
856
  8
0
  6
CONTINUOUS
 62
     7
  0
LINE
  5
28C
  8
0
  6
CONTINUOUS
 62
     7
 10
113.0295204789
 20
-33.4863281128
 30
0.0
 11
113.0151557596
 21
-33.5496297357
 31
0.0
  0
LINE
  5
28D
  8
0
  6
CONTINUOUS
 62
     7
 10
113.163237539
 20
-32.4218498794
 30
0.0
 11
113.1599115999
 21
-32.4488451955
 31
0.0
  0
POLYLINE
  5
28E
  8
0
  6
CONTINUOUS
 62
     7
 66
     1
 10
0.0
 20
0.0
 30
0.0
  0
VERTEX
  5
635
  8
0
  6
CONTINUOUS
 62
     7
 10
113.1275641591
 20
-32.7115183947
 30
0.0
  0
VERTEX
  5
636
  8
0
  6
CONTINUOUS
 62
     7
 10
113.0920636327
 20
-32.999737027
 30
0.0
  0
VERTEX
  5
637
  8
0
  6
CONTINUOUS
 62
     7
 10
113.0153643758
 20
-33.5964558897
 30
0.0
  0
SEQEND
  5
855
  8
0
  6
CONTINUOUS
 62
     7
  0
POLYLINE
  5
28F
  8
0
  6
CONTINUOUS
 62
     7
 66
     1
 10
0.0
 20
0.0
 30
0.0
  0
VERTEX
  5
638
  8
0
  6
CONTINUOUS
 62
     7
 10
188.2160085113
 20
-33.59806447
 30
0.0
  0
VERTEX
  5
639
  8
0
  6
CONTINUOUS
 62
     7
 10
188.1391960056
 20
-33.0005323765
 30
0.0
  0
VERTEX
  5
63A
  8
0
  6
CONTINUOUS
 62
     7
 10
188.1042140395
 20
-32.7165087936
 30
0.0
  0
SEQEND
  5
854
  8
0
  6
CONTINUOUS
 62
     7
  0
LINE
  5
290
  8
0
  6
CONTINUOUS
 62
     7
 10
188.0701276333
 20
-32.4397554872
 30
0.0
 11
188.0679222615
 21
-32.4218506244
 31
0.0
  0
LINE
  5
291
  8
0
  6
CONTINUOUS
 62
     7
 10
188.2160040409
 20
-33.5496315983
 30
0.0
 11
188.2016512425
 21
-33.486368346
 31
0.0
  0
POLYLINE
  5
292
  8
0
  6
CONTINUOUS
 62
     7
 66
     1
 10
0.0
 20
0.0
 30
0.0
  0
VERTEX
  5
63B
  8
0
  6
CONTINUOUS
 62
     7
 10
308.0538737447
 20
-32.4253501621
 30
0.0
  0
VERTEX
  5
63C
  8
0
  6
CONTINUOUS
 62
     7
 10
307.066266504
 20
-32.5572220859
 30
0.0
  0
VERTEX
  5
63D
  8
0
  6
CONTINUOUS
 62
     7
 10
305.8567511709
 20
-32.7131362883
 30
0.0
  0
VERTEX
  5
63E
  8
0
  6
CONTINUOUS
 62
     7
 10
304.8726367624
 20
-32.8360280273
 30
0.0
  0
VERTEX
  5
63F
  8
0
  6
CONTINUOUS
 62
     7
 10
304.1142272622
 20
-32.9283165065
 30
0.0
  0
VERTEX
  5
640
  8
0
  6
CONTINUOUS
 62
     7
 10
303.5085427434
 20
-32.9996126023
 30
0.0
  0
VERTEX
  5
641
  8
0
  6
CONTINUOUS
 62
     7
 10
302.9123651655
 20
-33.0657409755
 30
0.0
  0
VERTEX
  5
642
  8
0
  6
CONTINUOUS
 62
     7
 10
302.0288753183
 20
-33.1561004994
 30
0.0
  0
VERTEX
  5
643
  8
0
  6
CONTINUOUS
 62
     7
 10
301.1584031255
 20
-33.2365023223
 30
0.0
  0
VERTEX
  5
644
  8
0
  6
CONTINUOUS
 62
     7
 10
300.3010916383
 20
-33.3084004251
 30
0.0
  0
VERTEX
  5
645
  8
0
  6
CONTINUOUS
 62
     7
 10
299.4572090776
 20
-33.3742039529
 30
0.0
  0
VERTEX
  5
646
  8
0
  6
CONTINUOUS
 62
     7
 10
298.6218559415
 20
-33.4384454665
 30
0.0
  0
VERTEX
  5
647
  8
0
  6
CONTINUOUS
 62
     7
 10
297.7677035005
 20
-33.5069386539
 30
0.0
  0
VERTEX
  5
648
  8
0
  6
CONTINUOUS
 62
     7
 10
296.8904661805
 20
-33.5761232552
 30
0.0
  0
VERTEX
  5
649
  8
0
  6
CONTINUOUS
 62
     7
 10
295.9898638398
 20
-33.6427131919
 30
0.0
  0
VERTEX
  5
64A
  8
0
  6
CONTINUOUS
 62
     7
 10
295.0657236249
 20
-33.7061723945
 30
0.0
  0
VERTEX
  5
64B
  8
0
  6
CONTINUOUS
 62
     7
 10
294.1180395753
 20
-33.7667340664
 30
0.0
  0
VERTEX
  5
64C
  8
0
  6
CONTINUOUS
 62
     7
 10
293.2370650441
 20
-33.8193325577
 30
0.0
  0
VERTEX
  5
64D
  8
0
  6
CONTINUOUS
 62
     7
 10
292.5735222967
 20
-33.8569997129
 30
0.0
  0
VERTEX
  5
64E
  8
0
  6
CONTINUOUS
 62
     7
 10
292.0737075479
 20
-33.8843247173
 30
0.0
  0
VERTEX
  5
64F
  8
0
  6
CONTINUOUS
 62
     7
 10
291.4575445325
 20
-33.9168636379
 30
0.0
  0
VERTEX
  5
650
  8
0
  6
CONTINUOUS
 62
     7
 10
290.6849312456
 20
-33.9559706179
 30
0.0
  0
VERTEX
  5
651
  8
0
  6
CONTINUOUS
 62
     7
 10
289.7557961614
 20
-34.0005995957
 30
0.0
  0
VERTEX
  5
652
  8
0
  6
CONTINUOUS
 62
     7
 10
288.6701035173
 20
-34.0495316563
 30
0.0
  0
VERTEX
  5
653
  8
0
  6
CONTINUOUS
 62
     7
 10
287.011496988
 20
-34.1177938757
 30
0.0
  0
VERTEX
  5
654
  8
0
  6
CONTINUOUS
 62
     7
 10
285.0923287542
 20
-34.1873238114
 30
0.0
  0
VERTEX
  5
655
  8
0
  6
CONTINUOUS
 62
     7
 10
283.0903875501
 20
-34.2495607463
 30
0.0
  0
VERTEX
  5
656
  8
0
  6
CONTINUOUS
 62
     7
 10
277.6779400976
 20
-34.3687823293
 30
0.0
  0
VERTEX
  5
657
  8
0
  6
CONTINUOUS
 62
     7
 10
272.1934127481
 20
-34.4211494801
 30
0.0
  0
VERTEX
  5
658
  8
0
  6
CONTINUOUS
 62
     7
 10
268.6662065656
 20
-34.4197007147
 30
0.0
  0
VERTEX
  5
659
  8
0
  6
CONTINUOUS
 62
     7
 10
265.110497442
 20
-34.3904229132
 30
0.0
  0
VERTEX
  5
65A
  8
0
  6
CONTINUOUS
 62
     7
 10
261.6311239869
 20
-34.3341263262
 30
0.0
  0
VERTEX
  5
65B
  8
0
  6
CONTINUOUS
 62
     7
 10
258.4029215247
 20
-34.2564953742
 30
0.0
  0
VERTEX
  5
65C
  8
0
  6
CONTINUOUS
 62
     7
 10
256.8133163125
 20
-34.20892826
 30
0.0
  0
VERTEX
  5
65D
  8
0
  6
CONTINUOUS
 62
     7
 10
255.2934097917
 20
-34.1574399052
 30
0.0
  0
VERTEX
  5
65E
  8
0
  6
CONTINUOUS
 62
     7
 10
253.8432049424
 20
-34.1026293365
 30
0.0
  0
VERTEX
  5
65F
  8
0
  6
CONTINUOUS
 62
     7
 10
252.4627077253
 20
-34.0450732288
 30
0.0
  0
VERTEX
  5
660
  8
0
  6
CONTINUOUS
 62
     7
 10
251.1519151599
 20
-33.9853337285
 30
0.0
  0
VERTEX
  5
661
  8
0
  6
CONTINUOUS
 62
     7
 10
249.9613153608
 20
-33.9265590784
 30
0.0
  0
VERTEX
  5
662
  8
0
  6
CONTINUOUS
 62
     7
 10
249.1410332591
 20
-33.8834466664
 30
0.0
  0
VERTEX
  5
663
  8
0
  6
CONTINUOUS
 62
     7
 10
248.5043751867
 20
-33.8484445838
 30
0.0
  0
VERTEX
  5
664
  8
0
  6
CONTINUOUS
 62
     7
 10
248.2548850448
 20
-33.8343424973
 30
0.0
  0
VERTEX
  5
665
  8
0
  6
CONTINUOUS
 62
     7
 10
248.0257081659
 20
-33.8211430488
 30
0.0
  0
VERTEX
  5
666
  8
0
  6
CONTINUOUS
 62
     7
 10
247.7587985666
 20
-33.8054677722
 30
0.0
  0
VERTEX
  5
667
  8
0
  6
CONTINUOUS
 62
     7
 10
247.4519449146
 20
-33.7874109176
 30
0.0
  0
VERTEX
  5
668
  8
0
  6
CONTINUOUS
 62
     7
 10
246.8779313238
 20
-33.754223424
 30
0.0
  0
VERTEX
  5
669
  8
0
  6
CONTINUOUS
 62
     7
 10
246.2017047078
 20
-33.7146992115
 30
0.0
  0
VERTEX
  5
66A
  8
0
  6
CONTINUOUS
 62
     7
 10
245.4326080949
 20
-33.6674271402
 30
0.0
  0
VERTEX
  5
66B
  8
0
  6
CONTINUOUS
 62
     7
 10
244.6228819759
 20
-33.613706219
 30
0.0
  0
VERTEX
  5
66C
  8
0
  6
CONTINUOUS
 62
     7
 10
243.7806504638
 20
-33.553374025
 30
0.0
  0
VERTEX
  5
66D
  8
0
  6
CONTINUOUS
 62
     7
 10
242.304952708
 20
-33.4368119267
 30
0.0
  0
VERTEX
  5
66E
  8
0
  6
CONTINUOUS
 62
     7
 10
240.7396572502
 20
-33.2980880765
 30
0.0
  0
VERTEX
  5
66F
  8
0
  6
CONTINUOUS
 62
     7
 10
239.0771048934
 20
-33.1338903186
 30
0.0
  0
VERTEX
  5
670
  8
0
  6
CONTINUOUS
 62
     7
 10
237.6964080007
 20
-32.9846961675
 30
0.0
  0
VERTEX
  5
671
  8
0
  6
CONTINUOUS
 62
     7
 10
236.1781823308
 20
-32.8083614138
 30
0.0
  0
VERTEX
  5
672
  8
0
  6
CONTINUOUS
 62
     7
 10
234.5227273972
 20
-32.6026415703
 30
0.0
  0
VERTEX
  5
673
  8
0
  6
CONTINUOUS
 62
     7
 10
233.1771585018
 20
-32.4247425673
 30
0.0
  0
SEQEND
  5
853
  8
0
  6
CONTINUOUS
 62
     7
  0
LINE
  5
293
  8
0
  6
CONTINUOUS
 62
     7
 10
233.0295177967
 20
-33.4863281128
 30
0.0
 11
233.0151560576
 21
-33.5496297357
 31
0.0
  0
LINE
  5
294
  8
0
  6
CONTINUOUS
 62
     7
 10
233.1632378371
 20
-32.4218498794
 30
0.0
 11
233.159913388
 21
-32.4488451955
 31
0.0
  0
POLYLINE
  5
295
  8
0
  6
CONTINUOUS
 62
     7
 66
     1
 10
0.0
 20
0.0
 30
0.0
  0
VERTEX
  5
674
  8
0
  6
CONTINUOUS
 62
     7
 10
233.127562967
 20
-32.7115183947
 30
0.0
  0
VERTEX
  5
675
  8
0
  6
CONTINUOUS
 62
     7
 10
233.0920654209
 20
-32.999737027
 30
0.0
  0
VERTEX
  5
676
  8
0
  6
CONTINUOUS
 62
     7
 10
233.0153616936
 20
-33.5964558897
 30
0.0
  0
SEQEND
  5
852
  8
0
  6
CONTINUOUS
 62
     7
  0
POLYLINE
  5
296
  8
0
  6
CONTINUOUS
 62
     7
 66
     1
 10
0.0
 20
0.0
 30
0.0
  0
VERTEX
  5
677
  8
0
  6
CONTINUOUS
 62
     7
 10
308.2160102994
 20
-33.59806447
 30
0.0
  0
VERTEX
  5
678
  8
0
  6
CONTINUOUS
 62
     7
 10
308.1391977937
 20
-33.0005323765
 30
0.0
  0
VERTEX
  5
679
  8
0
  6
CONTINUOUS
 62
     7
 10
308.1042158277
 20
-32.7165087936
 30
0.0
  0
SEQEND
  5
851
  8
0
  6
CONTINUOUS
 62
     7
  0
LINE
  5
297
  8
0
  6
CONTINUOUS
 62
     7
 10
308.0701279313
 20
-32.4397554872
 30
0.0
 11
308.0679225595
 21
-32.4218506244
 31
0.0
  0
LINE
  5
298
  8
0
  6
CONTINUOUS
 62
     7
 10
308.216004339
 20
-33.5496315983
 30
0.0
 11
308.2016515405
 21
-33.486368346
 31
0.0
  0
LINE
  5
299
  8
0
  6
CONTINUOUS
 62
     7
 10
232.915580538
 20
-43.9401788888
 30
0.0
 11
233.7155806691
 21
-43.9401788888
 31
0.0
  0
LINE
  5
29A
  8
0
  6
CONTINUOUS
 62
     7
 10
232.915580538
 20
-44.0091030923
 30
0.0
 11
249.3155795009
 21
-44.0091030923
 31
0.0
  0
LINE
  5
29B
  8
0
  6
CONTINUOUS
 62
     7
 10
249.3155795009
 20
-31.8091033277
 30
0.0
 11
232.915580538
 21
-31.8091033277
 31
0.0
  0
LINE
  5
29C
  8
0
  6
CONTINUOUS
 62
     7
 10
356.5964030893
 20
-44.0091030923
 30
0.0
 11
369.315581289
 21
-44.0091030923
 31
0.0
  0
LINE
  5
29D
  8
0
  6
CONTINUOUS
 62
     7
 10
369.315581289
 20
-31.8091033277
 30
0.0
 11
352.9155778558
 21
-31.8091033277
 31
0.0
  0
LINE
  5
29E
  8
0
  6
CONTINUOUS
 62
     7
 10
-7.0844245284
 20
-43.9401788888
 30
0.0
 11
-6.2844109862
 21
-43.9401788888
 31
0.0
  0
LINE
  5
29F
  8
0
  6
CONTINUOUS
 62
     7
 10
-7.0844245284
 20
-44.0091030923
 30
0.0
 11
9.3155789049
 21
-44.0091030923
 31
0.0
  0
LINE
  5
2A0
  8
0
  6
CONTINUOUS
 62
     7
 10
9.3155789049
 20
-31.8091033277
 30
0.0
 11
-7.0844245284
 21
-31.8091033277
 31
0.0
  0
LINE
  5
2A1
  8
0
  6
CONTINUOUS
 62
     7
 10
112.91558024
 20
-43.9401788888
 30
0.0
 11
113.7155818612
 21
-43.9401788888
 31
0.0
  0
LINE
  5
2A2
  8
0
  6
CONTINUOUS
 62
     7
 10
112.91558024
 20
-44.0091030923
 30
0.0
 11
129.3155777128
 21
-44.0091030923
 31
0.0
  0
LINE
  5
2A3
  8
0
  6
CONTINUOUS
 62
     7
 10
129.3155777128
 20
-31.8091033277
 30
0.0
 11
112.91558024
 21
-31.8091033277
 31
0.0
  0
LINE
  5
2A4
  8
0
  6
CONTINUOUS
 62
     7
 10
428.3155846269
 20
-31.8091033277
 30
0.0
 11
411.9155811937
 21
-31.8091033277
 31
0.0
  0
LINE
  5
2A5
  8
0
  6
CONTINUOUS
 62
     7
 10
411.9155811937
 20
-44.0091030923
 30
0.0
 11
424.6347593934
 21
-44.0091030923
 31
0.0
  0
LINE
  5
2A6
  8
0
  6
CONTINUOUS
 62
     7
 10
67.5155806215
 20
-43.9401788888
 30
0.0
 11
68.3155822427
 21
-43.9401788888
 31
0.0
  0
LINE
  5
2A7
  8
0
  6
CONTINUOUS
 62
     7
 10
68.3155822427
 20
-31.8091033277
 30
0.0
 11
51.9155788095
 21
-31.8091033277
 31
0.0
  0
LINE
  5
2A8
  8
0
  6
CONTINUOUS
 62
     7
 10
51.9155788095
 20
-44.0091030923
 30
0.0
 11
68.3155822427
 21
-44.0091030923
 31
0.0
  0
LINE
  5
2A9
  8
0
  6
CONTINUOUS
 62
     7
 10
307.5155782373
 20
-43.9401788888
 30
0.0
 11
308.3155798585
 21
-43.9401788888
 31
0.0
  0
LINE
  5
2AA
  8
0
  6
CONTINUOUS
 62
     7
 10
308.3155798585
 20
-31.8091033277
 30
0.0
 11
291.9155823858
 21
-31.8091033277
 31
0.0
  0
LINE
  5
2AB
  8
0
  6
CONTINUOUS
 62
     7
 10
291.9155823858
 20
-44.0091030923
 30
0.0
 11
308.3155798585
 21
-44.0091030923
 31
0.0
  0
LINE
  5
2AC
  8
0
  6
CONTINUOUS
 62
     7
 10
187.5155794294
 20
-43.9401788888
 30
0.0
 11
188.3155795605
 21
-43.9401788888
 31
0.0
  0
LINE
  5
2AD
  8
0
  6
CONTINUOUS
 62
     7
 10
188.3155795605
 20
-31.8091033277
 30
0.0
 11
171.9155805976
 21
-31.8091033277
 31
0.0
  0
LINE
  5
2AE
  8
0
  6
CONTINUOUS
 62
     7
 10
171.9155805976
 20
-44.0091030923
 30
0.0
 11
188.3155795605
 21
-44.0091030923
 31
0.0
  0
LINE
  5
2AF
  8
0
  6
CONTINUOUS
 62
     7
 10
68.6155843408
 20
-44.3091029552
 30
0.0
 11
72.0155763299
 21
-44.3091029552
 31
0.0
  0
LINE
  5
2B0
  8
0
  6
CONTINUOUS
 62
     7
 10
68.6155843408
 20
-31.9091031579
 30
0.0
 11
68.3155822427
 21
-31.9091031579
 31
0.0
  0
LINE
  5
2B1
  8
0
  6
CONTINUOUS
 62
     7
 10
51.9155788095
 20
-31.9091031579
 30
0.0
 11
51.2155818612
 21
-31.9091031579
 31
0.0
  0
LINE
  5
2B2
  8
0
  6
CONTINUOUS
 62
     7
 10
51.2155818612
 20
-43.9091032622
 30
0.0
 11
51.9155788095
 21
-43.9091032622
 31
0.0
  0
LINE
  5
2B3
  8
0
  6
CONTINUOUS
 62
     7
 10
68.3155822427
 20
-43.9091032622
 30
0.0
 11
68.6155843408
 21
-43.9091032622
 31
0.0
  0
LINE
  5
2B4
  8
0
  6
CONTINUOUS
 62
     7
 10
72.0155763299
 20
-29.3091031042
 30
0.0
 11
68.6155843408
 21
-29.3091031042
 31
0.0
  0
LINE
  5
2B5
  8
0
  6
CONTINUOUS
 62
     7
 10
188.6155801685
 20
-44.3091029552
 30
0.0
 11
192.0155796082
 21
-44.3091029552
 31
0.0
  0
LINE
  5
2B6
  8
0
  6
CONTINUOUS
 62
     7
 10
188.6155801685
 20
-31.9091031579
 30
0.0
 11
188.3155795605
 21
-31.9091031579
 31
0.0
  0
LINE
  5
2B7
  8
0
  6
CONTINUOUS
 62
     7
 10
171.9155805976
 20
-31.9091031579
 30
0.0
 11
171.2155806691
 21
-31.9091031579
 31
0.0
  0
LINE
  5
2B8
  8
0
  6
CONTINUOUS
 62
     7
 10
171.2155806691
 20
-43.9091032622
 30
0.0
 11
171.9155805976
 21
-43.9091032622
 31
0.0
  0
LINE
  5
2B9
  8
0
  6
CONTINUOUS
 62
     7
 10
188.3155795605
 20
-43.9091032622
 30
0.0
 11
188.6155801685
 21
-43.9091032622
 31
0.0
  0
LINE
  5
2BA
  8
0
  6
CONTINUOUS
 62
     7
 10
192.0155796082
 20
-29.3091031042
 30
0.0
 11
188.6155801685
 21
-29.3091031042
 31
0.0
  0
LINE
  5
2BB
  8
0
  6
CONTINUOUS
 62
     7
 10
428.615586725
 20
-44.3091029552
 30
0.0
 11
432.0155787141
 21
-44.3091029552
 31
0.0
  0
LINE
  5
2BC
  8
0
  6
CONTINUOUS
 62
     7
 10
428.615586725
 20
-31.9091031579
 30
0.0
 11
428.3155846269
 21
-31.9091031579
 31
0.0
  0
LINE
  5
2BD
  8
0
  6
CONTINUOUS
 62
     7
 10
411.9155811937
 20
-31.9091031579
 30
0.0
 11
411.2155842454
 21
-31.9091031579
 31
0.0
  0
LINE
  5
2BE
  8
0
  6
CONTINUOUS
 62
     7
 10
411.2155842454
 20
-43.9091032622
 30
0.0
 11
411.9155811937
 21
-43.9091032622
 31
0.0
  0
LINE
  5
2BF
  8
0
  6
CONTINUOUS
 62
     7
 10
428.3155846269
 20
-43.9091032622
 30
0.0
 11
428.615586725
 21
-43.9091032622
 31
0.0
  0
LINE
  5
2C0
  8
0
  6
CONTINUOUS
 62
     7
 10
432.0155787141
 20
-29.3091031042
 30
0.0
 11
428.615586725
 21
-29.3091031042
 31
0.0
  0
LINE
  5
2C1
  8
0
  6
CONTINUOUS
 62
     7
 10
308.6155819566
 20
-44.3091029552
 30
0.0
 11
312.0155858667
 21
-44.3091029552
 31
0.0
  0
LINE
  5
2C2
  8
0
  6
CONTINUOUS
 62
     7
 10
308.6155819566
 20
-31.9091031579
 30
0.0
 11
308.3155798585
 21
-31.9091031579
 31
0.0
  0
LINE
  5
2C3
  8
0
  6
CONTINUOUS
 62
     7
 10
291.9155823858
 20
-31.9091031579
 30
0.0
 11
291.2155794771
 21
-31.9091031579
 31
0.0
  0
LINE
  5
2C4
  8
0
  6
CONTINUOUS
 62
     7
 10
291.2155794771
 20
-43.9091032622
 30
0.0
 11
291.9155823858
 21
-43.9091032622
 31
0.0
  0
LINE
  5
2C5
  8
0
  6
CONTINUOUS
 62
     7
 10
308.3155798585
 20
-43.9091032622
 30
0.0
 11
308.6155819566
 21
-43.9091032622
 31
0.0
  0
LINE
  5
2C6
  8
0
  6
CONTINUOUS
 62
     7
 10
312.0155858667
 20
-29.3091031042
 30
0.0
 11
308.6155819566
 21
-29.3091031042
 31
0.0
  0
LINE
  5
2C7
  8
0
  6
CONTINUOUS
 62
     7
 10
229.2155804903
 20
-44.3091029552
 30
0.0
 11
232.6155799301
 21
-44.3091029552
 31
0.0
  0
LINE
  5
2C8
  8
0
  6
CONTINUOUS
 62
     7
 10
232.6155799301
 20
-43.9091032622
 30
0.0
 11
232.915580538
 21
-43.9091032622
 31
0.0
  0
LINE
  5
2C9
  8
0
  6
CONTINUOUS
 62
     7
 10
249.3155795009
 20
-43.9091032622
 30
0.0
 11
250.0155794294
 21
-43.9091032622
 31
0.0
  0
LINE
  5
2CA
  8
0
  6
CONTINUOUS
 62
     7
 10
250.0155794294
 20
-31.9091031579
 30
0.0
 11
249.3155795009
 21
-31.9091031579
 31
0.0
  0
LINE
  5
2CB
  8
0
  6
CONTINUOUS
 62
     7
 10
232.915580538
 20
-31.9091031579
 30
0.0
 11
232.6155799301
 21
-31.9091031579
 31
0.0
  0
LINE
  5
2CC
  8
0
  6
CONTINUOUS
 62
     7
 10
232.6155799301
 20
-29.3091031042
 30
0.0
 11
229.2155804903
 21
-29.3091031042
 31
0.0
  0
LINE
  5
2CD
  8
0
  6
CONTINUOUS
 62
     7
 10
-10.7844186156
 20
-44.3091029552
 30
0.0
 11
-7.3844266265
 21
-44.3091029552
 31
0.0
  0
LINE
  5
2CE
  8
0
  6
CONTINUOUS
 62
     7
 10
-7.3844266265
 20
-43.9091032622
 30
0.0
 11
-7.0844245284
 21
-43.9091032622
 31
0.0
  0
LINE
  5
2CF
  8
0
  6
CONTINUOUS
 62
     7
 10
9.3155789049
 20
-43.9091032622
 30
0.0
 11
10.0155758531
 21
-43.9091032622
 31
0.0
  0
LINE
  5
2D0
  8
0
  6
CONTINUOUS
 62
     7
 10
10.0155758531
 20
-31.9091031579
 30
0.0
 11
9.3155789049
 21
-31.9091031579
 31
0.0
  0
LINE
  5
2D1
  8
0
  6
CONTINUOUS
 62
     7
 10
-7.0844245284
 20
-31.9091031579
 30
0.0
 11
-7.3844266265
 21
-31.9091031579
 31
0.0
  0
LINE
  5
2D2
  8
0
  6
CONTINUOUS
 62
     7
 10
-7.3844266265
 20
-29.3091031042
 30
0.0
 11
-10.7844186156
 21
-29.3091031042
 31
0.0
  0
LINE
  5
2D3
  8
0
  6
CONTINUOUS
 62
     7
 10
349.2155837686
 20
-44.3091029552
 30
0.0
 11
352.6155757577
 21
-44.3091029552
 31
0.0
  0
LINE
  5
2D4
  8
0
  6
CONTINUOUS
 62
     7
 10
352.6155757577
 20
-43.9091032622
 30
0.0
 11
352.9155778558
 21
-43.9091032622
 31
0.0
  0
LINE
  5
2D5
  8
0
  6
CONTINUOUS
 62
     7
 10
369.315581289
 20
-43.9091032622
 30
0.0
 11
370.0155782373
 21
-43.9091032622
 31
0.0
  0
LINE
  5
2D6
  8
0
  6
CONTINUOUS
 62
     7
 10
370.0155782373
 20
-31.9091031579
 30
0.0
 11
369.315581289
 21
-31.9091031579
 31
0.0
  0
LINE
  5
2D7
  8
0
  6
CONTINUOUS
 62
     7
 10
352.9155778558
 20
-31.9091031579
 30
0.0
 11
352.6155757577
 21
-31.9091031579
 31
0.0
  0
LINE
  5
2D8
  8
0
  6
CONTINUOUS
 62
     7
 10
352.6155757577
 20
-29.3091031042
 30
0.0
 11
349.2155837686
 21
-29.3091031042
 31
0.0
  0
LINE
  5
2D9
  8
0
  6
CONTINUOUS
 62
     7
 10
109.2155742318
 20
-44.3091029552
 30
0.0
 11
112.6155781419
 21
-44.3091029552
 31
0.0
  0
LINE
  5
2DA
  8
0
  6
CONTINUOUS
 62
     7
 10
112.6155781419
 20
-43.9091032622
 30
0.0
 11
112.91558024
 21
-43.9091032622
 31
0.0
  0
LINE
  5
2DB
  8
0
  6
CONTINUOUS
 62
     7
 10
129.3155777128
 20
-43.9091032622
 30
0.0
 11
130.0155806215
 21
-43.9091032622
 31
0.0
  0
LINE
  5
2DC
  8
0
  6
CONTINUOUS
 62
     7
 10
130.0155806215
 20
-31.9091031579
 30
0.0
 11
129.3155777128
 21
-31.9091031579
 31
0.0
  0
LINE
  5
2DD
  8
0
  6
CONTINUOUS
 62
     7
 10
112.91558024
 20
-31.9091031579
 30
0.0
 11
112.6155781419
 21
-31.9091031579
 31
0.0
  0
LINE
  5
2DE
  8
0
  6
CONTINUOUS
 62
     7
 10
112.6155781419
 20
-29.3091031042
 30
0.0
 11
109.2155742318
 21
-29.3091031042
 31
0.0
  0
LINE
  5
2DF
  8
0
  6
CONTINUOUS
 62
     7
 10
-12.9844260543
 20
-33.809103283
 30
0.0
 11
-12.9844260543
 21
-33.2091031847
 31
0.0
  0
ARC
  5
2E0
  8
0
  6
CONTINUOUS
 62
     7
 10
-12.5844199507
 20
-33.2091031936
 30
0.0
 40
0.3999999999999986
 50
90.0
 51
180.0
  0
LINE
  5
2E1
  8
0
  6
CONTINUOUS
 62
     7
 10
434.2155861528
 20
-33.2091031847
 30
0.0
 11
434.2155861528
 21
-33.809103283
 31
0.0
  0
ARC
  5
2E2
  8
0
  6
CONTINUOUS
 62
     7
 10
433.8155800493
 20
-33.2091031936
 30
0.0
 40
0.3999999999999986
 50
0.0
 51
90.0
  0
LINE
  5
2E3
  8
0
  6
CONTINUOUS
 62
     7
 10
-12.5844312041
 20
-32.8091031191
 30
0.0
 11
-10.7844186156
 21
-32.8091031191
 31
0.0
  0
LINE
  5
2E4
  8
0
  6
CONTINUOUS
 62
     7
 10
10.0155758531
 20
-32.8091031191
 30
0.0
 11
51.2155818612
 21
-32.8091031191
 31
0.0
  0
LINE
  5
2E5
  8
0
  6
CONTINUOUS
 62
     7
 10
72.0155763299
 20
-32.8091031191
 30
0.0
 11
109.2155742318
 21
-32.8091031191
 31
0.0
  0
LINE
  5
2E6
  8
0
  6
CONTINUOUS
 62
     7
 10
130.0155806215
 20
-32.8091031191
 30
0.0
 11
171.2155806691
 21
-32.8091031191
 31
0.0
  0
LINE
  5
2E7
  8
0
  6
CONTINUOUS
 62
     7
 10
192.0155796082
 20
-32.8091031191
 30
0.0
 11
229.2155804903
 21
-32.8091031191
 31
0.0
  0
LINE
  5
2E8
  8
0
  6
CONTINUOUS
 62
     7
 10
250.0155794294
 20
-32.8091031191
 30
0.0
 11
291.2155794771
 21
-32.8091031191
 31
0.0
  0
LINE
  5
2E9
  8
0
  6
CONTINUOUS
 62
     7
 10
312.0155858667
 20
-32.8091031191
 30
0.0
 11
349.2155837686
 21
-32.8091031191
 31
0.0
  0
LINE
  5
2EA
  8
0
  6
CONTINUOUS
 62
     7
 10
370.0155782373
 20
-32.8091031191
 30
0.0
 11
411.2155842454
 21
-32.8091031191
 31
0.0
  0
LINE
  5
2EB
  8
0
  6
CONTINUOUS
 62
     7
 10
432.0155787141
 20
-32.8091031191
 30
0.0
 11
433.8155913026
 21
-32.8091031191
 31
0.0
  0
LINE
  5
2EC
  8
0
  6
CONTINUOUS
 62
     7
 10
-12.9844260543
 20
-41.8091031042
 30
0.0
 11
-12.9844260543
 21
-33.809103283
 31
0.0
  0
LINE
  5
2ED
  8
0
  6
CONTINUOUS
 62
     7
 10
434.2155861528
 20
-33.809103283
 30
0.0
 11
434.2155861528
 21
-41.8091031042
 31
0.0
  0
LINE
  5
2EE
  8
0
  6
CONTINUOUS
 62
     7
 10
434.2155861528
 20
-41.8091031042
 30
0.0
 11
434.2155861528
 21
-42.4091032026
 31
0.0
  0
ARC
  5
2EF
  8
0
  6
CONTINUOUS
 62
     7
 10
433.8155800493
 20
-42.4091031936
 30
0.0
 40
0.3999999999999986
 50
270.0
 51
0.0
  0
LINE
  5
2F0
  8
0
  6
CONTINUOUS
 62
     7
 10
433.8155913026
 20
-42.8091032681
 30
0.0
 11
432.0155787141
 21
-42.8091032681
 31
0.0
  0
LINE
  5
2F1
  8
0
  6
CONTINUOUS
 62
     7
 10
411.2155842454
 20
-42.8091032681
 30
0.0
 11
400.4825758607
 21
-42.8091032681
 31
0.0
  0
LINE
  5
2F2
  8
0
  6
CONTINUOUS
 62
     7
 10
380.8675098092
 20
-42.8091032681
 30
0.0
 11
370.0155782373
 21
-42.8091032681
 31
0.0
  0
LINE
  5
2F3
  8
0
  6
CONTINUOUS
 62
     7
 10
349.2155837686
 20
-42.8091032681
 30
0.0
 11
312.0155858667
 21
-42.8091032681
 31
0.0
  0
LINE
  5
2F4
  8
0
  6
CONTINUOUS
 62
     7
 10
291.2155794771
 20
-42.8091032681
 30
0.0
 11
250.0155794294
 21
-42.8091032681
 31
0.0
  0
LINE
  5
2F5
  8
0
  6
CONTINUOUS
 62
     7
 10
229.2155804903
 20
-42.8091032681
 30
0.0
 11
192.0155796082
 21
-42.8091032681
 31
0.0
  0
LINE
  5
2F6
  8
0
  6
CONTINUOUS
 62
     7
 10
171.2155806691
 20
-42.8091032681
 30
0.0
 11
130.0155806215
 21
-42.8091032681
 31
0.0
  0
LINE
  5
2F7
  8
0
  6
CONTINUOUS
 62
     7
 10
109.2155742318
 20
-42.8091032681
 30
0.0
 11
72.0155763299
 21
-42.8091032681
 31
0.0
  0
LINE
  5
2F8
  8
0
  6
CONTINUOUS
 62
     7
 10
51.2155818612
 20
-42.8091032681
 30
0.0
 11
10.0155758531
 21
-42.8091032681
 31
0.0
  0
LINE
  5
2F9
  8
0
  6
CONTINUOUS
 62
     7
 10
-10.7844186156
 20
-42.8091032681
 30
0.0
 11
-12.5844312041
 21
-42.8091032681
 31
0.0
  0
ARC
  5
2FA
  8
0
  6
CONTINUOUS
 62
     7
 10
-12.5844199507
 20
-42.4091031936
 30
0.0
 40
0.3999999999999986
 50
180.0
 51
270.0
  0
LINE
  5
2FB
  8
0
  6
CONTINUOUS
 62
     7
 10
-12.9844260543
 20
-42.4091032026
 30
0.0
 11
-12.9844260543
 21
-41.8091031042
 31
0.0
  0
ARC
  5
2FC
  8
0
  6
CONTINUOUS
 62
     7
 10
27.2012957638
 20
-57.8091031936
 30
0.0
 40
4.000000000000023
 50
200.0051900882
 51
270.0
  0
ARC
  5
2FD
  8
0
  6
CONTINUOUS
 62
     7
 10
98.6155800493
 20
-31.8091031936
 30
0.0
 40
80.0
 50
187.9032077335
 51
200.0051900882
  0
LINE
  5
2FE
  8
0
  6
CONTINUOUS
 62
     7
 10
18.6218309076
 20
-32.8091031191
 30
0.0
 11
18.6155843408
 21
-31.8091033277
 31
0.0
  0
LINE
  5
2FF
  8
0
  6
CONTINUOUS
 62
     7
 10
18.6155843408
 20
-29.8091033724
 30
0.0
 11
18.6155843408
 21
-31.8091033277
 31
0.0
  0
ARC
  5
300
  8
0
  6
CONTINUOUS
 62
     7
 10
22.6155800493
 20
-29.8091031936
 30
0.0
 40
4.000000000000004
 50
90.0
 51
180.0
  0
LINE
  5
301
  8
0
  6
CONTINUOUS
 62
     7
 10
38.6155771882
 20
-25.8091034619
 30
0.0
 11
22.6155805261
 21
-25.8091034619
 31
0.0
  0
ARC
  5
302
  8
0
  6
CONTINUOUS
 62
     7
 10
38.6155800493
 20
-29.8091031936
 30
0.0
 40
4.000000000000007
 50
0.0
 51
90.0
  0
LINE
  5
303
  8
0
  6
CONTINUOUS
 62
     7
 10
42.6155852945
 20
-31.8091033277
 30
0.0
 11
42.6155852945
 21
-29.8091033724
 31
0.0
  0
LINE
  5
304
  8
0
  6
CONTINUOUS
 62
     7
 10
42.6155852945
 20
-31.8091033277
 30
0.0
 11
42.6093268068
 21
-32.8091031191
 31
0.0
  0
ARC
  5
305
  8
0
  6
CONTINUOUS
 62
     7
 10
-37.3844199507
 20
-31.8091031936
 30
0.0
 40
80.0
 50
339.9948099118
 51
352.0967922665
  0
ARC
  5
306
  8
0
  6
CONTINUOUS
 62
     7
 10
34.0298643347
 20
-57.8091031936
 30
0.0
 40
4.0
 50
270.0
 51
339.9948099118
  0
LINE
  5
307
  8
0
  6
CONTINUOUS
 62
     7
 10
27.2012996347
 20
-61.8091026572
 30
0.0
 11
34.0298700006
 21
-61.8091026572
 31
0.0
  0
CIRCLE
  5
308
  8
0
  6
CONTINUOUS
 62
     7
 10
22.6155800493
 20
-29.8091031936
 30
0.0
 40
1.500000000000014
  0
CIRCLE
  5
309
  8
0
  6
CONTINUOUS
 62
     7
 10
38.6155800493
 20
-29.8091031936
 30
0.0
 40
1.500000000000007
  0
CIRCLE
  5
30A
  8
0
  6
CONTINUOUS
 62
     7
 10
30.6155800493
 20
-57.8091031936
 30
0.0
 40
1.500000000000014
  0
ARC
  5
30B
  8
0
  6
CONTINUOUS
 62
     7
 10
398.6155800493
 20
-29.8091031936
 30
0.0
 40
4.000000000000004
 50
0.0
 51
90.0
  0
LINE
  5
30C
  8
0
  6
CONTINUOUS
 62
     7
 10
402.6155757577
 20
-31.8091033277
 30
0.0
 11
402.6155757577
 21
-29.8091033724
 31
0.0
  0
LINE
  5
30D
  8
0
  6
CONTINUOUS
 62
     7
 10
402.6155757577
 20
-31.8091033277
 30
0.0
 11
402.609329191
 21
-32.8091031191
 31
0.0
  0
LINE
  5
30E
  8
0
  6
CONTINUOUS
 62
     7
 10
401.8557238252
 20
-42.8091032681
 30
0.0
 11
401.8293070466
 21
-42.9977441457
 31
0.0
  0
LINE
  5
30F
  8
0
  6
CONTINUOUS
 62
     7
 10
379.4038700731
 20
-43.0120283989
 30
0.0
 11
379.3754386575
 21
-42.8091032681
 31
0.0
  0
LINE
  5
310
  8
0
  6
CONTINUOUS
 62
     7
 10
378.6218332918
 20
-32.8091031191
 30
0.0
 11
378.6155748041
 21
-31.8091033277
 31
0.0
  0
LINE
  5
311
  8
0
  6
CONTINUOUS
 62
     7
 10
378.6155748041
 20
-29.8091033724
 30
0.0
 11
378.6155748041
 21
-31.8091033277
 31
0.0
  0
ARC
  5
312
  8
0
  6
CONTINUOUS
 62
     7
 10
382.6155800493
 20
-29.8091031936
 30
0.0
 40
4.000000000000004
 50
90.0
 51
180.0
  0
LINE
  5
313
  8
0
  6
CONTINUOUS
 62
     7
 10
398.6155795724
 20
-25.8091034619
 30
0.0
 11
382.6155829103
 21
-25.8091034619
 31
0.0
  0
CIRCLE
  5
314
  8
0
  6
CONTINUOUS
 62
     7
 10
398.6155800493
 20
-29.8091031936
 30
0.0
 40
1.500000000000007
  0
CIRCLE
  5
315
  8
0
  6
CONTINUOUS
 62
     7
 10
382.6155800493
 20
-29.8091031936
 30
0.0
 40
1.500000000000014
  0
ARC
  5
316
  8
0
  6
CONTINUOUS
 62
     7
 10
390.6155827225
 20
-116.0402688207
 30
0.0
 40
73.90419959464519
 50
90.0000057693
 51
115.0850092777
  0
LINE
  5
317
  8
0
  6
CONTINUOUS
 62
     7
 10
358.886175123
 20
-49.2939176289
 30
0.0
 11
359.2829751642
 21
-49.1067314771
 31
0.0
  0
LINE
  5
318
  8
0
  6
CONTINUOUS
 62
     7
 10
422.3449873597
 20
-49.2939176289
 30
0.0
 11
421.9481873185
 21
-49.1067314771
 31
0.0
  0
ARC
  5
319
  8
0
  6
CONTINUOUS
 62
     7
 10
390.615579124
 20
-116.04027168
 30
0.0
 40
73.90420245397637
 50
64.9149912154
 51
90.0000029795
  0
ARC
  5
31A
  8
0
  6
CONTINUOUS
 62
     7
 10
419.1263993057
 20
-55.8746048608
 30
0.0
 40
7.32562241048008
 50
15.5164872106
 51
63.9369236825
  0
ARC
  5
31B
  8
0
  6
CONTINUOUS
 62
     7
 10
418.7559690902
 20
-55.7076101139
 30
0.0
 40
7.332247676871037
 50
15.4884567495
 51
64.1913549159
  0
ARC
  5
31C
  8
0
  6
CONTINUOUS
 62
     7
 10
362.4454137625
 20
-55.6827635021
 30
0.0
 40
7.296931895082333
 50
115.6830766939
 51
164.6371116408
  0
ARC
  5
31D
  8
0
  6
CONTINUOUS
 62
     7
 10
362.0870481022
 20
-55.8598835688
 30
0.0
 40
7.304620918920127
 50
115.9889864379
 51
164.557602669
  0
POLYLINE
  5
31E
  8
0
  6
CONTINUOUS
 62
     7
 66
     1
 10
0.0
 20
0.0
 30
0.0
  0
VERTEX
  5
67A
  8
0
  6
CONTINUOUS
 62
     7
 10
353.0155110032
 20
-108.5980648426
 30
0.0
  0
VERTEX
  5
67B
  8
0
  6
CONTINUOUS
 62
     7
 10
353.015546766
 20
-107.3937589554
 30
0.0
  0
VERTEX
  5
67C
  8
0
  6
CONTINUOUS
 62
     7
 10
353.0156778962
 20
-106.1801785854
 30
0.0
  0
VERTEX
  5
67D
  8
0
  6
CONTINUOUS
 62
     7
 10
353.0161189706
 20
-103.8750523952
 30
0.0
  0
VERTEX
  5
67E
  8
0
  6
CONTINUOUS
 62
     7
 10
353.0165123613
 20
-101.5671188263
 30
0.0
  0
VERTEX
  5
67F
  8
0
  6
CONTINUOUS
 62
     7
 10
353.0155825288
 20
-96.9368631271
 30
0.0
  0
SEQEND
  5
850
  8
0
  6
CONTINUOUS
 62
     7
  0
LINE
  5
31F
  8
0
  6
CONTINUOUS
 62
     7
 10
353.0155825288
 20
-96.9368631271
 30
0.0
 11
353.0155825288
 21
-86.9374955324
 31
0.0
  0
LINE
  5
320
  8
0
  6
CONTINUOUS
 62
     7
 10
353.0155825288
 20
-86.9374955324
 30
0.0
 11
353.0186462076
 21
-85.9091038135
 31
0.0
  0
LINE
  5
321
  8
0
  6
CONTINUOUS
 62
     7
 10
353.0155825288
 20
-76.9360775379
 30
0.0
 11
353.0155825288
 21
-68.8212717203
 31
0.0
  0
POLYLINE
  5
322
  8
0
  6
CONTINUOUS
 62
     7
 66
     1
 10
0.0
 20
0.0
 30
0.0
  0
VERTEX
  5
680
  8
0
  6
CONTINUOUS
 62
     7
 10
354.5468616159
 20
-55.7149971155
 30
0.0
  0
VERTEX
  5
681
  8
0
  6
CONTINUOUS
 62
     7
 10
354.8513221414
 20
-54.5918384818
 30
0.0
  0
VERTEX
  5
682
  8
0
  6
CONTINUOUS
 62
     7
 10
355.0461339624
 20
-53.9148861793
 30
0.0
  0
SEQEND
  5
84F
  8
0
  6
CONTINUOUS
 62
     7
  0
POLYLINE
  5
323
  8
0
  6
CONTINUOUS
 62
     7
 66
     1
 10
0.0
 20
0.0
 30
0.0
  0
VERTEX
  5
683
  8
0
  6
CONTINUOUS
 62
     7
 10
355.4092335374
 20
-53.7495786575
 30
0.0
  0
VERTEX
  5
684
  8
0
  6
CONTINUOUS
 62
     7
 10
354.6348499925
 20
-56.4761514095
 30
0.0
  0
VERTEX
  5
685
  8
0
  6
CONTINUOUS
 62
     7
 10
354.0611791284
 20
-59.1832751659
 30
0.0
  0
VERTEX
  5
686
  8
0
  6
CONTINUOUS
 62
     7
 10
353.6997365625
 20
-61.9021723298
 30
0.0
  0
VERTEX
  5
687
  8
0
  6
CONTINUOUS
 62
     7
 10
353.4521031053
 20
-64.6274412302
 30
0.0
  0
VERTEX
  5
688
  8
0
  6
CONTINUOUS
 62
     7
 10
353.3001708658
 20
-67.3536086706
 30
0.0
  0
VERTEX
  5
689
  8
0
  6
CONTINUOUS
 62
     7
 10
353.2318281801
 20
-71.9025338319
 30
0.0
  0
VERTEX
  5
68A
  8
0
  6
CONTINUOUS
 62
     7
 10
353.2651114137
 20
-76.4532113699
 30
0.0
  0
VERTEX
  5
68B
  8
0
  6
CONTINUOUS
 62
     7
 10
353.2652663858
 20
-80.9994543222
 30
0.0
  0
VERTEX
  5
68C
  8
0
  6
CONTINUOUS
 62
     7
 10
353.2297777803
 20
-85.5504149822
 30
0.0
  0
VERTEX
  5
68D
  8
0
  6
CONTINUOUS
 62
     7
 10
353.1986760766
 20
-90.1107305912
 30
0.0
  0
VERTEX
  5
68E
  8
0
  6
CONTINUOUS
 62
     7
 10
353.1837510736
 20
-94.6436280636
 30
0.0
  0
VERTEX
  5
68F
  8
0
  6
CONTINUOUS
 62
     7
 10
353.1806993158
 20
-96.8903595833
 30
0.0
  0
VERTEX
  5
690
  8
0
  6
CONTINUOUS
 62
     7
 10
353.1792688043
 20
-99.1384798912
 30
0.0
  0
VERTEX
  5
691
  8
0
  6
CONTINUOUS
 62
     7
 10
353.1765508325
 20
-101.4138693241
 30
0.0
  0
VERTEX
  5
692
  8
0
  6
CONTINUOUS
 62
     7
 10
353.1688260705
 20
-103.7271553901
 30
0.0
  0
VERTEX
  5
693
  8
0
  6
CONTINUOUS
 62
     7
 10
353.1522798211
 20
-106.0882264999
 30
0.0
  0
VERTEX
  5
694
  8
0
  6
CONTINUOUS
 62
     7
 10
353.12377688
 20
-108.5104162124
 30
0.0
  0
SEQEND
  5
84E
  8
0
  6
CONTINUOUS
 62
     7
  0
POLYLINE
  5
324
  8
0
  6
CONTINUOUS
 62
     7
 66
     1
 10
0.0
 20
0.0
 30
0.0
  0
VERTEX
  5
695
  8
0
  6
CONTINUOUS
 62
     7
 10
425.8219408662
 20
-53.7495771674
 30
0.0
  0
VERTEX
  5
696
  8
0
  6
CONTINUOUS
 62
     7
 10
426.6796993883
 20
-56.8009415892
 30
0.0
  0
VERTEX
  5
697
  8
0
  6
CONTINUOUS
 62
     7
 10
427.2716927202
 20
-59.8346868781
 30
0.0
  0
VERTEX
  5
698
  8
0
  6
CONTINUOUS
 62
     7
 10
427.6315140397
 20
-62.8831321624
 30
0.0
  0
VERTEX
  5
699
  8
0
  6
CONTINUOUS
 62
     7
 10
427.8641390474
 20
-65.9358317283
 30
0.0
  0
VERTEX
  5
69A
  8
0
  6
CONTINUOUS
 62
     7
 10
427.9770064027
 20
-68.9905876545
 30
0.0
  0
VERTEX
  5
69B
  8
0
  6
CONTINUOUS
 62
     7
 10
427.9946255357
 20
-72.9948515323
 30
0.0
  0
VERTEX
  5
69C
  8
0
  6
CONTINUOUS
 62
     7
 10
427.962868181
 20
-76.9989932207
 30
0.0
  0
VERTEX
  5
69D
  8
0
  6
CONTINUOUS
 62
     7
 10
427.9658960969
 20
-80.9994543222
 30
0.0
  0
VERTEX
  5
69E
  8
0
  6
CONTINUOUS
 62
     7
 10
428.0059981019
 20
-86.0976780084
 30
0.0
  0
VERTEX
  5
69F
  8
0
  6
CONTINUOUS
 62
     7
 10
428.0373501451
 20
-91.2023181347
 30
0.0
  0
VERTEX
  5
6A0
  8
0
  6
CONTINUOUS
 62
     7
 10
428.0498432786
 20
-96.262943211
 30
0.0
  0
VERTEX
  5
6A1
  8
0
  6
CONTINUOUS
 62
     7
 10
428.0513453157
 20
-98.2368046669
 30
0.0
  0
VERTEX
  5
6A2
  8
0
  6
CONTINUOUS
 62
     7
 10
428.052799669
 20
-100.2265924839
 30
0.0
  0
VERTEX
  5
6A3
  8
0
  6
CONTINUOUS
 62
     7
 10
428.0566143663
 20
-102.2417539982
 30
0.0
  0
VERTEX
  5
6A4
  8
0
  6
CONTINUOUS
 62
     7
 10
428.0653404863
 20
-104.2891139415
 30
0.0
  0
VERTEX
  5
6A5
  8
0
  6
CONTINUOUS
 62
     7
 10
428.0816483171
 20
-106.3751632599
 30
0.0
  0
VERTEX
  5
6A6
  8
0
  6
CONTINUOUS
 62
     7
 10
428.1073736818
 20
-108.5104162124
 30
0.0
  0
SEQEND
  5
84D
  8
0
  6
CONTINUOUS
 62
     7
  0
ARC
  5
325
  8
0
  6
CONTINUOUS
 62
     7
 10
421.348878748
 20
-108.7261978912
 30
0.0
 40
6.761938738465735
 50
275.6852052687
 51
1.8286883768
  0
ARC
  5
326
  8
0
  6
CONTINUOUS
 62
     7
 10
390.6155752809
 20
216.6975407516
 30
0.0
 40
333.633610933143
 50
264.5990575202
 51
275.4009424798
  0
POLYLINE
  5
327
  8
0
  6
CONTINUOUS
 62
     7
 66
     1
 10
0.0
 20
0.0
 30
0.0
  0
VERTEX
  5
6A7
  8
0
  6
CONTINUOUS
 62
     7
 10
359.2124151857
 20
-115.4548758892
 30
0.0
  0
VERTEX
  5
6A8
  8
0
  6
CONTINUOUS
 62
     7
 10
358.7808179529
 20
-115.4002780346
 30
0.0
  0
VERTEX
  5
6A9
  8
0
  6
CONTINUOUS
 62
     7
 10
358.3473252923
 20
-115.316974583
 30
0.0
  0
VERTEX
  5
6AA
  8
0
  6
CONTINUOUS
 62
     7
 10
357.914476362
 20
-115.2039343742
 30
0.0
  0
VERTEX
  5
6AB
  8
0
  6
CONTINUOUS
 62
     7
 10
357.5226235063
 20
-115.0742823509
 30
0.0
  0
VERTEX
  5
6AC
  8
0
  6
CONTINUOUS
 62
     7
 10
357.1271586091
 20
-114.9151617912
 30
0.0
  0
VERTEX
  5
6AD
  8
0
  6
CONTINUOUS
 62
     7
 10
356.7307996423
 20
-114.7246534256
 30
0.0
  0
VERTEX
  5
6AE
  8
0
  6
CONTINUOUS
 62
     7
 10
356.4234304101
 20
-114.5534390835
 30
0.0
  0
VERTEX
  5
6AF
  8
0
  6
CONTINUOUS
 62
     7
 10
356.1196970613
 20
-114.3619949249
 30
0.0
  0
VERTEX
  5
6B0
  8
0
  6
CONTINUOUS
 62
     7
 10
355.8321165712
 20
-114.1580814747
 30
0.0
  0
VERTEX
  5
6B1
  8
0
  6
CONTINUOUS
 62
     7
 10
355.5591988237
 20
-113.9417225746
 30
0.0
  0
VERTEX
  5
6B2
  8
0
  6
CONTINUOUS
 62
     7
 10
355.2930640848
 20
-113.7064272789
 30
0.0
  0
VERTEX
  5
6B3
  8
0
  6
CONTINUOUS
 62
     7
 10
355.0669002206
 20
-113.4848768142
 30
0.0
  0
VERTEX
  5
6B4
  8
0
  6
CONTINUOUS
 62
     7
 10
354.8038410814
 20
-113.1980890659
 30
0.0
  0
VERTEX
  5
6B5
  8
0
  6
CONTINUOUS
 62
     7
 10
354.5081066758
 20
-112.8304893402
 30
0.0
  0
VERTEX
  5
6B6
  8
0
  6
CONTINUOUS
 62
     7
 10
354.2967605264
 20
-112.5312621025
 30
0.0
  0
VERTEX
  5
6B7
  8
0
  6
CONTINUOUS
 62
     7
 10
354.0864872606
 20
-112.1948117641
 30
0.0
  0
VERTEX
  5
6B8
  8
0
  6
CONTINUOUS
 62
     7
 10
353.8752603204
 20
-111.8056589988
 30
0.0
  0
VERTEX
  5
6B9
  8
0
  6
CONTINUOUS
 62
     7
 10
353.6991762788
 20
-111.4268118766
 30
0.0
  0
VERTEX
  5
6BA
  8
0
  6
CONTINUOUS
 62
     7
 10
353.5546826989
 20
-111.0621685413
 30
0.0
  0
VERTEX
  5
6BB
  8
0
  6
CONTINUOUS
 62
     7
 10
353.2250690133
 20
-109.8167950538
 30
0.0
  0
VERTEX
  5
6BC
  8
0
  6
CONTINUOUS
 62
     7
 10
353.12377688
 20
-108.5104162124
 30
0.0
  0
SEQEND
  5
84C
  8
0
  6
CONTINUOUS
 62
     7
  0
LINE
  5
328
  8
0
  6
CONTINUOUS
 62
     7
 10
428.2155918748
 20
-76.9360775379
 30
0.0
 11
428.2155918748
 21
-68.8212717203
 31
0.0
  0
POLYLINE
  5
329
  8
0
  6
CONTINUOUS
 62
     7
 66
     1
 10
0.0
 20
0.0
 30
0.0
  0
VERTEX
  5
6BD
  8
0
  6
CONTINUOUS
 62
     7
 10
428.2137560518
 20
-85.9091038135
 30
0.0
  0
VERTEX
  5
6BE
  8
0
  6
CONTINUOUS
 62
     7
 10
428.2155918748
 20
-86.9374955324
 30
0.0
  0
VERTEX
  5
6BF
  8
0
  6
CONTINUOUS
 62
     7
 10
428.2191443117
 20
-89.3680269149
 30
0.0
  0
VERTEX
  5
6C0
  8
0
  6
CONTINUOUS
 62
     7
 10
428.217737642
 20
-94.2293102173
 30
0.0
  0
VERTEX
  5
6C1
  8
0
  6
CONTINUOUS
 62
     7
 10
428.2153534562
 20
-97.8211695579
 30
0.0
  0
VERTEX
  5
6C2
  8
0
  6
CONTINUOUS
 62
     7
 10
428.2146382005
 20
-101.4125580219
 30
0.0
  0
VERTEX
  5
6C3
  8
0
  6
CONTINUOUS
 62
     7
 10
428.2149958284
 20
-103.8157994178
 30
0.0
  0
VERTEX
  5
6C4
  8
0
  6
CONTINUOUS
 62
     7
 10
428.2154488237
 20
-106.2174851326
 30
0.0
  0
VERTEX
  5
6C5
  8
0
  6
CONTINUOUS
 62
     7
 10
428.2156395585
 20
-108.5990185169
 30
0.0
  0
SEQEND
  5
84B
  8
0
  6
CONTINUOUS
 62
     7
  0
LINE
  5
32A
  8
0
  6
CONTINUOUS
 62
     7
 10
426.1850285203
 20
-53.9148861793
 30
0.0
 11
426.6917872102
 21
-55.7130346326
 31
0.0
  0
LINE
  5
32B
  8
0
  6
CONTINUOUS
 62
     7
 10
428.2155918748
 20
-68.8212717203
 30
0.0
 11
428.21270701
 21
-68.4391314415
 31
0.0
  0
LINE
  5
32C
  8
0
  6
CONTINUOUS
 62
     7
 10
422.0187353761
 20
-115.4548758892
 30
0.0
 11
422.1280741365
 21
-115.4445166019
 31
0.0
  0
ARC
  5
32D
  8
0
  6
CONTINUOUS
 62
     7
 10
421.4628035738
 20
-108.7233332544
 30
0.0
 40
6.754027725171189
 50
275.6527903911
 51
1.0545959757
  0
LINE
  5
32E
  8
0
  6
CONTINUOUS
 62
     7
 10
359.1030764253
 20
-115.4445166019
 30
0.0
 11
359.2124151857
 21
-115.4548758892
 31
0.0
  0
LINE
  5
32F
  8
0
  6
CONTINUOUS
 62
     7
 10
359.1030764253
 20
-115.4445166019
 30
0.0
 11
359.0390014322
 21
-115.4329354194
 31
0.0
  0
POLYLINE
  5
330
  8
0
  6
CONTINUOUS
 62
     7
 66
     1
 10
0.0
 20
0.0
 30
0.0
  0
VERTEX
  5
6C6
  8
0
  6
CONTINUOUS
 62
     7
 10
358.2350182206
 20
-115.2876490978
 30
0.0
  0
VERTEX
  5
6C7
  8
0
  6
CONTINUOUS
 62
     7
 10
357.9796838434
 20
-115.2415031818
 30
0.0
  0
VERTEX
  5
6C8
  8
0
  6
CONTINUOUS
 62
     7
 10
356.9317984254
 20
-114.8661608127
 30
0.0
  0
VERTEX
  5
6C9
  8
0
  6
CONTINUOUS
 62
     7
 10
356.1169910104
 20
-114.421885672
 30
0.0
  0
VERTEX
  5
6CA
  8
0
  6
CONTINUOUS
 62
     7
 10
355.3865718515
 20
-113.8791317371
 30
0.0
  0
VERTEX
  5
6CB
  8
0
  6
CONTINUOUS
 62
     7
 10
354.6208905847
 20
-113.1030017761
 30
0.0
  0
VERTEX
  5
6CC
  8
0
  6
CONTINUOUS
 62
     7
 10
353.9905118615
 20
-112.2089201835
 30
0.0
  0
VERTEX
  5
6CD
  8
0
  6
CONTINUOUS
 62
     7
 10
353.610222307
 20
-111.4620859054
 30
0.0
  0
VERTEX
  5
6CE
  8
0
  6
CONTINUOUS
 62
     7
 10
353.3156442315
 20
-110.655909243
 30
0.0
  0
VERTEX
  5
6CF
  8
0
  6
CONTINUOUS
 62
     7
 10
353.1172442109
 20
-109.8067993549
 30
0.0
  0
VERTEX
  5
6D0
  8
0
  6
CONTINUOUS
 62
     7
 10
353.0154871614
 20
-108.5980648426
 30
0.0
  0
SEQEND
  5
84A
  8
0
  6
CONTINUOUS
 62
     7
  0
POLYLINE
  5
331
  8
0
  6
CONTINUOUS
 62
     7
 66
     1
 10
0.0
 20
0.0
 30
0.0
  0
VERTEX
  5
6D1
  8
0
  6
CONTINUOUS
 62
     7
 10
-6.98447946
 20
-33.9700514702
 30
0.0
  0
VERTEX
  5
6D2
  8
0
  6
CONTINUOUS
 62
     7
 10
-6.9844556182
 20
-33.8031152514
 30
0.0
  0
VERTEX
  5
6D3
  8
0
  6
CONTINUOUS
 62
     7
 10
-6.9843364089
 20
-33.6913349358
 30
0.0
  0
VERTEX
  5
6D4
  8
0
  6
CONTINUOUS
 62
     7
 10
-6.9838834136
 20
-33.5937669752
 30
0.0
  0
VERTEX
  5
6D5
  8
0
  6
CONTINUOUS
 62
     7
 10
-6.9836926787
 20
-33.5996637372
 30
0.0
  0
SEQEND
  5
849
  8
0
  6
CONTINUOUS
 62
     7
  0
POLYLINE
  5
332
  8
0
  6
CONTINUOUS
 62
     7
 66
     1
 10
0.0
 20
0.0
 30
0.0
  0
VERTEX
  5
6D6
  8
0
  6
CONTINUOUS
 62
     7
 10
-0.896914038
 20
-37.4997758092
 30
0.0
  0
VERTEX
  5
6D7
  8
0
  6
CONTINUOUS
 62
     7
 10
-2.0203185408
 20
-37.2873927252
 30
0.0
  0
VERTEX
  5
6D8
  8
0
  6
CONTINUOUS
 62
     7
 10
-3.0681920378
 20
-36.9523292658
 30
0.0
  0
VERTEX
  5
6D9
  8
0
  6
CONTINUOUS
 62
     7
 10
-3.8830113738
 20
-36.5900867869
 30
0.0
  0
VERTEX
  5
6DA
  8
0
  6
CONTINUOUS
 62
     7
 10
-4.6134305327
 20
-36.1832255748
 30
0.0
  0
VERTEX
  5
6DB
  8
0
  6
CONTINUOUS
 62
     7
 10
-5.3791117995
 20
-35.6623051939
 30
0.0
  0
VERTEX
  5
6DC
  8
0
  6
CONTINUOUS
 62
     7
 10
-6.0094905226
 20
-35.1491838944
 30
0.0
  0
VERTEX
  5
6DD
  8
0
  6
CONTINUOUS
 62
     7
 10
-6.3897681563
 20
-34.7948849452
 30
0.0
  0
VERTEX
  5
6DE
  8
0
  6
CONTINUOUS
 62
     7
 10
-6.6843581526
 20
-34.483052629
 30
0.0
  0
VERTEX
  5
6DF
  8
0
  6
CONTINUOUS
 62
     7
 10
-6.8827700942
 20
-34.2264617113
 30
0.0
  0
VERTEX
  5
6E0
  8
0
  6
CONTINUOUS
 62
     7
 10
-6.9845271437
 20
-33.9700488625
 30
0.0
  0
SEQEND
  5
848
  8
0
  6
CONTINUOUS
 62
     7
  0
POLYLINE
  5
333
  8
0
  6
CONTINUOUS
 62
     7
 66
     1
 10
0.0
 20
0.0
 30
0.0
  0
VERTEX
  5
6E1
  8
0
  6
CONTINUOUS
 62
     7
 10
62.1280836732
 20
-37.4997758092
 30
0.0
  0
VERTEX
  5
6E2
  8
0
  6
CONTINUOUS
 62
     7
 10
55.0848412187
 20
-38.2857969282
 30
0.0
  0
VERTEX
  5
6E3
  8
0
  6
CONTINUOUS
 62
     7
 10
48.0142044694
 20
-38.9033400704
 30
0.0
  0
VERTEX
  5
6E4
  8
0
  6
CONTINUOUS
 62
     7
 10
40.8886122377
 20
-39.3254610029
 30
0.0
  0
VERTEX
  5
6E5
  8
0
  6
CONTINUOUS
 62
     7
 10
33.7490009935
 20
-39.5339340222
 30
0.0
  0
VERTEX
  5
6E6
  8
0
  6
CONTINUOUS
 62
     7
 10
27.9751467378
 20
-39.5395424468
 30
0.0
  0
VERTEX
  5
6E7
  8
0
  6
CONTINUOUS
 62
     7
 10
22.2023772867
 20
-39.4005833445
 30
0.0
  0
VERTEX
  5
6E8
  8
0
  6
CONTINUOUS
 62
     7
 10
16.4385366113
 20
-39.1202607443
 30
0.0
  0
VERTEX
  5
6E9
  8
0
  6
CONTINUOUS
 62
     7
 10
10.64330813
 20
-38.699677146
 30
0.0
  0
VERTEX
  5
6EA
  8
0
  6
CONTINUOUS
 62
     7
 10
4.8632788331
 20
-38.1540803024
 30
0.0
  0
VERTEX
  5
6EB
  8
0
  6
CONTINUOUS
 62
     7
 10
-0.896914038
 20
-37.4997758092
 30
0.0
  0
SEQEND
  5
847
  8
0
  6
CONTINUOUS
 62
     7
  0
POLYLINE
  5
334
  8
0
  6
CONTINUOUS
 62
     7
 66
     1
 10
0.0
 20
0.0
 30
0.0
  0
VERTEX
  5
6EC
  8
0
  6
CONTINUOUS
 62
     7
 10
68.2156729371
 20
-33.970209795
 30
0.0
  0
VERTEX
  5
6ED
  8
0
  6
CONTINUOUS
 62
     7
 10
68.1265163095
 20
-34.2059647915
 30
0.0
  0
VERTEX
  5
6EE
  8
0
  6
CONTINUOUS
 62
     7
 10
67.870705095
 20
-34.5313923684
 30
0.0
  0
VERTEX
  5
6EF
  8
0
  6
CONTINUOUS
 62
     7
 10
67.4708890588
 20
-34.938675004
 30
0.0
  0
VERTEX
  5
6F0
  8
0
  6
CONTINUOUS
 62
     7
 10
66.9396805436
 20
-35.4048248631
 30
0.0
  0
VERTEX
  5
6F1
  8
0
  6
CONTINUOUS
 62
     7
 10
66.2063049943
 20
-35.9497623769
 30
0.0
  0
VERTEX
  5
6F2
  8
0
  6
CONTINUOUS
 62
     7
 10
65.3287577302
 20
-36.479185081
 30
0.0
  0
VERTEX
  5
6F3
  8
0
  6
CONTINUOUS
 62
     7
 10
64.4504832895
 20
-36.8915988383
 30
0.0
  0
VERTEX
  5
6F4
  8
0
  6
CONTINUOUS
 62
     7
 10
63.478188482
 20
-37.2274543875
 30
0.0
  0
VERTEX
  5
6F5
  8
0
  6
CONTINUOUS
 62
     7
 10
62.814562288
 20
-37.3882261356
 30
0.0
  0
VERTEX
  5
6F6
  8
0
  6
CONTINUOUS
 62
     7
 10
62.1280836732
 20
-37.4997758092
 30
0.0
  0
SEQEND
  5
846
  8
0
  6
CONTINUOUS
 62
     7
  0
POLYLINE
  5
335
  8
0
  6
CONTINUOUS
 62
     7
 66
     1
 10
0.0
 20
0.0
 30
0.0
  0
VERTEX
  5
6F7
  8
0
  6
CONTINUOUS
 62
     7
 10
68.2148384721
 20
-33.5981434462
 30
0.0
  0
VERTEX
  5
6F8
  8
0
  6
CONTINUOUS
 62
     7
 10
68.2149934442
 20
-33.5892433551
 30
0.0
  0
VERTEX
  5
6F9
  8
0
  6
CONTINUOUS
 62
     7
 10
68.2154345186
 20
-33.6871674535
 30
0.0
  0
VERTEX
  5
6FA
  8
0
  6
CONTINUOUS
 62
     7
 10
68.2156490953
 20
-33.9702120302
 30
0.0
  0
SEQEND
  5
845
  8
0
  6
CONTINUOUS
 62
     7
  0
POLYLINE
  5
336
  8
0
  6
CONTINUOUS
 62
     7
 66
     1
 10
0.0
 20
0.0
 30
0.0
  0
VERTEX
  5
6FB
  8
0
  6
CONTINUOUS
 62
     7
 10
-4.5907569258
 20
-32.5944213448
 30
0.0
  0
VERTEX
  5
6FC
  8
0
  6
CONTINUOUS
 62
     7
 10
-5.3651643126
 20
-32.5924190012
 30
0.0
  0
VERTEX
  5
6FD
  8
0
  6
CONTINUOUS
 62
     7
 10
-5.5612397521
 20
-32.5915402052
 30
0.0
  0
SEQEND
  5
844
  8
0
  6
CONTINUOUS
 62
     7
  0
POLYLINE
  5
337
  8
0
  6
CONTINUOUS
 62
     7
 66
     1
 10
0.0
 20
0.0
 30
0.0
  0
VERTEX
  5
6FE
  8
0
  6
CONTINUOUS
 62
     7
 10
-6.837828192
 20
-32.436794999
 30
0.0
  0
VERTEX
  5
6FF
  8
0
  6
CONTINUOUS
 62
     7
 10
-6.847722563
 20
-32.4896579859
 30
0.0
  0
VERTEX
  5
700
  8
0
  6
CONTINUOUS
 62
     7
 10
-6.8762135832
 20
-32.7454881993
 30
0.0
  0
SEQEND
  5
843
  8
0
  6
CONTINUOUS
 62
     7
  0
ARC
  5
338
  8
0
  6
CONTINUOUS
 62
     7
 10
-5.7682421711
 20
-47.1571541469
 30
0.0
 40
14.61021960881819
 50
75.6823370584
 51
85.377426591
  0
ARC
  5
339
  8
0
  6
CONTINUOUS
 62
     7
 10
66.8395813861
 20
-46.3698770518
 30
0.0
 40
13.81295589895235
 50
94.2249840294
 51
104.9751546631
  0
POLYLINE
  5
33A
  8
0
  6
CONTINUOUS
 62
     7
 66
     1
 10
0.0
 20
0.0
 30
0.0
  0
VERTEX
  5
701
  8
0
  6
CONTINUOUS
 62
     7
 10
65.821938482
 20
-32.5944597152
 30
0.0
  0
VERTEX
  5
702
  8
0
  6
CONTINUOUS
 62
     7
 10
66.679708925
 20
-32.592089313
 30
0.0
  0
VERTEX
  5
703
  8
0
  6
CONTINUOUS
 62
     7
 10
66.7999314935
 20
-32.5915536163
 30
0.0
  0
SEQEND
  5
842
  8
0
  6
CONTINUOUS
 62
     7
  0
POLYLINE
  5
33B
  8
0
  6
CONTINUOUS
 62
     7
 66
     1
 10
0.0
 20
0.0
 30
0.0
  0
VERTEX
  5
704
  8
0
  6
CONTINUOUS
 62
     7
 10
68.0278348596
 20
-32.5950378803
 30
0.0
  0
VERTEX
  5
705
  8
0
  6
CONTINUOUS
 62
     7
 10
68.0373596818
 20
-32.6066898433
 30
0.0
  0
VERTEX
  5
706
  8
0
  6
CONTINUOUS
 62
     7
 10
68.0498408944
 20
-32.5825197873
 30
0.0
  0
VERTEX
  5
707
  8
0
  6
CONTINUOUS
 62
     7
 10
68.0513548524
 20
-32.525044891
 30
0.0
  0
VERTEX
  5
708
  8
0
  6
CONTINUOUS
 62
     7
 10
68.0528092058
 20
-32.4541604397
 30
0.0
  0
SEQEND
  5
841
  8
0
  6
CONTINUOUS
 62
     7
  0
POLYLINE
  5
33C
  8
0
  6
CONTINUOUS
 62
     7
 66
     1
 10
0.0
 20
0.0
 30
0.0
  0
VERTEX
  5
709
  8
0
  6
CONTINUOUS
 62
     7
 10
68.0545973451
 20
-32.4307365594
 30
0.0
  0
VERTEX
  5
70A
  8
0
  6
CONTINUOUS
 62
     7
 10
68.0566119821
 20
-32.4040996162
 30
0.0
  0
VERTEX
  5
70B
  8
0
  6
CONTINUOUS
 62
     7
 10
68.065350023
 20
-32.4105611322
 30
0.0
  0
VERTEX
  5
70C
  8
0
  6
CONTINUOUS
 62
     7
 10
68.081634012
 20
-32.5100722042
 30
0.0
  0
VERTEX
  5
70D
  8
0
  6
CONTINUOUS
 62
     7
 10
68.1073832185
 20
-32.7454885719
 30
0.0
  0
SEQEND
  5
840
  8
0
  6
CONTINUOUS
 62
     7
  0
POLYLINE
  5
33D
  8
0
  6
CONTINUOUS
 62
     7
 66
     1
 10
0.0
 20
0.0
 30
0.0
  0
VERTEX
  5
70E
  8
0
  6
CONTINUOUS
 62
     7
 10
68.1073832185
 20
-32.7454881993
 30
0.0
  0
VERTEX
  5
70F
  8
0
  6
CONTINUOUS
 62
     7
 10
68.0329966218
 20
-32.9597527412
 30
0.0
  0
VERTEX
  5
710
  8
0
  6
CONTINUOUS
 62
     7
 10
67.7883910806
 20
-33.2534136501
 30
0.0
  0
VERTEX
  5
711
  8
0
  6
CONTINUOUS
 62
     7
 10
67.386119333
 20
-33.6258551357
 30
0.0
  0
VERTEX
  5
712
  8
0
  6
CONTINUOUS
 62
     7
 10
66.8425607354
 20
-34.0570299206
 30
0.0
  0
VERTEX
  5
713
  8
0
  6
CONTINUOUS
 62
     7
 10
66.1116408975
 20
-34.5524305729
 30
0.0
  0
VERTEX
  5
714
  8
0
  6
CONTINUOUS
 62
     7
 10
65.2390646608
 20
-35.038486707
 30
0.0
  0
VERTEX
  5
715
  8
0
  6
CONTINUOUS
 62
     7
 10
64.3471407564
 20
-35.4291055602
 30
0.0
  0
VERTEX
  5
716
  8
0
  6
CONTINUOUS
 62
     7
 10
63.3616614015
 20
-35.7479105023
 30
0.0
  0
VERTEX
  5
717
  8
0
  6
CONTINUOUS
 62
     7
 10
62.7009558351
 20
-35.8981518326
 30
0.0
  0
VERTEX
  5
718
  8
0
  6
CONTINUOUS
 62
     7
 10
62.0187449128
 20
-36.0026130704
 30
0.0
  0
SEQEND
  5
83F
  8
0
  6
CONTINUOUS
 62
     7
  0
POLYLINE
  5
33E
  8
0
  6
CONTINUOUS
 62
     7
 66
     1
 10
0.0
 20
0.0
 30
0.0
  0
VERTEX
  5
719
  8
0
  6
CONTINUOUS
 62
     7
 10
62.0187449128
 20
-36.0026162369
 30
0.0
  0
VERTEX
  5
71A
  8
0
  6
CONTINUOUS
 62
     7
 10
56.9541382463
 20
-36.5523962555
 30
0.0
  0
VERTEX
  5
71B
  8
0
  6
CONTINUOUS
 62
     7
 10
51.9760298402
 20
-37.0162502182
 30
0.0
  0
VERTEX
  5
71C
  8
0
  6
CONTINUOUS
 62
     7
 10
46.9837116868
 20
-37.3954714527
 30
0.0
  0
VERTEX
  5
71D
  8
0
  6
CONTINUOUS
 62
     7
 10
41.9372367532
 20
-37.6830943296
 30
0.0
  0
VERTEX
  5
71E
  8
0
  6
CONTINUOUS
 62
     7
 10
36.9178580911
 20
-37.8679574776
 30
0.0
  0
VERTEX
  5
71F
  8
0
  6
CONTINUOUS
 62
     7
 10
31.8755077989
 20
-37.9482713779
 30
0.0
  0
VERTEX
  5
720
  8
0
  6
CONTINUOUS
 62
     7
 10
26.8459248216
 20
-37.9216191493
 30
0.0
  0
VERTEX
  5
721
  8
0
  6
CONTINUOUS
 62
     7
 10
22.2238707216
 20
-37.8035831949
 30
0.0
  0
VERTEX
  5
722
  8
0
  6
CONTINUOUS
 62
     7
 10
17.6223086984
 20
-37.5988784031
 30
0.0
  0
VERTEX
  5
723
  8
0
  6
CONTINUOUS
 62
     7
 10
13.0227374704
 20
-37.3108625663
 30
0.0
  0
VERTEX
  5
724
  8
0
  6
CONTINUOUS
 62
     7
 10
8.4123778016
 20
-36.9435142977
 30
0.0
  0
VERTEX
  5
725
  8
0
  6
CONTINUOUS
 62
     7
 10
3.8663553865
 20
-36.5105950524
 30
0.0
  0
VERTEX
  5
726
  8
0
  6
CONTINUOUS
 62
     7
 10
-0.7875752776
 20
-36.0026162369
 30
0.0
  0
SEQEND
  5
83E
  8
0
  6
CONTINUOUS
 62
     7
  0
POLYLINE
  5
33F
  8
0
  6
CONTINUOUS
 62
     7
 66
     1
 10
0.0
 20
0.0
 30
0.0
  0
VERTEX
  5
727
  8
0
  6
CONTINUOUS
 62
     7
 10
-0.7875752776
 20
-36.0026162369
 30
0.0
  0
VERTEX
  5
728
  8
0
  6
CONTINUOUS
 62
     7
 10
-1.2191844313
 20
-35.9424973158
 30
0.0
  0
VERTEX
  5
729
  8
0
  6
CONTINUOUS
 62
     7
 10
-1.6526770919
 20
-35.861529435
 30
0.0
  0
VERTEX
  5
72A
  8
0
  6
CONTINUOUS
 62
     7
 10
-2.0855260222
 20
-35.7597200451
 30
0.0
  0
VERTEX
  5
72B
  8
0
  6
CONTINUOUS
 62
     7
 10
-2.477366957
 20
-35.648886512
 30
0.0
  0
VERTEX
  5
72C
  8
0
  6
CONTINUOUS
 62
     7
 10
-2.8728318541
 20
-35.518815766
 30
0.0
  0
VERTEX
  5
72D
  8
0
  6
CONTINUOUS
 62
     7
 10
-3.2692027419
 20
-35.3695813817
 30
0.0
  0
VERTEX
  5
72E
  8
0
  6
CONTINUOUS
 62
     7
 10
-3.5765719741
 20
-35.2403313172
 30
0.0
  0
VERTEX
  5
72F
  8
0
  6
CONTINUOUS
 62
     7
 10
-3.880293402
 20
-35.1007418958
 30
0.0
  0
VERTEX
  5
730
  8
0
  6
CONTINUOUS
 62
     7
 10
-4.1678738921
 20
-34.9573442963
 30
0.0
  0
VERTEX
  5
731
  8
0
  6
CONTINUOUS
 62
     7
 10
-4.4408154814
 20
-34.810846324
 30
0.0
  0
VERTEX
  5
732
  8
0
  6
CONTINUOUS
 62
     7
 10
-4.7069382994
 20
-34.6578957764
 30
0.0
  0
VERTEX
  5
733
  8
0
  6
CONTINUOUS
 62
     7
 10
-4.9331021636
 20
-34.5197031525
 30
0.0
  0
VERTEX
  5
734
  8
0
  6
CONTINUOUS
 62
     7
 10
-5.1961732237
 20
-34.3492390839
 30
0.0
  0
VERTEX
  5
735
  8
0
  6
CONTINUOUS
 62
     7
 10
-5.4919076293
 20
-34.1442389665
 30
0.0
  0
VERTEX
  5
736
  8
0
  6
CONTINUOUS
 62
     7
 10
-5.7032418578
 20
-33.9883053926
 30
0.0
  0
VERTEX
  5
737
  8
0
  6
CONTINUOUS
 62
     7
 10
-5.9135270445
 20
-33.8247088966
 30
0.0
  0
VERTEX
  5
738
  8
0
  6
CONTINUOUS
 62
     7
 10
-6.1247420638
 20
-33.6510135112
 30
0.0
  0
VERTEX
  5
739
  8
0
  6
CONTINUOUS
 62
     7
 10
-6.3008380263
 20
-33.4973899898
 30
0.0
  0
VERTEX
  5
73A
  8
0
  6
CONTINUOUS
 62
     7
 10
-6.4453196852
 20
-33.3636457351
 30
0.0
  0
VERTEX
  5
73B
  8
0
  6
CONTINUOUS
 62
     7
 10
-6.7749333708
 20
-33.0004217354
 30
0.0
  0
VERTEX
  5
73C
  8
0
  6
CONTINUOUS
 62
     7
 10
-6.8762135832
 20
-32.7454885719
 30
0.0
  0
SEQEND
  5
83D
  8
0
  6
CONTINUOUS
 62
     7
  0
POLYLINE
  5
340
  8
0
  6
CONTINUOUS
 62
     7
 66
     1
 10
0.0
 20
0.0
 30
0.0
  0
VERTEX
  5
73D
  8
0
  6
CONTINUOUS
 62
     7
 10
113.015507427
 20
-33.9700514702
 30
0.0
  0
VERTEX
  5
73E
  8
0
  6
CONTINUOUS
 62
     7
 10
113.0155431897
 20
-33.8031152514
 30
0.0
  0
VERTEX
  5
73F
  8
0
  6
CONTINUOUS
 62
     7
 10
113.01567432
 20
-33.6913349358
 30
0.0
  0
VERTEX
  5
740
  8
0
  6
CONTINUOUS
 62
     7
 10
113.0161213548
 20
-33.5937669752
 30
0.0
  0
VERTEX
  5
741
  8
0
  6
CONTINUOUS
 62
     7
 10
113.0163120897
 20
-33.5996637372
 30
0.0
  0
SEQEND
  5
83C
  8
0
  6
CONTINUOUS
 62
     7
  0
POLYLINE
  5
341
  8
0
  6
CONTINUOUS
 62
     7
 66
     1
 10
0.0
 20
0.0
 30
0.0
  0
VERTEX
  5
742
  8
0
  6
CONTINUOUS
 62
     7
 10
119.1030788095
 20
-37.4997758092
 30
0.0
  0
VERTEX
  5
743
  8
0
  6
CONTINUOUS
 62
     7
 10
117.9796862275
 20
-37.2873927252
 30
0.0
  0
VERTEX
  5
744
  8
0
  6
CONTINUOUS
 62
     7
 10
116.9318008096
 20
-36.9523292658
 30
0.0
  0
VERTEX
  5
745
  8
0
  6
CONTINUOUS
 62
     7
 10
116.1169933946
 20
-36.5900867869
 30
0.0
  0
VERTEX
  5
746
  8
0
  6
CONTINUOUS
 62
     7
 10
115.3865682752
 20
-36.1832255748
 30
0.0
  0
VERTEX
  5
747
  8
0
  6
CONTINUOUS
 62
     7
 10
114.6208870084
 20
-35.6623051939
 30
0.0
  0
VERTEX
  5
748
  8
0
  6
CONTINUOUS
 62
     7
 10
113.9905142457
 20
-35.1491838944
 30
0.0
  0
VERTEX
  5
749
  8
0
  6
CONTINUOUS
 62
     7
 10
113.6102246911
 20
-34.7948849452
 30
0.0
  0
VERTEX
  5
74A
  8
0
  6
CONTINUOUS
 62
     7
 10
113.3156466157
 20
-34.483052629
 30
0.0
  0
VERTEX
  5
74B
  8
0
  6
CONTINUOUS
 62
     7
 10
113.1172406347
 20
-34.2264617113
 30
0.0
  0
VERTEX
  5
74C
  8
0
  6
CONTINUOUS
 62
     7
 10
113.0154835851
 20
-33.9700488625
 30
0.0
  0
SEQEND
  5
83B
  8
0
  6
CONTINUOUS
 62
     7
  0
POLYLINE
  5
342
  8
0
  6
CONTINUOUS
 62
     7
 66
     1
 10
0.0
 20
0.0
 30
0.0
  0
VERTEX
  5
74D
  8
0
  6
CONTINUOUS
 62
     7
 10
182.1280795009
 20
-37.4997758092
 30
0.0
  0
VERTEX
  5
74E
  8
0
  6
CONTINUOUS
 62
     7
 10
175.0848459871
 20
-38.2857969282
 30
0.0
  0
VERTEX
  5
74F
  8
0
  6
CONTINUOUS
 62
     7
 10
168.0142002971
 20
-38.9033400704
 30
0.0
  0
VERTEX
  5
750
  8
0
  6
CONTINUOUS
 62
     7
 10
160.8886080654
 20
-39.3254610029
 30
0.0
  0
VERTEX
  5
751
  8
0
  6
CONTINUOUS
 62
     7
 10
153.7489998014
 20
-39.5339340222
 30
0.0
  0
VERTEX
  5
752
  8
0
  6
CONTINUOUS
 62
     7
 10
147.9751395852
 20
-39.5395424468
 30
0.0
  0
VERTEX
  5
753
  8
0
  6
CONTINUOUS
 62
     7
 10
142.2023760946
 20
-39.4005833445
 30
0.0
  0
VERTEX
  5
754
  8
0
  6
CONTINUOUS
 62
     7
 10
136.4385354192
 20
-39.1202607443
 30
0.0
  0
VERTEX
  5
755
  8
0
  6
CONTINUOUS
 62
     7
 10
130.6433128984
 20
-38.699677146
 30
0.0
  0
VERTEX
  5
756
  8
0
  6
CONTINUOUS
 62
     7
 10
124.8632836015
 20
-38.1540803024
 30
0.0
  0
VERTEX
  5
757
  8
0
  6
CONTINUOUS
 62
     7
 10
119.1030788095
 20
-37.4997758092
 30
0.0
  0
SEQEND
  5
83A
  8
0
  6
CONTINUOUS
 62
     7
  0
POLYLINE
  5
343
  8
0
  6
CONTINUOUS
 62
     7
 66
     1
 10
0.0
 20
0.0
 30
0.0
  0
VERTEX
  5
758
  8
0
  6
CONTINUOUS
 62
     7
 10
188.2156777055
 20
-33.970209795
 30
0.0
  0
VERTEX
  5
759
  8
0
  6
CONTINUOUS
 62
     7
 10
188.1265166075
 20
-34.2059647915
 30
0.0
  0
VERTEX
  5
75A
  8
0
  6
CONTINUOUS
 62
     7
 10
187.8706994326
 20
-34.5313923684
 30
0.0
  0
VERTEX
  5
75B
  8
0
  6
CONTINUOUS
 62
     7
 10
187.4708863766
 20
-34.938675004
 30
0.0
  0
VERTEX
  5
75C
  8
0
  6
CONTINUOUS
 62
     7
 10
186.9396778614
 20
-35.4048248631
 30
0.0
  0
VERTEX
  5
75D
  8
0
  6
CONTINUOUS
 62
     7
 10
186.2063082726
 20
-35.9497623769
 30
0.0
  0
VERTEX
  5
75E
  8
0
  6
CONTINUOUS
 62
     7
 10
185.3287595184
 20
-36.479185081
 30
0.0
  0
VERTEX
  5
75F
  8
0
  6
CONTINUOUS
 62
     7
 10
184.4504791171
 20
-36.8915988383
 30
0.0
  0
VERTEX
  5
760
  8
0
  6
CONTINUOUS
 62
     7
 10
183.4781843097
 20
-37.2274543875
 30
0.0
  0
VERTEX
  5
761
  8
0
  6
CONTINUOUS
 62
     7
 10
182.8145581157
 20
-37.3882261356
 30
0.0
  0
VERTEX
  5
762
  8
0
  6
CONTINUOUS
 62
     7
 10
182.1280795009
 20
-37.4997758092
 30
0.0
  0
SEQEND
  5
839
  8
0
  6
CONTINUOUS
 62
     7
  0
POLYLINE
  5
344
  8
0
  6
CONTINUOUS
 62
     7
 66
     1
 10
0.0
 20
0.0
 30
0.0
  0
VERTEX
  5
763
  8
0
  6
CONTINUOUS
 62
     7
 10
188.2148342998
 20
-33.5981434462
 30
0.0
  0
VERTEX
  5
764
  8
0
  6
CONTINUOUS
 62
     7
 10
188.2149922521
 20
-33.5892433551
 30
0.0
  0
VERTEX
  5
765
  8
0
  6
CONTINUOUS
 62
     7
 10
188.2154363067
 20
-33.6871674535
 30
0.0
  0
VERTEX
  5
766
  8
0
  6
CONTINUOUS
 62
     7
 10
188.2156508834
 20
-33.9702120302
 30
0.0
  0
SEQEND
  5
838
  8
0
  6
CONTINUOUS
 62
     7
  0
POLYLINE
  5
345
  8
0
  6
CONTINUOUS
 62
     7
 66
     1
 10
0.0
 20
0.0
 30
0.0
  0
VERTEX
  5
767
  8
0
  6
CONTINUOUS
 62
     7
 10
115.4092359216
 20
-32.5944213448
 30
0.0
  0
VERTEX
  5
768
  8
0
  6
CONTINUOUS
 62
     7
 10
114.6348464162
 20
-32.5924190012
 30
0.0
  0
VERTEX
  5
769
  8
0
  6
CONTINUOUS
 62
     7
 10
114.4387590558
 20
-32.5915402052
 30
0.0
  0
SEQEND
  5
837
  8
0
  6
CONTINUOUS
 62
     7
  0
POLYLINE
  5
346
  8
0
  6
CONTINUOUS
 62
     7
 66
     1
 10
0.0
 20
0.0
 30
0.0
  0
VERTEX
  5
76A
  8
0
  6
CONTINUOUS
 62
     7
 10
113.1621646554
 20
-32.436794999
 30
0.0
  0
VERTEX
  5
76B
  8
0
  6
CONTINUOUS
 62
     7
 10
113.1522822053
 20
-32.4896579859
 30
0.0
  0
VERTEX
  5
76C
  8
0
  6
CONTINUOUS
 62
     7
 10
113.1237792642
 20
-32.7454881993
 30
0.0
  0
SEQEND
  5
836
  8
0
  6
CONTINUOUS
 62
     7
  0
ARC
  5
347
  8
0
  6
CONTINUOUS
 62
     7
 10
114.2317061982
 20
-47.1574922577
 30
0.0
 40
14.61056116507533
 50
75.6824506524
 51
85.3773129971
  0
ARC
  5
348
  8
0
  6
CONTINUOUS
 62
     7
 10
186.839552675
 20
-46.3696897038
 30
0.0
 40
13.81276703267611
 50
94.2249274432
 51
104.9752332572
  0
POLYLINE
  5
349
  8
0
  6
CONTINUOUS
 62
     7
 66
     1
 10
0.0
 20
0.0
 30
0.0
  0
VERTEX
  5
76D
  8
0
  6
CONTINUOUS
 62
     7
 10
185.8219328196
 20
-32.5944597152
 30
0.0
  0
VERTEX
  5
76E
  8
0
  6
CONTINUOUS
 62
     7
 10
186.6797077329
 20
-32.592089313
 30
0.0
  0
VERTEX
  5
76F
  8
0
  6
CONTINUOUS
 62
     7
 10
186.7999362619
 20
-32.5915536163
 30
0.0
  0
SEQEND
  5
835
  8
0
  6
CONTINUOUS
 62
     7
  0
POLYLINE
  5
34A
  8
0
  6
CONTINUOUS
 62
     7
 66
     1
 10
0.0
 20
0.0
 30
0.0
  0
VERTEX
  5
770
  8
0
  6
CONTINUOUS
 62
     7
 10
188.0278306873
 20
-32.5950378803
 30
0.0
  0
VERTEX
  5
771
  8
0
  6
CONTINUOUS
 62
     7
 10
188.0373555095
 20
-32.6066898433
 30
0.0
  0
VERTEX
  5
772
  8
0
  6
CONTINUOUS
 62
     7
 10
188.0498367221
 20
-32.5825197873
 30
0.0
  0
VERTEX
  5
773
  8
0
  6
CONTINUOUS
 62
     7
 10
188.0513536603
 20
-32.525044891
 30
0.0
  0
VERTEX
  5
774
  8
0
  6
CONTINUOUS
 62
     7
 10
188.0528109939
 20
-32.4541604397
 30
0.0
  0
SEQEND
  5
834
  8
0
  6
CONTINUOUS
 62
     7
  0
POLYLINE
  5
34B
  8
0
  6
CONTINUOUS
 62
     7
 66
     1
 10
0.0
 20
0.0
 30
0.0
  0
VERTEX
  5
775
  8
0
  6
CONTINUOUS
 62
     7
 10
188.0545916827
 20
-32.4307365594
 30
0.0
  0
VERTEX
  5
776
  8
0
  6
CONTINUOUS
 62
     7
 10
188.0566182406
 20
-32.4040996162
 30
0.0
  0
VERTEX
  5
777
  8
0
  6
CONTINUOUS
 62
     7
 10
188.0653473408
 20
-32.4105611322
 30
0.0
  0
VERTEX
  5
778
  8
0
  6
CONTINUOUS
 62
     7
 10
188.0816402705
 20
-32.5100722042
 30
0.0
  0
VERTEX
  5
779
  8
0
  6
CONTINUOUS
 62
     7
 10
188.1073835165
 20
-32.7454885719
 30
0.0
  0
SEQEND
  5
833
  8
0
  6
CONTINUOUS
 62
     7
  0
POLYLINE
  5
34C
  8
0
  6
CONTINUOUS
 62
     7
 66
     1
 10
0.0
 20
0.0
 30
0.0
  0
VERTEX
  5
77A
  8
0
  6
CONTINUOUS
 62
     7
 10
188.1073835165
 20
-32.7454881993
 30
0.0
  0
VERTEX
  5
77B
  8
0
  6
CONTINUOUS
 62
     7
 10
188.0330013902
 20
-32.9597527412
 30
0.0
  0
VERTEX
  5
77C
  8
0
  6
CONTINUOUS
 62
     7
 10
187.7883854182
 20
-33.2534136501
 30
0.0
  0
VERTEX
  5
77D
  8
0
  6
CONTINUOUS
 62
     7
 10
187.3861211212
 20
-33.6258551357
 30
0.0
  0
VERTEX
  5
77E
  8
0
  6
CONTINUOUS
 62
     7
 10
186.8425655038
 20
-34.0570299206
 30
0.0
  0
VERTEX
  5
77F
  8
0
  6
CONTINUOUS
 62
     7
 10
186.1116411955
 20
-34.5524305729
 30
0.0
  0
VERTEX
  5
780
  8
0
  6
CONTINUOUS
 62
     7
 10
185.2390694291
 20
-35.038486707
 30
0.0
  0
VERTEX
  5
781
  8
0
  6
CONTINUOUS
 62
     7
 10
184.3471395643
 20
-35.4291055602
 30
0.0
  0
VERTEX
  5
782
  8
0
  6
CONTINUOUS
 62
     7
 10
183.3616602094
 20
-35.7479105023
 30
0.0
  0
VERTEX
  5
783
  8
0
  6
CONTINUOUS
 62
     7
 10
182.700954643
 20
-35.8981518326
 30
0.0
  0
VERTEX
  5
784
  8
0
  6
CONTINUOUS
 62
     7
 10
182.0187437208
 20
-36.0026130704
 30
0.0
  0
SEQEND
  5
832
  8
0
  6
CONTINUOUS
 62
     7
  0
POLYLINE
  5
34D
  8
0
  6
CONTINUOUS
 62
     7
 66
     1
 10
0.0
 20
0.0
 30
0.0
  0
VERTEX
  5
785
  8
0
  6
CONTINUOUS
 62
     7
 10
182.0187437208
 20
-36.0026162369
 30
0.0
  0
VERTEX
  5
786
  8
0
  6
CONTINUOUS
 62
     7
 10
176.954134074
 20
-36.5523962555
 30
0.0
  0
VERTEX
  5
787
  8
0
  6
CONTINUOUS
 62
     7
 10
171.9760316284
 20
-37.0162502182
 30
0.0
  0
VERTEX
  5
788
  8
0
  6
CONTINUOUS
 62
     7
 10
166.9837104947
 20
-37.3954714527
 30
0.0
  0
VERTEX
  5
789
  8
0
  6
CONTINUOUS
 62
     7
 10
161.9372385413
 20
-37.6830943296
 30
0.0
  0
VERTEX
  5
78A
  8
0
  6
CONTINUOUS
 62
     7
 10
156.9178628595
 20
-37.8679574776
 30
0.0
  0
VERTEX
  5
78B
  8
0
  6
CONTINUOUS
 62
     7
 10
151.8755125673
 20
-37.9482713779
 30
0.0
  0
VERTEX
  5
78C
  8
0
  6
CONTINUOUS
 62
     7
 10
146.84592959
 20
-37.9216191493
 30
0.0
  0
VERTEX
  5
78D
  8
0
  6
CONTINUOUS
 62
     7
 10
142.2238754899
 20
-37.8035831949
 30
0.0
  0
VERTEX
  5
78E
  8
0
  6
CONTINUOUS
 62
     7
 10
137.6223015458
 20
-37.5988784031
 30
0.0
  0
VERTEX
  5
78F
  8
0
  6
CONTINUOUS
 62
     7
 10
133.0227362783
 20
-37.3108625663
 30
0.0
  0
VERTEX
  5
790
  8
0
  6
CONTINUOUS
 62
     7
 10
128.4123766095
 20
-36.9435142977
 30
0.0
  0
VERTEX
  5
791
  8
0
  6
CONTINUOUS
 62
     7
 10
123.8663482339
 20
-36.5105950524
 30
0.0
  0
VERTEX
  5
792
  8
0
  6
CONTINUOUS
 62
     7
 10
119.2124175699
 20
-36.0026162369
 30
0.0
  0
SEQEND
  5
831
  8
0
  6
CONTINUOUS
 62
     7
  0
POLYLINE
  5
34E
  8
0
  6
CONTINUOUS
 62
     7
 66
     1
 10
0.0
 20
0.0
 30
0.0
  0
VERTEX
  5
793
  8
0
  6
CONTINUOUS
 62
     7
 10
119.2124175699
 20
-36.0026162369
 30
0.0
  0
VERTEX
  5
794
  8
0
  6
CONTINUOUS
 62
     7
 10
118.780820337
 20
-35.9424973158
 30
0.0
  0
VERTEX
  5
795
  8
0
  6
CONTINUOUS
 62
     7
 10
118.3473276765
 20
-35.861529435
 30
0.0
  0
VERTEX
  5
796
  8
0
  6
CONTINUOUS
 62
     7
 10
117.9144787462
 20
-35.7597200451
 30
0.0
  0
VERTEX
  5
797
  8
0
  6
CONTINUOUS
 62
     7
 10
117.5226258905
 20
-35.648886512
 30
0.0
  0
VERTEX
  5
798
  8
0
  6
CONTINUOUS
 62
     7
 10
117.1271609933
 20
-35.518815766
 30
0.0
  0
VERTEX
  5
799
  8
0
  6
CONTINUOUS
 62
     7
 10
116.730796066
 20
-35.3695813817
 30
0.0
  0
VERTEX
  5
79A
  8
0
  6
CONTINUOUS
 62
     7
 10
116.4234268339
 20
-35.2403313172
 30
0.0
  0
VERTEX
  5
79B
  8
0
  6
CONTINUOUS
 62
     7
 10
116.1196994455
 20
-35.1007418958
 30
0.0
  0
VERTEX
  5
79C
  8
0
  6
CONTINUOUS
 62
     7
 10
115.8321129949
 20
-34.9573442963
 30
0.0
  0
VERTEX
  5
79D
  8
0
  6
CONTINUOUS
 62
     7
 10
115.5591952474
 20
-34.810846324
 30
0.0
  0
VERTEX
  5
79E
  8
0
  6
CONTINUOUS
 62
     7
 10
115.2930605085
 20
-34.6578957764
 30
0.0
  0
VERTEX
  5
79F
  8
0
  6
CONTINUOUS
 62
     7
 10
115.0668966443
 20
-34.5197031525
 30
0.0
  0
VERTEX
  5
7A0
  8
0
  6
CONTINUOUS
 62
     7
 10
114.8038375051
 20
-34.3492390839
 30
0.0
  0
VERTEX
  5
7A1
  8
0
  6
CONTINUOUS
 62
     7
 10
114.5081030996
 20
-34.1442389665
 30
0.0
  0
VERTEX
  5
7A2
  8
0
  6
CONTINUOUS
 62
     7
 10
114.2967569501
 20
-33.9883053926
 30
0.0
  0
VERTEX
  5
7A3
  8
0
  6
CONTINUOUS
 62
     7
 10
114.0864836843
 20
-33.8247088966
 30
0.0
  0
VERTEX
  5
7A4
  8
0
  6
CONTINUOUS
 62
     7
 10
113.8752686651
 20
-33.6510135112
 30
0.0
  0
VERTEX
  5
7A5
  8
0
  6
CONTINUOUS
 62
     7
 10
113.6991727025
 20
-33.4973899898
 30
0.0
  0
VERTEX
  5
7A6
  8
0
  6
CONTINUOUS
 62
     7
 10
113.5546850831
 20
-33.3636457351
 30
0.0
  0
VERTEX
  5
7A7
  8
0
  6
CONTINUOUS
 62
     7
 10
113.2250713975
 20
-33.0004217354
 30
0.0
  0
VERTEX
  5
7A8
  8
0
  6
CONTINUOUS
 62
     7
 10
113.1237792642
 20
-32.7454885719
 30
0.0
  0
SEQEND
  5
830
  8
0
  6
CONTINUOUS
 62
     7
  0
POLYLINE
  5
34F
  8
0
  6
CONTINUOUS
 62
     7
 66
     1
 10
0.0
 20
0.0
 30
0.0
  0
VERTEX
  5
7A9
  8
0
  6
CONTINUOUS
 62
     7
 10
233.0155092151
 20
-33.9700514702
 30
0.0
  0
VERTEX
  5
7AA
  8
0
  6
CONTINUOUS
 62
     7
 10
233.0155434878
 20
-33.8031152514
 30
0.0
  0
VERTEX
  5
7AB
  8
0
  6
CONTINUOUS
 62
     7
 10
233.015674618
 20
-33.6913349358
 30
0.0
  0
VERTEX
  5
7AC
  8
0
  6
CONTINUOUS
 62
     7
 10
233.0161231429
 20
-33.5937669752
 30
0.0
  0
VERTEX
  5
7AD
  8
0
  6
CONTINUOUS
 62
     7
 10
233.0163123877
 20
-33.5996637372
 30
0.0
  0
SEQEND
  5
82F
  8
0
  6
CONTINUOUS
 62
     7
  0
POLYLINE
  5
350
  8
0
  6
CONTINUOUS
 62
     7
 66
     1
 10
0.0
 20
0.0
 30
0.0
  0
VERTEX
  5
7AE
  8
0
  6
CONTINUOUS
 62
     7
 10
239.1030805976
 20
-37.4997758092
 30
0.0
  0
VERTEX
  5
7AF
  8
0
  6
CONTINUOUS
 62
     7
 10
237.9796880157
 20
-37.2873927252
 30
0.0
  0
VERTEX
  5
7B0
  8
0
  6
CONTINUOUS
 62
     7
 10
236.9317996175
 20
-36.9523292658
 30
0.0
  0
VERTEX
  5
7B1
  8
0
  6
CONTINUOUS
 62
     7
 10
236.1169951827
 20
-36.5900867869
 30
0.0
  0
VERTEX
  5
7B2
  8
0
  6
CONTINUOUS
 62
     7
 10
235.3865685732
 20
-36.1832255748
 30
0.0
  0
VERTEX
  5
7B3
  8
0
  6
CONTINUOUS
 62
     7
 10
234.6208858163
 20
-35.6623051939
 30
0.0
  0
VERTEX
  5
7B4
  8
0
  6
CONTINUOUS
 62
     7
 10
233.9905160339
 20
-35.1491838944
 30
0.0
  0
VERTEX
  5
7B5
  8
0
  6
CONTINUOUS
 62
     7
 10
233.6102279694
 20
-34.7948849452
 30
0.0
  0
VERTEX
  5
7B6
  8
0
  6
CONTINUOUS
 62
     7
 10
233.3156469138
 20
-34.483052629
 30
0.0
  0
VERTEX
  5
7B7
  8
0
  6
CONTINUOUS
 62
     7
 10
233.1172394426
 20
-34.2264617113
 30
0.0
  0
VERTEX
  5
7B8
  8
0
  6
CONTINUOUS
 62
     7
 10
233.015482393
 20
-33.9700488625
 30
0.0
  0
SEQEND
  5
82E
  8
0
  6
CONTINUOUS
 62
     7
  0
POLYLINE
  5
351
  8
0
  6
CONTINUOUS
 62
     7
 66
     1
 10
0.0
 20
0.0
 30
0.0
  0
VERTEX
  5
7B9
  8
0
  6
CONTINUOUS
 62
     7
 10
302.128081289
 20
-37.4997758092
 30
0.0
  0
VERTEX
  5
7BA
  8
0
  6
CONTINUOUS
 62
     7
 10
295.084844795
 20
-38.2857969282
 30
0.0
  0
VERTEX
  5
7BB
  8
0
  6
CONTINUOUS
 62
     7
 10
288.0142020852
 20
-38.9033400704
 30
0.0
  0
VERTEX
  5
7BC
  8
0
  6
CONTINUOUS
 62
     7
 10
280.8886098535
 20
-39.3254610029
 30
0.0
  0
VERTEX
  5
7BD
  8
0
  6
CONTINUOUS
 62
     7
 10
273.7489986093
 20
-39.5339340222
 30
0.0
  0
VERTEX
  5
7BE
  8
0
  6
CONTINUOUS
 62
     7
 10
267.9751443536
 20
-39.5395424468
 30
0.0
  0
VERTEX
  5
7BF
  8
0
  6
CONTINUOUS
 62
     7
 10
262.2023808629
 20
-39.4005833445
 30
0.0
  0
VERTEX
  5
7C0
  8
0
  6
CONTINUOUS
 62
     7
 10
256.4385372073
 20
-39.1202607443
 30
0.0
  0
VERTEX
  5
7C1
  8
0
  6
CONTINUOUS
 62
     7
 10
250.6433117063
 20
-38.699677146
 30
0.0
  0
VERTEX
  5
7C2
  8
0
  6
CONTINUOUS
 62
     7
 10
244.8632824094
 20
-38.1540803024
 30
0.0
  0
VERTEX
  5
7C3
  8
0
  6
CONTINUOUS
 62
     7
 10
239.1030805976
 20
-37.4997758092
 30
0.0
  0
SEQEND
  5
82D
  8
0
  6
CONTINUOUS
 62
     7
  0
POLYLINE
  5
352
  8
0
  6
CONTINUOUS
 62
     7
 66
     1
 10
0.0
 20
0.0
 30
0.0
  0
VERTEX
  5
7C4
  8
0
  6
CONTINUOUS
 62
     7
 10
308.2156765134
 20
-33.970209795
 30
0.0
  0
VERTEX
  5
7C5
  8
0
  6
CONTINUOUS
 62
     7
 10
308.1265139253
 20
-34.2059647915
 30
0.0
  0
VERTEX
  5
7C6
  8
0
  6
CONTINUOUS
 62
     7
 10
307.8706967504
 20
-34.5313923684
 30
0.0
  0
VERTEX
  5
7C7
  8
0
  6
CONTINUOUS
 62
     7
 10
307.4708866746
 20
-34.938675004
 30
0.0
  0
VERTEX
  5
7C8
  8
0
  6
CONTINUOUS
 62
     7
 10
306.9396781595
 20
-35.4048248631
 30
0.0
  0
VERTEX
  5
7C9
  8
0
  6
CONTINUOUS
 62
     7
 10
306.2063085706
 20
-35.9497623769
 30
0.0
  0
VERTEX
  5
7CA
  8
0
  6
CONTINUOUS
 62
     7
 10
305.3287613065
 20
-36.479185081
 30
0.0
  0
VERTEX
  5
7CB
  8
0
  6
CONTINUOUS
 62
     7
 10
304.4504809053
 20
-36.8915988383
 30
0.0
  0
VERTEX
  5
7CC
  8
0
  6
CONTINUOUS
 62
     7
 10
303.4781860978
 20
-37.2274543875
 30
0.0
  0
VERTEX
  5
7CD
  8
0
  6
CONTINUOUS
 62
     7
 10
302.8145599038
 20
-37.3882261356
 30
0.0
  0
VERTEX
  5
7CE
  8
0
  6
CONTINUOUS
 62
     7
 10
302.128081289
 20
-37.4997758092
 30
0.0
  0
SEQEND
  5
82C
  8
0
  6
CONTINUOUS
 62
     7
  0
POLYLINE
  5
353
  8
0
  6
CONTINUOUS
 62
     7
 66
     1
 10
0.0
 20
0.0
 30
0.0
  0
VERTEX
  5
7CF
  8
0
  6
CONTINUOUS
 62
     7
 10
308.2137632043
 20
-33.7546052662
 30
0.0
  0
VERTEX
  5
7D0
  8
0
  6
CONTINUOUS
 62
     7
 10
308.215581146
 20
-33.7553868321
 30
0.0
  0
VERTEX
  5
7D1
  8
0
  6
CONTINUOUS
 62
     7
 10
308.2191455037
 20
-33.7770106522
 30
0.0
  0
VERTEX
  5
7D2
  8
0
  6
CONTINUOUS
 62
     7
 10
308.2177328737
 20
-33.7972151366
 30
0.0
  0
VERTEX
  5
7D3
  8
0
  6
CONTINUOUS
 62
     7
 10
308.2154619367
 20
-33.7233899412
 30
0.0
  0
SEQEND
  5
82B
  8
0
  6
CONTINUOUS
 62
     7
  0
POLYLINE
  5
354
  8
0
  6
CONTINUOUS
 62
     7
 66
     1
 10
0.0
 20
0.0
 30
0.0
  0
VERTEX
  5
7D4
  8
0
  6
CONTINUOUS
 62
     7
 10
308.2148360879
 20
-33.5981434462
 30
0.0
  0
VERTEX
  5
7D5
  8
0
  6
CONTINUOUS
 62
     7
 10
308.21499106
 20
-33.5892433551
 30
0.0
  0
VERTEX
  5
7D6
  8
0
  6
CONTINUOUS
 62
     7
 10
308.2154380948
 20
-33.6871674535
 30
0.0
  0
VERTEX
  5
7D7
  8
0
  6
CONTINUOUS
 62
     7
 10
308.2156526716
 20
-33.9702120302
 30
0.0
  0
SEQEND
  5
82A
  8
0
  6
CONTINUOUS
 62
     7
  0
POLYLINE
  5
355
  8
0
  6
CONTINUOUS
 62
     7
 66
     1
 10
0.0
 20
0.0
 30
0.0
  0
VERTEX
  5
7D8
  8
0
  6
CONTINUOUS
 62
     7
 10
235.4092332394
 20
-32.5944213448
 30
0.0
  0
VERTEX
  5
7D9
  8
0
  6
CONTINUOUS
 62
     7
 10
234.6348452241
 20
-32.5924190012
 30
0.0
  0
VERTEX
  5
7DA
  8
0
  6
CONTINUOUS
 62
     7
 10
234.4387578637
 20
-32.5915402052
 30
0.0
  0
SEQEND
  5
829
  8
0
  6
CONTINUOUS
 62
     7
  0
POLYLINE
  5
356
  8
0
  6
CONTINUOUS
 62
     7
 66
     1
 10
0.0
 20
0.0
 30
0.0
  0
VERTEX
  5
7DB
  8
0
  6
CONTINUOUS
 62
     7
 10
233.1621649535
 20
-32.436794999
 30
0.0
  0
VERTEX
  5
7DC
  8
0
  6
CONTINUOUS
 62
     7
 10
233.1522839935
 20
-32.4896579859
 30
0.0
  0
VERTEX
  5
7DD
  8
0
  6
CONTINUOUS
 62
     7
 10
233.123776582
 20
-32.7454881993
 30
0.0
  0
SEQEND
  5
828
  8
0
  6
CONTINUOUS
 62
     7
  0
ARC
  5
357
  8
0
  6
CONTINUOUS
 62
     7
 10
234.2317332062
 20
-47.1573231989
 30
0.0
 40
14.61039038344529
 50
75.6823938549
 51
85.3773697946
  0
ARC
  5
358
  8
0
  6
CONTINUOUS
 62
     7
 10
306.8395529672
 20
-46.3696738323
 30
0.0
 40
13.81275131371683
 50
94.2249384336
 51
104.9752442748
  0
POLYLINE
  5
359
  8
0
  6
CONTINUOUS
 62
     7
 66
     1
 10
0.0
 20
0.0
 30
0.0
  0
VERTEX
  5
7DE
  8
0
  6
CONTINUOUS
 62
     7
 10
305.8219301374
 20
-32.5944597152
 30
0.0
  0
VERTEX
  5
7DF
  8
0
  6
CONTINUOUS
 62
     7
 10
306.6797065408
 20
-32.592089313
 30
0.0
  0
VERTEX
  5
7E0
  8
0
  6
CONTINUOUS
 62
     7
 10
306.7999350698
 20
-32.5915536163
 30
0.0
  0
SEQEND
  5
827
  8
0
  6
CONTINUOUS
 62
     7
  0
POLYLINE
  5
35A
  8
0
  6
CONTINUOUS
 62
     7
 66
     1
 10
0.0
 20
0.0
 30
0.0
  0
VERTEX
  5
7E1
  8
0
  6
CONTINUOUS
 62
     7
 10
308.0278324754
 20
-32.5950378803
 30
0.0
  0
VERTEX
  5
7E2
  8
0
  6
CONTINUOUS
 62
     7
 10
308.0373572976
 20
-32.6066898433
 30
0.0
  0
VERTEX
  5
7E3
  8
0
  6
CONTINUOUS
 62
     7
 10
308.0498385103
 20
-32.5825197873
 30
0.0
  0
VERTEX
  5
7E4
  8
0
  6
CONTINUOUS
 62
     7
 10
308.0513524682
 20
-32.525044891
 30
0.0
  0
VERTEX
  5
7E5
  8
0
  6
CONTINUOUS
 62
     7
 10
308.052812782
 20
-32.4541604397
 30
0.0
  0
SEQEND
  5
826
  8
0
  6
CONTINUOUS
 62
     7
  0
POLYLINE
  5
35B
  8
0
  6
CONTINUOUS
 62
     7
 66
     1
 10
0.0
 20
0.0
 30
0.0
  0
VERTEX
  5
7E6
  8
0
  6
CONTINUOUS
 62
     7
 10
308.0545949609
 20
-32.4307365594
 30
0.0
  0
VERTEX
  5
7E7
  8
0
  6
CONTINUOUS
 62
     7
 10
308.0566155584
 20
-32.4040996162
 30
0.0
  0
VERTEX
  5
7E8
  8
0
  6
CONTINUOUS
 62
     7
 10
308.0653476388
 20
-32.4105611322
 30
0.0
  0
VERTEX
  5
7E9
  8
0
  6
CONTINUOUS
 62
     7
 10
308.0816375882
 20
-32.5100722042
 30
0.0
  0
VERTEX
  5
7EA
  8
0
  6
CONTINUOUS
 62
     7
 10
308.1073808343
 20
-32.7454885719
 30
0.0
  0
SEQEND
  5
825
  8
0
  6
CONTINUOUS
 62
     7
  0
POLYLINE
  5
35C
  8
0
  6
CONTINUOUS
 62
     7
 66
     1
 10
0.0
 20
0.0
 30
0.0
  0
VERTEX
  5
7EB
  8
0
  6
CONTINUOUS
 62
     7
 10
308.1073808343
 20
-32.7454881993
 30
0.0
  0
VERTEX
  5
7EC
  8
0
  6
CONTINUOUS
 62
     7
 10
308.0330001981
 20
-32.9597527412
 30
0.0
  0
VERTEX
  5
7ED
  8
0
  6
CONTINUOUS
 62
     7
 10
307.788382736
 20
-33.2534136501
 30
0.0
  0
VERTEX
  5
7EE
  8
0
  6
CONTINUOUS
 62
     7
 10
307.3861229093
 20
-33.6258551357
 30
0.0
  0
VERTEX
  5
7EF
  8
0
  6
CONTINUOUS
 62
     7
 10
306.8425643117
 20
-34.0570299206
 30
0.0
  0
VERTEX
  5
7F0
  8
0
  6
CONTINUOUS
 62
     7
 10
306.1116444738
 20
-34.5524305729
 30
0.0
  0
VERTEX
  5
7F1
  8
0
  6
CONTINUOUS
 62
     7
 10
305.2390682371
 20
-35.038486707
 30
0.0
  0
VERTEX
  5
7F2
  8
0
  6
CONTINUOUS
 62
     7
 10
304.3471383722
 20
-35.4291055602
 30
0.0
  0
VERTEX
  5
7F3
  8
0
  6
CONTINUOUS
 62
     7
 10
303.3616590173
 20
-35.7479105023
 30
0.0
  0
VERTEX
  5
7F4
  8
0
  6
CONTINUOUS
 62
     7
 10
302.7009534509
 20
-35.8981518326
 30
0.0
  0
VERTEX
  5
7F5
  8
0
  6
CONTINUOUS
 62
     7
 10
302.0187425287
 20
-36.0026130704
 30
0.0
  0
SEQEND
  5
824
  8
0
  6
CONTINUOUS
 62
     7
  0
POLYLINE
  5
35D
  8
0
  6
CONTINUOUS
 62
     7
 66
     1
 10
0.0
 20
0.0
 30
0.0
  0
VERTEX
  5
7F6
  8
0
  6
CONTINUOUS
 62
     7
 10
302.0187425287
 20
-36.0026162369
 30
0.0
  0
VERTEX
  5
7F7
  8
0
  6
CONTINUOUS
 62
     7
 10
296.9541358621
 20
-36.5523962555
 30
0.0
  0
VERTEX
  5
7F8
  8
0
  6
CONTINUOUS
 62
     7
 10
291.9760334165
 20
-37.0162502182
 30
0.0
  0
VERTEX
  5
7F9
  8
0
  6
CONTINUOUS
 62
     7
 10
286.9837093026
 20
-37.3954714527
 30
0.0
  0
VERTEX
  5
7FA
  8
0
  6
CONTINUOUS
 62
     7
 10
281.9372403295
 20
-37.6830943296
 30
0.0
  0
VERTEX
  5
7FB
  8
0
  6
CONTINUOUS
 62
     7
 10
276.9178616674
 20
-37.8679574776
 30
0.0
  0
VERTEX
  5
7FC
  8
0
  6
CONTINUOUS
 62
     7
 10
271.8755113752
 20
-37.9482713779
 30
0.0
  0
VERTEX
  5
7FD
  8
0
  6
CONTINUOUS
 62
     7
 10
266.8459283979
 20
-37.9216191493
 30
0.0
  0
VERTEX
  5
7FE
  8
0
  6
CONTINUOUS
 62
     7
 10
262.2238742978
 20
-37.8035831949
 30
0.0
  0
VERTEX
  5
7FF
  8
0
  6
CONTINUOUS
 62
     7
 10
257.622303334
 20
-37.5988784031
 30
0.0
  0
VERTEX
  5
800
  8
0
  6
CONTINUOUS
 62
     7
 10
253.0227350862
 20
-37.3108625663
 30
0.0
  0
VERTEX
  5
801
  8
0
  6
CONTINUOUS
 62
     7
 10
248.4123783977
 20
-36.9435142977
 30
0.0
  0
VERTEX
  5
802
  8
0
  6
CONTINUOUS
 62
     7
 10
243.8663470418
 20
-36.5105950524
 30
0.0
  0
VERTEX
  5
803
  8
0
  6
CONTINUOUS
 62
     7
 10
239.2124163778
 20
-36.0026162369
 30
0.0
  0
SEQEND
  5
823
  8
0
  6
CONTINUOUS
 62
     7
  0
POLYLINE
  5
35E
  8
0
  6
CONTINUOUS
 62
     7
 66
     1
 10
0.0
 20
0.0
 30
0.0
  0
VERTEX
  5
804
  8
0
  6
CONTINUOUS
 62
     7
 10
239.2124163778
 20
-36.0026162369
 30
0.0
  0
VERTEX
  5
805
  8
0
  6
CONTINUOUS
 62
     7
 10
238.7808161647
 20
-35.9424973158
 30
0.0
  0
VERTEX
  5
806
  8
0
  6
CONTINUOUS
 62
     7
 10
238.3473264844
 20
-35.861529435
 30
0.0
  0
VERTEX
  5
807
  8
0
  6
CONTINUOUS
 62
     7
 10
237.9144805343
 20
-35.7597200451
 30
0.0
  0
VERTEX
  5
808
  8
0
  6
CONTINUOUS
 62
     7
 10
237.5226246984
 20
-35.648886512
 30
0.0
  0
VERTEX
  5
809
  8
0
  6
CONTINUOUS
 62
     7
 10
237.1271627815
 20
-35.518815766
 30
0.0
  0
VERTEX
  5
80A
  8
0
  6
CONTINUOUS
 62
     7
 10
236.7307948739
 20
-35.3695813817
 30
0.0
  0
VERTEX
  5
80B
  8
0
  6
CONTINUOUS
 62
     7
 10
236.4234256418
 20
-35.2403313172
 30
0.0
  0
VERTEX
  5
80C
  8
0
  6
CONTINUOUS
 62
     7
 10
236.1196982534
 20
-35.1007418958
 30
0.0
  0
VERTEX
  5
80D
  8
0
  6
CONTINUOUS
 62
     7
 10
235.832114783
 20
-34.9573442963
 30
0.0
  0
VERTEX
  5
80E
  8
0
  6
CONTINUOUS
 62
     7
 10
235.5591955454
 20
-34.810846324
 30
0.0
  0
VERTEX
  5
80F
  8
0
  6
CONTINUOUS
 62
     7
 10
235.2930608065
 20
-34.6578957764
 30
0.0
  0
VERTEX
  5
810
  8
0
  6
CONTINUOUS
 62
     7
 10
235.0668954522
 20
-34.5197031525
 30
0.0
  0
VERTEX
  5
811
  8
0
  6
CONTINUOUS
 62
     7
 10
234.8038378031
 20
-34.3492390839
 30
0.0
  0
VERTEX
  5
812
  8
0
  6
CONTINUOUS
 62
     7
 10
234.5081004174
 20
-34.1442389665
 30
0.0
  0
VERTEX
  5
813
  8
0
  6
CONTINUOUS
 62
     7
 10
234.2967572481
 20
-33.9883053926
 30
0.0
  0
VERTEX
  5
814
  8
0
  6
CONTINUOUS
 62
     7
 10
234.0864824922
 20
-33.8247088966
 30
0.0
  0
VERTEX
  5
815
  8
0
  6
CONTINUOUS
 62
     7
 10
233.8752659829
 20
-33.6510135112
 30
0.0
  0
VERTEX
  5
816
  8
0
  6
CONTINUOUS
 62
     7
 10
233.6991715104
 20
-33.4973899898
 30
0.0
  0
VERTEX
  5
817
  8
0
  6
CONTINUOUS
 62
     7
 10
233.5546883614
 20
-33.3636457351
 30
0.0
  0
VERTEX
  5
818
  8
0
  6
CONTINUOUS
 62
     7
 10
233.2250716956
 20
-33.0004217354
 30
0.0
  0
VERTEX
  5
819
  8
0
  6
CONTINUOUS
 62
     7
 10
233.123776582
 20
-32.7454885719
 30
0.0
  0
SEQEND
  5
822
  8
0
  6
CONTINUOUS
 62
     7
  0
LINE
  5
35F
  8
0
  6
CONTINUOUS
 62
     7
 10
233.7155806691
 20
-34.8930374039
 30
0.0
 11
233.7155806691
 21
-36.002798031
 31
0.0
  0
LINE
  5
360
  8
0
  6
CONTINUOUS
 62
     7
 10
232.915580538
 20
-36.002798031
 30
0.0
 11
232.915580538
 21
-34.3091031787
 31
0.0
  0
LINE
  5
361
  8
0
  6
CONTINUOUS
 62
     7
 10
233.0001207859
 20
-33.7753376243
 30
0.0
 11
232.915580538
 21
-34.3091031787
 31
0.0
  0
LINE
  5
362
  8
0
  6
CONTINUOUS
 62
     7
 10
232.915580538
 20
-37.9276413256
 30
0.0
 11
232.915580538
 21
-36.002798031
 31
0.0
  0
LINE
  5
363
  8
0
  6
CONTINUOUS
 62
     7
 10
233.7155806691
 20
-37.9276413256
 30
0.0
 11
233.7155806691
 21
-36.002798031
 31
0.0
  0
LINE
  5
364
  8
0
  6
CONTINUOUS
 62
     7
 10
232.915580538
 20
-43.9401788888
 30
0.0
 11
232.915580538
 21
-37.9276413256
 31
0.0
  0
LINE
  5
365
  8
0
  6
CONTINUOUS
 62
     7
 10
233.7155806691
 20
-43.9401788888
 30
0.0
 11
233.7155806691
 21
-37.9276413256
 31
0.0
  0
LINE
  5
366
  8
0
  6
CONTINUOUS
 62
     7
 10
249.3155795009
 20
-33.8704461483
 30
0.0
 11
249.3155795009
 21
-31.8091033277
 31
0.0
  0
LINE
  5
367
  8
0
  6
CONTINUOUS
 62
     7
 10
249.3155795009
 20
-44.0091030923
 30
0.0
 11
249.3155795009
 21
-38.5777505831
 31
0.0
  0
LINE
  5
368
  8
0
  6
CONTINUOUS
 62
     7
 10
232.915580538
 20
-34.3091031787
 30
0.0
 11
232.915580538
 21
-31.8091033277
 31
0.0
  0
LINE
  5
369
  8
0
  6
CONTINUOUS
 62
     7
 10
232.915580538
 20
-44.0091030923
 30
0.0
 11
232.915580538
 21
-43.9401788888
 31
0.0
  0
POLYLINE
  5
36A
  8
0
  6
CONTINUOUS
 62
     7
 66
     1
 10
0.0
 20
0.0
 30
0.0
  0
VERTEX
  5
81A
  8
0
  6
CONTINUOUS
 62
     7
 10
352.9155778558
 20
-42.8335322318
 30
0.0
  0
VERTEX
  5
81B
  8
0
  6
CONTINUOUS
 62
     7
 10
352.9286789567
 20
-42.7720116702
 30
0.0
  0
VERTEX
  5
81C
  8
0
  6
CONTINUOUS
 62
     7
 10
352.9416012437
 20
-42.7091030655
 30
0.0
  0
SEQEND
  5
821
  8
0
  6
CONTINUOUS
 62
     7
  0
LINE
  5
36B
  8
0
  6
CONTINUOUS
 62
     7
 10
352.9155778558
 20
-42.8335322318
 30
0.0
 11
352.9155778558
 21
-31.8091033277
 31
0.0
  0
LINE
  5
36C
  8
0
  6
CONTINUOUS
 62
     7
 10
369.315581289
 20
-44.0091030923
 30
0.0
 11
369.315581289
 21
-31.8091033277
 31
0.0
  0
LINE
  5
36D
  8
0
  6
CONTINUOUS
 62
     7
 10
353.040723768
 20
-85.9091038135
 30
0.0
 11
353.0584978731
 21
-85.9091038135
 31
0.0
  0
LINE
  5
36E
  8
0
  6
CONTINUOUS
 62
     7
 10
353.040723768
 20
-42.7091030655
 30
0.0
 11
353.040723768
 21
-85.9091038135
 31
0.0
  0
LINE
  5
36F
  8
0
  6
CONTINUOUS
 62
     7
 10
353.040723768
 20
-42.7091030655
 30
0.0
 11
353.8407253892
 21
-42.7091030655
 31
0.0
  0
LINE
  5
370
  8
0
  6
CONTINUOUS
 62
     7
 10
356.5964030893
 20
-43.0838136253
 30
0.0
 11
356.5964030893
 21
-49.1815278557
 31
0.0
  0
ARC
  5
371
  8
0
  6
CONTINUOUS
 62
     7
 10
357.7940898063
 20
-49.1867095289
 30
0.0
 40
1.197697925980928
 50
179.7521170241
 51
249.5420988134
  0
ARC
  5
372
  8
0
  6
CONTINUOUS
 62
     7
 10
369.9376871158
 20
100.7665015813
 30
0.0
 40
144.467653973199
 50
263.6006731029
 51
264.7013056485
  0
LINE
  5
373
  8
0
  6
CONTINUOUS
 62
     7
 10
353.040723768
 20
-85.9091038135
 30
0.0
 11
352.9155778558
 21
-85.9091038135
 31
0.0
  0
LINE
  5
374
  8
0
  6
CONTINUOUS
 62
     7
 10
352.9416012437
 20
-42.7091030655
 30
0.0
 11
353.040723768
 21
-42.7091030655
 31
0.0
  0
LINE
  5
375
  8
0
  6
CONTINUOUS
 62
     7
 10
352.9155778558
 20
-85.9091038135
 30
0.0
 11
352.9155778558
 21
-42.8335322318
 31
0.0
  0
LINE
  5
376
  8
0
  6
CONTINUOUS
 62
     7
 10
-6.2844109862
 20
-34.8930374039
 30
0.0
 11
-6.2844109862
 21
-36.002798031
 31
0.0
  0
LINE
  5
377
  8
0
  6
CONTINUOUS
 62
     7
 10
-7.0844245284
 20
-36.002798031
 30
0.0
 11
-7.0844245284
 21
-34.3091031787
 31
0.0
  0
LINE
  5
378
  8
0
  6
CONTINUOUS
 62
     7
 10
-6.9998813002
 20
-33.7753376243
 30
0.0
 11
-7.0844245284
 21
-34.3091031787
 31
0.0
  0
LINE
  5
379
  8
0
  6
CONTINUOUS
 62
     7
 10
-7.0844245284
 20
-37.9276413256
 30
0.0
 11
-7.0844245284
 21
-36.002798031
 31
0.0
  0
LINE
  5
37A
  8
0
  6
CONTINUOUS
 62
     7
 10
-6.2844109862
 20
-37.9276413256
 30
0.0
 11
-6.2844109862
 21
-36.002798031
 31
0.0
  0
LINE
  5
37B
  8
0
  6
CONTINUOUS
 62
     7
 10
-7.0844245284
 20
-43.9401788888
 30
0.0
 11
-7.0844245284
 21
-37.9276413256
 31
0.0
  0
LINE
  5
37C
  8
0
  6
CONTINUOUS
 62
     7
 10
-6.2844109862
 20
-43.9401788888
 30
0.0
 11
-6.2844109862
 21
-37.9276413256
 31
0.0
  0
LINE
  5
37D
  8
0
  6
CONTINUOUS
 62
     7
 10
9.3155789049
 20
-33.8704461483
 30
0.0
 11
9.3155789049
 21
-31.8091033277
 31
0.0
  0
LINE
  5
37E
  8
0
  6
CONTINUOUS
 62
     7
 10
9.3155789049
 20
-44.0091030923
 30
0.0
 11
9.3155789049
 21
-38.5777505831
 31
0.0
  0
LINE
  5
37F
  8
0
  6
CONTINUOUS
 62
     7
 10
-7.0844245284
 20
-34.3091031787
 30
0.0
 11
-7.0844245284
 21
-31.8091033277
 31
0.0
  0
LINE
  5
380
  8
0
  6
CONTINUOUS
 62
     7
 10
-7.0844245284
 20
-44.0091030923
 30
0.0
 11
-7.0844245284
 21
-43.9401788888
 31
0.0
  0
LINE
  5
381
  8
0
  6
CONTINUOUS
 62
     7
 10
113.7155818612
 20
-34.8930374039
 30
0.0
 11
113.7155818612
 21
-36.002798031
 31
0.0
  0
LINE
  5
382
  8
0
  6
CONTINUOUS
 62
     7
 10
112.91558024
 20
-36.002798031
 30
0.0
 11
112.91558024
 21
-34.3091031787
 31
0.0
  0
LINE
  5
383
  8
0
  6
CONTINUOUS
 62
     7
 10
113.0001175077
 20
-33.7753376243
 30
0.0
 11
112.91558024
 21
-34.3091031787
 31
0.0
  0
LINE
  5
384
  8
0
  6
CONTINUOUS
 62
     7
 10
112.91558024
 20
-37.9276413256
 30
0.0
 11
112.91558024
 21
-36.002798031
 31
0.0
  0
LINE
  5
385
  8
0
  6
CONTINUOUS
 62
     7
 10
113.7155818612
 20
-37.9276413256
 30
0.0
 11
113.7155818612
 21
-36.002798031
 31
0.0
  0
LINE
  5
386
  8
0
  6
CONTINUOUS
 62
     7
 10
112.91558024
 20
-43.9401788888
 30
0.0
 11
112.91558024
 21
-37.9276413256
 31
0.0
  0
LINE
  5
387
  8
0
  6
CONTINUOUS
 62
     7
 10
113.7155818612
 20
-43.9401788888
 30
0.0
 11
113.7155818612
 21
-37.9276413256
 31
0.0
  0
LINE
  5
388
  8
0
  6
CONTINUOUS
 62
     7
 10
129.3155777128
 20
-33.8704461483
 30
0.0
 11
129.3155777128
 21
-31.8091033277
 31
0.0
  0
LINE
  5
389
  8
0
  6
CONTINUOUS
 62
     7
 10
129.3155777128
 20
-44.0091030923
 30
0.0
 11
129.3155777128
 21
-38.5777505831
 31
0.0
  0
LINE
  5
38A
  8
0
  6
CONTINUOUS
 62
     7
 10
112.91558024
 20
-34.3091031787
 30
0.0
 11
112.91558024
 21
-31.8091033277
 31
0.0
  0
LINE
  5
38B
  8
0
  6
CONTINUOUS
 62
     7
 10
112.91558024
 20
-44.0091030923
 30
0.0
 11
112.91558024
 21
-43.9401788888
 31
0.0
  0
LINE
  5
38C
  8
0
  6
CONTINUOUS
 62
     7
 10
411.9155811937
 20
-31.8091033277
 30
0.0
 11
411.9155811937
 21
-44.0091030923
 31
0.0
  0
POLYLINE
  5
38D
  8
0
  6
CONTINUOUS
 62
     7
 66
     1
 10
0.0
 20
0.0
 30
0.0
  0
VERTEX
  5
81D
  8
0
  6
CONTINUOUS
 62
     7
 10
428.2895493181
 20
-42.7091030655
 30
0.0
  0
VERTEX
  5
81E
  8
0
  6
CONTINUOUS
 62
     7
 10
428.3024954469
 20
-42.7720116702
 30
0.0
  0
VERTEX
  5
81F
  8
0
  6
CONTINUOUS
 62
     7
 10
428.3155846269
 20
-42.8335322318
 30
0.0
  0
SEQEND
  5
820
  8
0
  6
CONTINUOUS
 62
     7
  0
LINE
  5
38E
  8
0
  6
CONTINUOUS
 62
     7
 10
428.3155846269
 20
-31.8091033277
 30
0.0
 11
428.3155846269
 21
-42.8335322318
 31
0.0
  0
LINE
  5
38F
  8
0
  6
CONTINUOUS
 62
     7
 10
428.1726765306
 20
-85.9091038135
 30
0.0
 11
428.1904387147
 21
-85.9091038135
 31
0.0
  0
ARC
  5
390
  8
0
  6
CONTINUOUS
 62
     7
 10
423.4372635672
 20
-49.1868066664
 30
0.0
 40
1.1975074612441
 50
290.0242009316
 51
0.2525700742
  0
LINE
  5
391
  8
0
  6
CONTINUOUS
 62
     7
 10
424.6347593934
 20
-49.1815278557
 30
0.0
 11
424.6347593934
 21
-43.0838136253
 31
0.0
  0
LINE
  5
392
  8
0
  6
CONTINUOUS
 62
     7
 10
428.1904387147
 20
-85.9091038135
 30
0.0
 11
428.1904387147
 21
-42.7091030655
 31
0.0
  0
LINE
  5
393
  8
0
  6
CONTINUOUS
 62
     7
 10
427.3904251726
 20
-42.7091030655
 30
0.0
 11
428.1904387147
 21
-42.7091030655
 31
0.0
  0
ARC
  5
394
  8
0
  6
CONTINUOUS
 62
     7
 10
411.4323233417
 20
99.4104287567
 30
0.0
 40
143.1045541893451
 50
275.2934797702
 51
276.4045916418
  0
LINE
  5
395
  8
0
  6
CONTINUOUS
 62
     7
 10
428.1904387147
 20
-85.9091038135
 30
0.0
 11
428.3155846269
 21
-85.9091038135
 31
0.0
  0
LINE
  5
396
  8
0
  6
CONTINUOUS
 62
     7
 10
428.1904387147
 20
-42.7091030655
 30
0.0
 11
428.2895493181
 21
-42.7091030655
 31
0.0
  0
LINE
  5
397
  8
0
  6
CONTINUOUS
 62
     7
 10
428.3155846269
 20
-42.8335322318
 30
0.0
 11
428.3155846269
 21
-85.9091038135
 31
0.0
  0
LINE
  5
398
  8
0
  6
CONTINUOUS
 62
     7
 10
68.2582544954
 20
-33.9471297589
 30
0.0
 11
68.3155822427
 21
-34.3091031787
 31
0.0
  0
LINE
  5
399
  8
0
  6
CONTINUOUS
 62
     7
 10
68.3155822427
 20
-34.3091031787
 30
0.0
 11
68.3155822427
 21
-36.002798031
 31
0.0
  0
LINE
  5
39A
  8
0
  6
CONTINUOUS
 62
     7
 10
67.5155806215
 20
-36.002798031
 30
0.0
 11
67.5155806215
 21
-34.8931459961
 31
0.0
  0
LINE
  5
39B
  8
0
  6
CONTINUOUS
 62
     7
 10
68.3155822427
 20
-36.002798031
 30
0.0
 11
68.3155822427
 21
-37.9276413256
 31
0.0
  0
LINE
  5
39C
  8
0
  6
CONTINUOUS
 62
     7
 10
67.5155806215
 20
-36.002798031
 30
0.0
 11
67.5155806215
 21
-37.9276413256
 31
0.0
  0
LINE
  5
39D
  8
0
  6
CONTINUOUS
 62
     7
 10
68.3155822427
 20
-37.9276413256
 30
0.0
 11
68.3155822427
 21
-43.9401788888
 31
0.0
  0
LINE
  5
39E
  8
0
  6
CONTINUOUS
 62
     7
 10
67.5155806215
 20
-37.9276413256
 30
0.0
 11
67.5155806215
 21
-43.9401788888
 31
0.0
  0
LINE
  5
39F
  8
0
  6
CONTINUOUS
 62
     7
 10
51.9155788095
 20
-31.8091033277
 30
0.0
 11
51.9155788095
 21
-33.8744810102
 31
0.0
  0
LINE
  5
3A0
  8
0
  6
CONTINUOUS
 62
     7
 10
51.9155788095
 20
-38.5655208276
 30
0.0
 11
51.9155788095
 21
-44.0091030923
 31
0.0
  0
LINE
  5
3A1
  8
0
  6
CONTINUOUS
 62
     7
 10
68.3155822427
 20
-43.9401788888
 30
0.0
 11
68.3155822427
 21
-44.0091030923
 31
0.0
  0
LINE
  5
3A2
  8
0
  6
CONTINUOUS
 62
     7
 10
68.3155822427
 20
-31.8091033277
 30
0.0
 11
68.3155822427
 21
-34.3091031787
 31
0.0
  0
LINE
  5
3A3
  8
0
  6
CONTINUOUS
 62
     7
 10
308.2265424402
 20
-33.7469322858
 30
0.0
 11
308.3155798585
 21
-34.3091031787
 31
0.0
  0
LINE
  5
3A4
  8
0
  6
CONTINUOUS
 62
     7
 10
308.3155798585
 20
-34.3091031787
 30
0.0
 11
308.3155798585
 21
-36.002798031
 31
0.0
  0
LINE
  5
3A5
  8
0
  6
CONTINUOUS
 62
     7
 10
307.5155782373
 20
-36.002798031
 30
0.0
 11
307.5155782373
 21
-34.8931459961
 31
0.0
  0
LINE
  5
3A6
  8
0
  6
CONTINUOUS
 62
     7
 10
308.3155798585
 20
-36.002798031
 30
0.0
 11
308.3155798585
 21
-37.9276413256
 31
0.0
  0
LINE
  5
3A7
  8
0
  6
CONTINUOUS
 62
     7
 10
307.5155782373
 20
-36.002798031
 30
0.0
 11
307.5155782373
 21
-37.9276413256
 31
0.0
  0
LINE
  5
3A8
  8
0
  6
CONTINUOUS
 62
     7
 10
308.3155798585
 20
-37.9276413256
 30
0.0
 11
308.3155798585
 21
-43.9401788888
 31
0.0
  0
LINE
  5
3A9
  8
0
  6
CONTINUOUS
 62
     7
 10
307.5155782373
 20
-37.9276413256
 30
0.0
 11
307.5155782373
 21
-43.9401788888
 31
0.0
  0
LINE
  5
3AA
  8
0
  6
CONTINUOUS
 62
     7
 10
291.9155823858
 20
-31.8091033277
 30
0.0
 11
291.9155823858
 21
-33.8744810102
 31
0.0
  0
LINE
  5
3AB
  8
0
  6
CONTINUOUS
 62
     7
 10
291.9155823858
 20
-38.5655208276
 30
0.0
 11
291.9155823858
 21
-44.0091030923
 31
0.0
  0
LINE
  5
3AC
  8
0
  6
CONTINUOUS
 62
     7
 10
308.3155798585
 20
-43.9401788888
 30
0.0
 11
308.3155798585
 21
-44.0091030923
 31
0.0
  0
LINE
  5
3AD
  8
0
  6
CONTINUOUS
 62
     7
 10
308.3155798585
 20
-31.8091033277
 30
0.0
 11
308.3155798585
 21
-34.3091031787
 31
0.0
  0
LINE
  5
3AE
  8
0
  6
CONTINUOUS
 62
     7
 10
188.226540652
 20
-33.7469322858
 30
0.0
 11
188.3155795605
 21
-34.3091031787
 31
0.0
  0
LINE
  5
3AF
  8
0
  6
CONTINUOUS
 62
     7
 10
188.3155795605
 20
-34.3091031787
 30
0.0
 11
188.3155795605
 21
-36.002798031
 31
0.0
  0
LINE
  5
3B0
  8
0
  6
CONTINUOUS
 62
     7
 10
187.5155794294
 20
-36.002798031
 30
0.0
 11
187.5155794294
 21
-34.8931459961
 31
0.0
  0
LINE
  5
3B1
  8
0
  6
CONTINUOUS
 62
     7
 10
188.3155795605
 20
-36.002798031
 30
0.0
 11
188.3155795605
 21
-37.9276413256
 31
0.0
  0
LINE
  5
3B2
  8
0
  6
CONTINUOUS
 62
     7
 10
187.5155794294
 20
-36.002798031
 30
0.0
 11
187.5155794294
 21
-37.9276413256
 31
0.0
  0
LINE
  5
3B3
  8
0
  6
CONTINUOUS
 62
     7
 10
188.3155795605
 20
-37.9276413256
 30
0.0
 11
188.3155795605
 21
-43.9401788888
 31
0.0
  0
LINE
  5
3B4
  8
0
  6
CONTINUOUS
 62
     7
 10
187.5155794294
 20
-37.9276413256
 30
0.0
 11
187.5155794294
 21
-43.9401788888
 31
0.0
  0
LINE
  5
3B5
  8
0
  6
CONTINUOUS
 62
     7
 10
171.9155805976
 20
-31.8091033277
 30
0.0
 11
171.9155805976
 21
-33.8744810102
 31
0.0
  0
LINE
  5
3B6
  8
0
  6
CONTINUOUS
 62
     7
 10
171.9155805976
 20
-38.5655208276
 30
0.0
 11
171.9155805976
 21
-44.0091030923
 31
0.0
  0
LINE
  5
3B7
  8
0
  6
CONTINUOUS
 62
     7
 10
188.3155795605
 20
-43.9401788888
 30
0.0
 11
188.3155795605
 21
-44.0091030923
 31
0.0
  0
LINE
  5
3B8
  8
0
  6
CONTINUOUS
 62
     7
 10
188.3155795605
 20
-31.8091033277
 30
0.0
 11
188.3155795605
 21
-34.3091031787
 31
0.0
  0
LINE
  5
3B9
  8
0
  6
CONTINUOUS
 62
     7
 10
72.0155763299
 20
-32.29529618
 30
0.0
 11
72.0155763299
 21
-44.3091029552
 31
0.0
  0
LINE
  5
3BA
  8
0
  6
CONTINUOUS
 62
     7
 10
68.6155843408
 20
-32.29529618
 30
0.0
 11
68.6155843408
 21
-44.3091029552
 31
0.0
  0
LINE
  5
3BB
  8
0
  6
CONTINUOUS
 62
     7
 10
51.2155818612
 20
-31.9091031579
 30
0.0
 11
51.2155818612
 21
-33.9204618958
 31
0.0
  0
LINE
  5
3BC
  8
0
  6
CONTINUOUS
 62
     7
 10
51.2155818612
 20
-38.625239606
 30
0.0
 11
51.2155818612
 21
-43.9091032622
 31
0.0
  0
LINE
  5
3BD
  8
0
  6
CONTINUOUS
 62
     7
 10
72.0155763299
 20
-29.3091031042
 30
0.0
 11
72.0155763299
 21
-32.29529618
 31
0.0
  0
LINE
  5
3BE
  8
0
  6
CONTINUOUS
 62
     7
 10
68.6155843408
 20
-29.3091031042
 30
0.0
 11
68.6155843408
 21
-32.29529618
 31
0.0
  0
LINE
  5
3BF
  8
0
  6
CONTINUOUS
 62
     7
 10
192.0155796082
 20
-32.29529618
 30
0.0
 11
192.0155796082
 21
-44.3091029552
 31
0.0
  0
LINE
  5
3C0
  8
0
  6
CONTINUOUS
 62
     7
 10
188.6155801685
 20
-32.29529618
 30
0.0
 11
188.6155801685
 21
-44.3091029552
 31
0.0
  0
LINE
  5
3C1
  8
0
  6
CONTINUOUS
 62
     7
 10
171.2155806691
 20
-31.9091031579
 30
0.0
 11
171.2155806691
 21
-33.9204618958
 31
0.0
  0
LINE
  5
3C2
  8
0
  6
CONTINUOUS
 62
     7
 10
171.2155806691
 20
-38.625239606
 30
0.0
 11
171.2155806691
 21
-43.9091032622
 31
0.0
  0
LINE
  5
3C3
  8
0
  6
CONTINUOUS
 62
     7
 10
192.0155796082
 20
-29.3091031042
 30
0.0
 11
192.0155796082
 21
-32.29529618
 31
0.0
  0
LINE
  5
3C4
  8
0
  6
CONTINUOUS
 62
     7
 10
188.6155801685
 20
-29.3091031042
 30
0.0
 11
188.6155801685
 21
-32.29529618
 31
0.0
  0
LINE
  5
3C5
  8
0
  6
CONTINUOUS
 62
     7
 10
428.615586725
 20
-32.29529618
 30
0.0
 11
428.615586725
 21
-44.3091029552
 31
0.0
  0
LINE
  5
3C6
  8
0
  6
CONTINUOUS
 62
     7
 10
432.0155787141
 20
-32.29529618
 30
0.0
 11
432.0155787141
 21
-44.3091029552
 31
0.0
  0
LINE
  5
3C7
  8
0
  6
CONTINUOUS
 62
     7
 10
411.2155842454
 20
-31.9091031579
 30
0.0
 11
411.2155842454
 21
-43.9091032622
 31
0.0
  0
LINE
  5
3C8
  8
0
  6
CONTINUOUS
 62
     7
 10
428.615586725
 20
-29.3091031042
 30
0.0
 11
428.615586725
 21
-32.29529618
 31
0.0
  0
LINE
  5
3C9
  8
0
  6
CONTINUOUS
 62
     7
 10
432.0155787141
 20
-29.3091031042
 30
0.0
 11
432.0155787141
 21
-32.29529618
 31
0.0
  0
LINE
  5
3CA
  8
0
  6
CONTINUOUS
 62
     7
 10
312.0155858667
 20
-32.29529618
 30
0.0
 11
312.0155858667
 21
-44.3091029552
 31
0.0
  0
LINE
  5
3CB
  8
0
  6
CONTINUOUS
 62
     7
 10
308.6155819566
 20
-32.29529618
 30
0.0
 11
308.6155819566
 21
-44.3091029552
 31
0.0
  0
LINE
  5
3CC
  8
0
  6
CONTINUOUS
 62
     7
 10
291.2155794771
 20
-31.9091031579
 30
0.0
 11
291.2155794771
 21
-33.9204618958
 31
0.0
  0
LINE
  5
3CD
  8
0
  6
CONTINUOUS
 62
     7
 10
291.2155794771
 20
-38.625239606
 30
0.0
 11
291.2155794771
 21
-43.9091032622
 31
0.0
  0
LINE
  5
3CE
  8
0
  6
CONTINUOUS
 62
     7
 10
312.0155858667
 20
-29.3091031042
 30
0.0
 11
312.0155858667
 21
-32.29529618
 31
0.0
  0
LINE
  5
3CF
  8
0
  6
CONTINUOUS
 62
     7
 10
308.6155819566
 20
-29.3091031042
 30
0.0
 11
308.6155819566
 21
-32.29529618
 31
0.0
  0
LINE
  5
3D0
  8
0
  6
CONTINUOUS
 62
     7
 10
232.6155799301
 20
-32.29529618
 30
0.0
 11
232.6155799301
 21
-44.3091029552
 31
0.0
  0
LINE
  5
3D1
  8
0
  6
CONTINUOUS
 62
     7
 10
229.2155804903
 20
-32.29529618
 30
0.0
 11
229.2155804903
 21
-44.3091029552
 31
0.0
  0
LINE
  5
3D2
  8
0
  6
CONTINUOUS
 62
     7
 10
250.0155794294
 20
-31.9091031579
 30
0.0
 11
250.0155794294
 21
-33.9205997316
 31
0.0
  0
LINE
  5
3D3
  8
0
  6
CONTINUOUS
 62
     7
 10
250.0155794294
 20
-38.6418591504
 30
0.0
 11
250.0155794294
 21
-43.9091032622
 31
0.0
  0
LINE
  5
3D4
  8
0
  6
CONTINUOUS
 62
     7
 10
232.6155799301
 20
-29.3091031042
 30
0.0
 11
232.6155799301
 21
-32.29529618
 31
0.0
  0
LINE
  5
3D5
  8
0
  6
CONTINUOUS
 62
     7
 10
229.2155804903
 20
-29.3091031042
 30
0.0
 11
229.2155804903
 21
-32.29529618
 31
0.0
  0
LINE
  5
3D6
  8
0
  6
CONTINUOUS
 62
     7
 10
-7.3844266265
 20
-32.29529618
 30
0.0
 11
-7.3844266265
 21
-44.3091029552
 31
0.0
  0
LINE
  5
3D7
  8
0
  6
CONTINUOUS
 62
     7
 10
-10.7844186156
 20
-32.29529618
 30
0.0
 11
-10.7844186156
 21
-44.3091029552
 31
0.0
  0
LINE
  5
3D8
  8
0
  6
CONTINUOUS
 62
     7
 10
10.0155758531
 20
-31.9091031579
 30
0.0
 11
10.0155758531
 21
-33.9205997316
 31
0.0
  0
LINE
  5
3D9
  8
0
  6
CONTINUOUS
 62
     7
 10
10.0155758531
 20
-38.6418591504
 30
0.0
 11
10.0155758531
 21
-43.9091032622
 31
0.0
  0
LINE
  5
3DA
  8
0
  6
CONTINUOUS
 62
     7
 10
-7.3844266265
 20
-29.3091031042
 30
0.0
 11
-7.3844266265
 21
-32.29529618
 31
0.0
  0
LINE
  5
3DB
  8
0
  6
CONTINUOUS
 62
     7
 10
-10.7844186156
 20
-29.3091031042
 30
0.0
 11
-10.7844186156
 21
-32.29529618
 31
0.0
  0
LINE
  5
3DC
  8
0
  6
CONTINUOUS
 62
     7
 10
349.2155837686
 20
-32.29529618
 30
0.0
 11
349.2155837686
 21
-44.3091029552
 31
0.0
  0
LINE
  5
3DD
  8
0
  6
CONTINUOUS
 62
     7
 10
352.6155757577
 20
-32.29529618
 30
0.0
 11
352.6155757577
 21
-44.3091029552
 31
0.0
  0
LINE
  5
3DE
  8
0
  6
CONTINUOUS
 62
     7
 10
370.0155782373
 20
-31.9091031579
 30
0.0
 11
370.0155782373
 21
-43.9091032622
 31
0.0
  0
LINE
  5
3DF
  8
0
  6
CONTINUOUS
 62
     7
 10
349.2155837686
 20
-29.3091031042
 30
0.0
 11
349.2155837686
 21
-32.29529618
 31
0.0
  0
LINE
  5
3E0
  8
0
  6
CONTINUOUS
 62
     7
 10
352.6155757577
 20
-29.3091031042
 30
0.0
 11
352.6155757577
 21
-32.29529618
 31
0.0
  0
LINE
  5
3E1
  8
0
  6
CONTINUOUS
 62
     7
 10
109.2155742318
 20
-32.29529618
 30
0.0
 11
109.2155742318
 21
-44.3091029552
 31
0.0
  0
LINE
  5
3E2
  8
0
  6
CONTINUOUS
 62
     7
 10
112.6155781419
 20
-32.29529618
 30
0.0
 11
112.6155781419
 21
-44.3091029552
 31
0.0
  0
LINE
  5
3E3
  8
0
  6
CONTINUOUS
 62
     7
 10
130.0155806215
 20
-31.9091031579
 30
0.0
 11
130.0155806215
 21
-33.9205997316
 31
0.0
  0
LINE
  5
3E4
  8
0
  6
CONTINUOUS
 62
     7
 10
130.0155806215
 20
-38.6418591504
 30
0.0
 11
130.0155806215
 21
-43.9091032622
 31
0.0
  0
LINE
  5
3E5
  8
0
  6
CONTINUOUS
 62
     7
 10
109.2155742318
 20
-29.3091031042
 30
0.0
 11
109.2155742318
 21
-32.29529618
 31
0.0
  0
LINE
  5
3E6
  8
0
  6
CONTINUOUS
 62
     7
 10
112.6155781419
 20
-29.3091031042
 30
0.0
 11
112.6155781419
 21
-32.29529618
 31
0.0
  0
ENDSEC
  0
EOF
