  0
SECTION
  2
HEADER
  9
$ACADVER
  1
AC1009
  9
$DWGCODEPAGE
  3
ansi_1252
  9
$INSBASE
 10
0.0
 20
0.0
 30
0.0
  9
$EXTMIN
 10
0.0
 20
0.0
 30
0.0
  9
$EXTMAX
 10
420.0
 20
297.0
 30
0.0
  9
$LIMMIN
 10
0.0
 20
0.0
  9
$LIMMAX
 10
420.0
 20
297.0
  9
$ORTHOMODE
 70
     0
  9
$REGENMODE
 70
     1
  9
$FILLMODE
 70
     1
  9
$QTEXTMODE
 70
     0
  9
$MIRRTEXT
 70
     1
  9
$DRAGMODE
 70
     2
  9
$LTSCALE
 40
1.0
  9
$OSMODE
 70
    37
  9
$ATTMODE
 70
     1
  9
$TEXTSIZE
 40
3.5
  9
$TRACEWID
 40
1.0
  9
$TEXTSTYLE
  7
STANDARD
  9
$CLAYER
  8
0
  9
$CELTYPE
  6
BYLAYER
  9
$CECOLOR
 62
   256
  9
$DIMSCALE
 40
1.0
  9
$DIMASZ
 40
4.0
  9
$DIMEXO
 40
0.0
  9
$DIMDLI
 40
3.75
  9
$DIMRND
 40
0.0
  9
$DIMDLE
 40
0.0
  9
$DIMEXE
 40
2.0
  9
$DIMTP
 40
0.0
  9
$DIMTM
 40
0.0
  9
$DIMTXT
 40
3.5
  9
$DIMCEN
 40
2.5
  9
$DIMTSZ
 40
0.0
  9
$DIMTOL
 70
     0
  9
$DIMLIM
 70
     0
  9
$DIMTIH
 70
     1
  9
$DIMTOH
 70
     1
  9
$DIMSE1
 70
     0
  9
$DIMSE2
 70
     0
  9
$DIMTAD
 70
     1
  9
$DIMZIN
 70
     0
  9
$DIMBLK
  1

  9
$DIMASO
 70
     1
  9
$DIMSHO
 70
     1
  9
$DIMPOST
  1

  9
$DIMAPOST
  1

  9
$DIMALT
 70
     0
  9
$DIMALTD
 70
     3
  9
$DIMALTF
 40
0.0393700787
  9
$DIMLFAC
 40
5.0
  9
$DIMTOFL
 70
     1
  9
$DIMTVP
 40
0.0
  9
$DIMTIX
 70
     0
  9
$DIMSOXD
 70
     0
  9
$DIMSAH
 70
     0
  9
$DIMBLK1
  1

  9
$DIMBLK2
  1

  9
$DIMSTYLE
  2
ISO-25
  9
$DIMCLRD
 70
     0
  9
$DIMCLRE
 70
     0
  9
$DIMCLRT
 70
     0
  9
$DIMTFAC
 40
1.0
  9
$DIMGAP
 40
1.524
  9
$LUNITS
 70
     2
  9
$LUPREC
 70
     2
  9
$SKETCHINC
 40
1.0
  9
$FILLETRAD
 40
10.0
  9
$AUNITS
 70
     0
  9
$AUPREC
 70
     2
  9
$MENU
  1
.
  9
$ELEVATION
 40
0.0
  9
$PELEVATION
 40
0.0
  9
$THICKNESS
 40
0.0
  9
$LIMCHECK
 70
     0
  9
$CHAMFERA
 40
10.0
  9
$CHAMFERB
 40
10.0
  9
$SKPOLY
 70
     0
  9
$TDCREATE
 40
2457802.350676921
  9
$TDUPDATE
 40
2457802.350677176
  9
$TDINDWG
 40
0.0000000116
  9
$TDUSRTIMER
 40
0.0000000116
  9
$USRTIMER
 70
     1
  9
$ANGBASE
 50
0.0
  9
$ANGDIR
 70
     0
  9
$PDMODE
 70
     0
  9
$PDSIZE
 40
-1.0
  9
$PLINEWID
 40
0.0
  9
$COORDS
 70
     1
  9
$SPLFRAME
 70
     0
  9
$SPLINETYPE
 70
     6
  9
$SPLINESEGS
 70
     8
  9
$ATTDIA
 70
     0
  9
$ATTREQ
 70
     1
  9
$HANDLING
 70
     1
  9
$HANDSEED
  5
6F3
  9
$SURFTAB1
 70
     6
  9
$SURFTAB2
 70
     6
  9
$SURFTYPE
 70
     6
  9
$SURFU
 70
     6
  9
$SURFV
 70
     6
  9
$UCSNAME
  2

  9
$UCSORG
 10
0.0
 20
0.0
 30
0.0
  9
$UCSXDIR
 10
1.0
 20
0.0
 30
0.0
  9
$UCSYDIR
 10
0.0
 20
1.0
 30
0.0
  9
$PUCSNAME
  2

  9
$PUCSORG
 10
0.0
 20
0.0
 30
0.0
  9
$PUCSXDIR
 10
1.0
 20
0.0
 30
0.0
  9
$PUCSYDIR
 10
0.0
 20
1.0
 30
0.0
  9
$USERI1
 70
     0
  9
$USERI2
 70
     0
  9
$USERI3
 70
     0
  9
$USERI4
 70
     0
  9
$USERI5
 70
     0
  9
$USERR1
 40
0.0
  9
$USERR2
 40
0.0
  9
$USERR3
 40
0.0
  9
$USERR4
 40
0.0
  9
$USERR5
 40
0.0
  9
$WORLDVIEW
 70
     1
  9
$SHADEDGE
 70
     3
  9
$SHADEDIF
 70
    70
  9
$TILEMODE
 70
     1
  9
$MAXACTVP
 70
    64
  9
$PLIMCHECK
 70
     0
  9
$PEXTMIN
 10
1.0000000000E+20
 20
1.0000000000E+20
 30
1.0000000000E+20
  9
$PEXTMAX
 10
-1.0000000000E+20
 20
-1.0000000000E+20
 30
-1.0000000000E+20
  9
$PLIMMIN
 10
0.0
 20
0.0
  9
$PLIMMAX
 10
420.0
 20
297.0
  9
$UNITMODE
 70
     0
  9
$VISRETAIN
 70
     1
  9
$PLINEGEN
 70
     0
  9
$PSLTSCALE
 70
     1
  0
ENDSEC
  0
SECTION
  2
TABLES
  0
TABLE
  2
VPORT
 70
     1
  0
VPORT
  2
*ACTIVE
 70
     0
 10
0.0
 20
0.0
 11
1.0
 21
1.0
 12
210.0
 22
148.5
 13
0.0
 23
0.0
 14
10.0
 24
10.0
 15
10.0
 25
10.0
 16
0.0
 26
0.0
 36
1.0
 17
0.0
 27
0.0
 37
0.0
 40
297.0
 41
1.4141414141
 42
50.0
 43
0.0
 44
0.0
 50
0.0
 51
0.0
 71
     0
 72
  2000
 73
     1
 74
     3
 75
     0
 76
     0
 77
     0
 78
     0
  0
ENDTAB
  0
TABLE
  2
LTYPE
 70
     6
  0
LTYPE
  2
CONTINUOUS
 70
     0
  3
Solid line
 72
    65
 73
     0
 40
0.0
  0
LTYPE
  2
HIDDEN
 70
     0
  3
Hidden __ __ __ __ __ __ __ __ __ __ __ __ __ __
 72
    65
 73
     2
 40
1.905
 49
1.27
 49
-0.635
  0
LTYPE
  2
PHANTOM
 70
     0
  3
Phantom ______  __  __  ______  __  __  ______
 72
    65
 73
     6
 40
12.7
 49
6.35
 49
-1.27
 49
1.27
 49
-1.27
 49
1.27
 49
-1.27
  0
LTYPE
  2
CENTER
 70
     0
  3
Center ____ _ ____ _ ____ _ ____ _ ____ _ ____
 72
    65
 73
     4
 40
10.16
 49
6.35
 49
-1.27
 49
1.27
 49
-1.27
  0
LTYPE
  2
CENTERX2
 70
     0
  3
Center (2x) ________  __  ________  __  _____
 72
    65
 73
     4
 40
20.32
 49
12.7
 49
-2.54
 49
2.54
 49
-2.54
  0
LTYPE
  2
DOT2
 70
     0
  3
Dot (.5x) ........................................
 72
    65
 73
     2
 40
0.635
 49
0.0
 49
-0.635
  0
ENDTAB
  0
TABLE
  2
LAYER
 70
     2
  0
LAYER
  2
0
 70
     0
 62
     7
  6
CONTINUOUS
  0
LAYER
  2
FORMAT
 70
     0
 62
     7
  6
CONTINUOUS
  0
ENDTAB
  0
TABLE
  2
STYLE
 70
     1
  0
STYLE
  2
STANDARD
 70
     0
 40
0.0
 41
1.0
 50
0.0
 71
     0
 42
3.5
  3
txt
  4

  0
ENDTAB
  0
TABLE
  2
VIEW
 70
     0
  0
ENDTAB
  0
TABLE
  2
UCS
 70
     0
  0
ENDTAB
  0
TABLE
  2
APPID
 70
     1
  0
APPID
  2
ACAD
 70
     0
  0
ENDTAB
  0
TABLE
  2
DIMSTYLE
 70
     1
  0
DIMSTYLE
  2
ISO-25
 70
     0
  3

  4

  5

  6

  7

 40
1.0
 41
2.5
 42
0.625
 43
3.75
 44
1.25
 45
0.0
 46
0.0
 47
0.0
 48
0.0
140
2.5
141
2.5
142
0.0
143
0.0393700787
144
1.0
145
0.0
146
1.0
147
0.625
 71
     0
 72
     0
 73
     0
 74
     0
 75
     0
 76
     0
 77
     1
 78
     8
170
     0
171
     3
172
     1
173
     0
174
     0
175
     0
176
     0
177
     0
178
     0
  0
ENDTAB
  0
ENDSEC
  0
SECTION
  2
BLOCKS
  0
BLOCK
  8
0
  2
$MODEL_SPACE
 70
     0
 10
0.0
 20
0.0
 30
0.0
  3
$MODEL_SPACE
  1

  0
ENDBLK
  5
21
  8
0
  0
BLOCK
 67
     1
  8
0
  2
$PAPER_SPACE
 70
     0
 10
0.0
 20
0.0
 30
0.0
  3
$PAPER_SPACE
  1

  0
ENDBLK
  5
1D
 67
     1
  8
0
  0
ENDSEC
  0
SECTION
  2
ENTITIES
  0
POLYLINE
  5
45
  8
0
  6
CONTINUOUS
 62
     7
 66
     1
 10
0.0
 20
0.0
 30
0.0
  0
VERTEX
  5
325
  8
0
  6
CONTINUOUS
 62
     7
 10
366.9751026534
 20
151.2765072895
 30
0.0
  0
VERTEX
  5
326
  8
0
  6
CONTINUOUS
 62
     7
 10
365.9875013732
 20
151.1446379734
 30
0.0
  0
VERTEX
  5
327
  8
0
  6
CONTINUOUS
 62
     7
 10
364.7779800795
 20
150.9887241436
 30
0.0
  0
VERTEX
  5
328
  8
0
  6
CONTINUOUS
 62
     7
 10
363.7938716315
 20
150.865831287
 30
0.0
  0
VERTEX
  5
329
  8
0
  6
CONTINUOUS
 62
     7
 10
363.0354621314
 20
150.773539455
 30
0.0
  0
VERTEX
  5
32A
  8
0
  6
CONTINUOUS
 62
     7
 10
362.4297716521
 20
150.7022463394
 30
0.0
  0
VERTEX
  5
32B
  8
0
  6
CONTINUOUS
 62
     7
 10
361.8335940741
 20
150.636114986
 30
0.0
  0
VERTEX
  5
32C
  8
0
  6
CONTINUOUS
 62
     7
 10
360.9501101874
 20
150.545760305
 30
0.0
  0
VERTEX
  5
32D
  8
0
  6
CONTINUOUS
 62
     7
 10
360.0796320342
 20
150.4653536392
 30
0.0
  0
VERTEX
  5
32E
  8
0
  6
CONTINUOUS
 62
     7
 10
359.2223265075
 20
150.3934585167
 30
0.0
  0
VERTEX
  5
32F
  8
0
  6
CONTINUOUS
 62
     7
 10
358.3784439467
 20
150.3276549889
 30
0.0
  0
VERTEX
  5
330
  8
0
  6
CONTINUOUS
 62
     7
 10
357.5430848502
 20
150.2634131027
 30
0.0
  0
VERTEX
  5
331
  8
0
  6
CONTINUOUS
 62
     7
 10
356.6889383696
 20
150.1949214054
 30
0.0
  0
VERTEX
  5
332
  8
0
  6
CONTINUOUS
 62
     7
 10
355.8117010497
 20
150.1257323337
 30
0.0
  0
VERTEX
  5
333
  8
0
  6
CONTINUOUS
 62
     7
 10
354.911098709
 20
150.0591479851
 30
0.0
  0
VERTEX
  5
334
  8
0
  6
CONTINUOUS
 62
     7
 10
353.9869644545
 20
149.9956869198
 30
0.0
  0
VERTEX
  5
335
  8
0
  6
CONTINUOUS
 62
     7
 10
353.0392744445
 20
149.9351226402
 30
0.0
  0
VERTEX
  5
336
  8
0
  6
CONTINUOUS
 62
     7
 10
352.1582939528
 20
149.8825275017
 30
0.0
  0
VERTEX
  5
337
  8
0
  6
CONTINUOUS
 62
     7
 10
351.4947512053
 20
149.8448573662
 30
0.0
  0
VERTEX
  5
338
  8
0
  6
CONTINUOUS
 62
     7
 10
350.994942417
 20
149.817534597
 30
0.0
  0
VERTEX
  5
339
  8
0
  6
CONTINUOUS
 62
     7
 10
350.3787734412
 20
149.7849964214
 30
0.0
  0
VERTEX
  5
33A
  8
0
  6
CONTINUOUS
 62
     7
 10
349.6061661147
 20
149.745889814
 30
0.0
  0
VERTEX
  5
33B
  8
0
  6
CONTINUOUS
 62
     7
 10
348.677036991
 20
149.701257856
 30
0.0
  0
VERTEX
  5
33C
  8
0
  6
CONTINUOUS
 62
     7
 10
347.5913383864
 20
149.6523284031
 30
0.0
  0
VERTEX
  5
33D
  8
0
  6
CONTINUOUS
 62
     7
 10
345.9327318572
 20
149.5840632034
 30
0.0
  0
VERTEX
  5
33E
  8
0
  6
CONTINUOUS
 62
     7
 10
344.0135576628
 20
149.5145343853
 30
0.0
  0
VERTEX
  5
33F
  8
0
  6
CONTINUOUS
 62
     7
 10
342.0116164588
 20
149.4522952152
 30
0.0
  0
VERTEX
  5
340
  8
0
  6
CONTINUOUS
 62
     7
 10
336.5991690062
 20
149.3330740047
 30
0.0
  0
VERTEX
  5
341
  8
0
  6
CONTINUOUS
 62
     7
 10
331.1146476172
 20
149.2807113243
 30
0.0
  0
VERTEX
  5
342
  8
0
  6
CONTINUOUS
 62
     7
 10
327.5874354743
 20
149.2821597172
 30
0.0
  0
VERTEX
  5
343
  8
0
  6
CONTINUOUS
 62
     7
 10
324.0317323111
 20
149.3114375187
 30
0.0
  0
VERTEX
  5
344
  8
0
  6
CONTINUOUS
 62
     7
 10
320.5523588561
 20
149.3677341057
 30
0.0
  0
VERTEX
  5
345
  8
0
  6
CONTINUOUS
 62
     7
 10
317.3241593741
 20
149.445363195
 30
0.0
  0
VERTEX
  5
346
  8
0
  6
CONTINUOUS
 62
     7
 10
315.7345511817
 20
149.4929277016
 30
0.0
  0
VERTEX
  5
347
  8
0
  6
CONTINUOUS
 62
     7
 10
314.2146446608
 20
149.5444201542
 30
0.0
  0
VERTEX
  5
348
  8
0
  6
CONTINUOUS
 62
     7
 10
312.7644398116
 20
149.5992266251
 30
0.0
  0
VERTEX
  5
349
  8
0
  6
CONTINUOUS
 62
     7
 10
311.3839366339
 20
149.6567868305
 30
0.0
  0
VERTEX
  5
34A
  8
0
  6
CONTINUOUS
 62
     7
 10
310.0731470488
 20
149.7165226055
 30
0.0
  0
VERTEX
  5
34B
  8
0
  6
CONTINUOUS
 62
     7
 10
308.8825502299
 20
149.7752987457
 30
0.0
  0
VERTEX
  5
34C
  8
0
  6
CONTINUOUS
 62
     7
 10
308.062265148
 20
149.8184107853
 30
0.0
  0
VERTEX
  5
34D
  8
0
  6
CONTINUOUS
 62
     7
 10
307.4256100558
 20
149.8534165932
 30
0.0
  0
VERTEX
  5
34E
  8
0
  6
CONTINUOUS
 62
     7
 10
307.1761169337
 20
149.8675130917
 30
0.0
  0
VERTEX
  5
34F
  8
0
  6
CONTINUOUS
 62
     7
 10
306.9469370745
 20
149.8807155205
 30
0.0
  0
VERTEX
  5
350
  8
0
  6
CONTINUOUS
 62
     7
 10
306.6800334357
 20
149.896391542
 30
0.0
  0
VERTEX
  5
351
  8
0
  6
CONTINUOUS
 62
     7
 10
306.3731768035
 20
149.9144457889
 30
0.0
  0
VERTEX
  5
352
  8
0
  6
CONTINUOUS
 62
     7
 10
305.7991661929
 20
149.9476336552
 30
0.0
  0
VERTEX
  5
353
  8
0
  6
CONTINUOUS
 62
     7
 10
305.1229336165
 20
149.9871574951
 30
0.0
  0
VERTEX
  5
354
  8
0
  6
CONTINUOUS
 62
     7
 10
304.3538370036
 20
150.0344299389
 30
0.0
  0
VERTEX
  5
355
  8
0
  6
CONTINUOUS
 62
     7
 10
303.5441138648
 20
150.0881516052
 30
0.0
  0
VERTEX
  5
356
  8
0
  6
CONTINUOUS
 62
     7
 10
302.7018823527
 20
150.1484834267
 30
0.0
  0
VERTEX
  5
357
  8
0
  6
CONTINUOUS
 62
     7
 10
301.2261845969
 20
150.26504627
 30
0.0
  0
VERTEX
  5
358
  8
0
  6
CONTINUOUS
 62
     7
 10
299.6608891391
 20
150.4037701202
 30
0.0
  0
VERTEX
  5
359
  8
0
  6
CONTINUOUS
 62
     7
 10
297.9983367823
 20
150.5679689957
 30
0.0
  0
VERTEX
  5
35A
  8
0
  6
CONTINUOUS
 62
     7
 10
296.6176428698
 20
150.7171594215
 30
0.0
  0
VERTEX
  5
35B
  8
0
  6
CONTINUOUS
 62
     7
 10
295.0994112395
 20
150.8934997631
 30
0.0
  0
VERTEX
  5
35C
  8
0
  6
CONTINUOUS
 62
     7
 10
293.443957796
 20
151.0992192341
 30
0.0
  0
VERTEX
  5
35D
  8
0
  6
CONTINUOUS
 62
     7
 10
292.0983889006
 20
151.2771152569
 30
0.0
  0
SEQEND
  5
6F2
  8
0
  6
CONTINUOUS
 62
     7
  0
LINE
  5
46
  8
0
  6
CONTINUOUS
 62
     7
 10
291.9507481955
 20
150.2155326916
 30
0.0
 11
291.9363894366
 21
150.1522265984
 31
0.0
  0
LINE
  5
47
  8
0
  6
CONTINUOUS
 62
     7
 10
292.0844712161
 20
151.2800060821
 30
0.0
 11
292.0811452769
 21
151.2530111385
 31
0.0
  0
POLYLINE
  5
48
  8
0
  6
CONTINUOUS
 62
     7
 66
     1
 10
0.0
 20
0.0
 30
0.0
  0
VERTEX
  5
35E
  8
0
  6
CONTINUOUS
 62
     7
 10
292.0487918757
 20
150.9903394295
 30
0.0
  0
VERTEX
  5
35F
  8
0
  6
CONTINUOUS
 62
     7
 10
292.0132973098
 20
150.7021211697
 30
0.0
  0
VERTEX
  5
360
  8
0
  6
CONTINUOUS
 62
     7
 10
291.9365920924
 20
150.1054011894
 30
0.0
  0
SEQEND
  5
6F1
  8
0
  6
CONTINUOUS
 62
     7
  0
POLYLINE
  5
49
  8
0
  6
CONTINUOUS
 62
     7
 66
     1
 10
0.0
 20
0.0
 30
0.0
  0
VERTEX
  5
361
  8
0
  6
CONTINUOUS
 62
     7
 10
367.1372392081
 20
150.103791864
 30
0.0
  0
VERTEX
  5
362
  8
0
  6
CONTINUOUS
 62
     7
 10
367.0604326628
 20
150.7013284279
 30
0.0
  0
VERTEX
  5
363
  8
0
  6
CONTINUOUS
 62
     7
 10
367.0254447364
 20
150.9853505207
 30
0.0
  0
SEQEND
  5
6F0
  8
0
  6
CONTINUOUS
 62
     7
  0
LINE
  5
4A
  8
0
  6
CONTINUOUS
 62
     7
 10
366.9913628005
 20
151.2621008469
 30
0.0
 11
366.9891574286
 21
151.2800060821
 31
0.0
  0
LINE
  5
4B
  8
0
  6
CONTINUOUS
 62
     7
 10
367.1372392081
 20
150.1522265984
 30
0.0
 11
367.1228864096
 21
150.2154909683
 31
0.0
  0
LINE
  5
4C
  8
0
  6
CONTINUOUS
 62
     7
 10
51.8368103408
 20
139.6927558494
 30
0.0
 11
68.236813774
 21
139.6927558494
 31
0.0
  0
LINE
  5
4D
  8
0
  6
CONTINUOUS
 62
     7
 10
68.236813774
 20
151.8927537514
 30
0.0
 11
52.636811962
 21
151.8927537514
 31
0.0
  0
LINE
  5
4E
  8
0
  6
CONTINUOUS
 62
     7
 10
66.7357304
 20
154.2119049145
 30
0.0
 11
66.7998053931
 21
154.2119049145
 31
0.0
  0
LINE
  5
4F
  8
0
  6
CONTINUOUS
 62
     7
 10
171.8368121289
 20
139.6927558494
 30
0.0
 11
188.2368125819
 21
139.6927558494
 31
0.0
  0
LINE
  5
50
  8
0
  6
CONTINUOUS
 62
     7
 10
188.2368125819
 20
151.8927537514
 30
0.0
 11
172.6368137502
 21
151.8927537514
 31
0.0
  0
LINE
  5
51
  8
0
  6
CONTINUOUS
 62
     7
 10
186.735730698
 20
154.2119049145
 30
0.0
 11
186.7997997307
 21
154.2119049145
 31
0.0
  0
LINE
  5
52
  8
0
  6
CONTINUOUS
 62
     7
 10
291.836813917
 20
139.7616767002
 30
0.0
 11
292.6368095778
 21
139.7616767002
 31
0.0
  0
LINE
  5
53
  8
0
  6
CONTINUOUS
 62
     7
 10
291.836813917
 20
139.6927558494
 30
0.0
 11
308.2368113898
 21
139.6927558494
 31
0.0
  0
LINE
  5
54
  8
0
  6
CONTINUOUS
 62
     7
 10
308.2368113898
 20
151.8927537514
 30
0.0
 11
291.836813917
 21
151.8927537514
 31
0.0
  0
LINE
  5
55
  8
0
  6
CONTINUOUS
 62
     7
 10
126.4368154906
 20
151.8927537514
 30
0.0
 11
110.8368136786
 21
151.8927537514
 31
0.0
  0
LINE
  5
56
  8
0
  6
CONTINUOUS
 62
     7
 10
110.8368136786
 20
139.6927558494
 30
0.0
 11
127.2368111514
 21
139.6927558494
 31
0.0
  0
LINE
  5
57
  8
0
  6
CONTINUOUS
 62
     7
 10
112.2738220595
 20
154.2119049145
 30
0.0
 11
112.3378910922
 21
154.2119049145
 31
0.0
  0
LINE
  5
58
  8
0
  6
CONTINUOUS
 62
     7
 10
246.4368113183
 20
151.8927537514
 30
0.0
 11
230.8368124865
 21
151.8927537514
 31
0.0
  0
LINE
  5
59
  8
0
  6
CONTINUOUS
 62
     7
 10
230.8368124865
 20
139.6927558494
 30
0.0
 11
247.2368129395
 21
139.6927558494
 31
0.0
  0
LINE
  5
5A
  8
0
  6
CONTINUOUS
 62
     7
 10
232.2738253378
 20
154.2119049145
 30
0.0
 11
232.3378943704
 21
154.2119049145
 31
0.0
  0
LINE
  5
5B
  8
0
  6
CONTINUOUS
 62
     7
 10
366.4368131064
 20
139.7616767002
 30
0.0
 11
367.2368147277
 21
139.7616767002
 31
0.0
  0
LINE
  5
5C
  8
0
  6
CONTINUOUS
 62
     7
 10
367.2368147277
 20
151.8927537514
 30
0.0
 11
350.8368112944
 21
151.8927537514
 31
0.0
  0
LINE
  5
5D
  8
0
  6
CONTINUOUS
 62
     7
 10
350.8368112944
 20
139.6927558494
 30
0.0
 11
367.2368147277
 21
139.6927558494
 31
0.0
  0
LINE
  5
5E
  8
0
  6
CONTINUOUS
 62
     7
 10
250.9368129872
 20
152.1927558495
 30
0.0
 11
247.5368120574
 21
152.1927558495
 31
0.0
  0
LINE
  5
5F
  8
0
  6
CONTINUOUS
 62
     7
 10
247.5368120574
 20
151.7927550388
 30
0.0
 11
247.2368129395
 21
151.7927550388
 31
0.0
  0
LINE
  5
60
  8
0
  6
CONTINUOUS
 62
     7
 10
230.8368124865
 20
151.7927550388
 30
0.0
 11
230.1368125581
 21
151.7927550388
 31
0.0
  0
LINE
  5
61
  8
0
  6
CONTINUOUS
 62
     7
 10
230.1368125581
 20
139.792754562
 30
0.0
 11
230.8368124865
 21
139.792754562
 31
0.0
  0
LINE
  5
62
  8
0
  6
CONTINUOUS
 62
     7
 10
247.2368129395
 20
139.792754562
 30
0.0
 11
247.5368120574
 21
139.792754562
 31
0.0
  0
LINE
  5
63
  8
0
  6
CONTINUOUS
 62
     7
 10
370.9368088149
 20
152.1927558495
 30
0.0
 11
367.5368168258
 21
152.1927558495
 31
0.0
  0
LINE
  5
64
  8
0
  6
CONTINUOUS
 62
     7
 10
367.5368168258
 20
151.7927550388
 30
0.0
 11
367.2368147277
 21
151.7927550388
 31
0.0
  0
LINE
  5
65
  8
0
  6
CONTINUOUS
 62
     7
 10
350.8368112944
 20
151.7927550388
 30
0.0
 11
350.1368143462
 21
151.7927550388
 31
0.0
  0
LINE
  5
66
  8
0
  6
CONTINUOUS
 62
     7
 10
350.1368143462
 20
139.792754562
 30
0.0
 11
350.8368112944
 21
139.792754562
 31
0.0
  0
LINE
  5
67
  8
0
  6
CONTINUOUS
 62
     7
 10
367.2368147277
 20
139.792754562
 30
0.0
 11
367.5368168258
 21
139.792754562
 31
0.0
  0
LINE
  5
68
  8
0
  6
CONTINUOUS
 62
     7
 10
130.9368111991
 20
152.1927558495
 30
0.0
 11
127.5368132495
 21
152.1927558495
 31
0.0
  0
LINE
  5
69
  8
0
  6
CONTINUOUS
 62
     7
 10
127.5368132495
 20
151.7927550388
 30
0.0
 11
127.2368111514
 21
151.7927550388
 31
0.0
  0
LINE
  5
6A
  8
0
  6
CONTINUOUS
 62
     7
 10
110.8368136786
 20
151.7927550388
 30
0.0
 11
110.1368107699
 21
151.7927550388
 31
0.0
  0
LINE
  5
6B
  8
0
  6
CONTINUOUS
 62
     7
 10
110.1368107699
 20
139.792754562
 30
0.0
 11
110.8368136786
 21
139.792754562
 31
0.0
  0
LINE
  5
6C
  8
0
  6
CONTINUOUS
 62
     7
 10
127.2368111514
 20
139.792754562
 30
0.0
 11
127.5368132495
 21
139.792754562
 31
0.0
  0
LINE
  5
6D
  8
0
  6
CONTINUOUS
 62
     7
 10
291.536811819
 20
152.1927558495
 30
0.0
 11
288.1368138694
 21
152.1927558495
 31
0.0
  0
LINE
  5
6E
  8
0
  6
CONTINUOUS
 62
     7
 10
291.536811819
 20
139.792754562
 30
0.0
 11
291.836813917
 21
139.792754562
 31
0.0
  0
LINE
  5
6F
  8
0
  6
CONTINUOUS
 62
     7
 10
308.2368113898
 20
139.792754562
 30
0.0
 11
308.9368142985
 21
139.792754562
 31
0.0
  0
LINE
  5
70
  8
0
  6
CONTINUOUS
 62
     7
 10
308.9368142985
 20
151.7927550388
 30
0.0
 11
308.2368113898
 21
151.7927550388
 31
0.0
  0
LINE
  5
71
  8
0
  6
CONTINUOUS
 62
     7
 10
291.836813917
 20
151.7927550388
 30
0.0
 11
291.536811819
 21
151.7927550388
 31
0.0
  0
LINE
  5
72
  8
0
  6
CONTINUOUS
 62
     7
 10
51.5368082427
 20
152.1927558495
 30
0.0
 11
48.1368162535
 21
152.1927558495
 31
0.0
  0
LINE
  5
73
  8
0
  6
CONTINUOUS
 62
     7
 10
51.5368082427
 20
139.792754562
 30
0.0
 11
51.8368103408
 21
139.792754562
 31
0.0
  0
LINE
  5
74
  8
0
  6
CONTINUOUS
 62
     7
 10
68.236813774
 20
139.792754562
 30
0.0
 11
68.9368107222
 21
139.792754562
 31
0.0
  0
LINE
  5
75
  8
0
  6
CONTINUOUS
 62
     7
 10
68.9368107222
 20
151.7927550388
 30
0.0
 11
68.236813774
 21
151.7927550388
 31
0.0
  0
LINE
  5
76
  8
0
  6
CONTINUOUS
 62
     7
 10
51.8368103408
 20
151.7927550388
 30
0.0
 11
51.5368082427
 21
151.7927550388
 31
0.0
  0
LINE
  5
77
  8
0
  6
CONTINUOUS
 62
     7
 10
171.5368130111
 20
152.1927558495
 30
0.0
 11
168.1368120812
 21
152.1927558495
 31
0.0
  0
LINE
  5
78
  8
0
  6
CONTINUOUS
 62
     7
 10
171.5368130111
 20
139.792754562
 30
0.0
 11
171.8368121289
 21
139.792754562
 31
0.0
  0
LINE
  5
79
  8
0
  6
CONTINUOUS
 62
     7
 10
188.2368125819
 20
139.792754562
 30
0.0
 11
188.9368125104
 21
139.792754562
 31
0.0
  0
LINE
  5
7A
  8
0
  6
CONTINUOUS
 62
     7
 10
188.9368125104
 20
151.7927550388
 30
0.0
 11
188.2368125819
 21
151.7927550388
 31
0.0
  0
LINE
  5
7B
  8
0
  6
CONTINUOUS
 62
     7
 10
171.8368121289
 20
151.7927550388
 30
0.0
 11
171.5368130111
 21
151.7927550388
 31
0.0
  0
LINE
  5
7C
  8
0
  6
CONTINUOUS
 62
     7
 10
71.1225249671
 20
59.1927551342
 30
0.0
 11
67.3638799094
 21
59.1927551342
 31
0.0
  0
LINE
  5
7D
  8
0
  6
CONTINUOUS
 62
     7
 10
67.3638799094
 20
60.3927551446
 30
0.0
 11
71.1225249671
 21
60.3927551446
 31
0.0
  0
LINE
  5
7E
  8
0
  6
CONTINUOUS
 62
     7
 10
71.1225249671
 20
59.1927551342
 30
0.0
 11
77.951095333
 21
59.1927551342
 31
0.0
  0
LINE
  5
7F
  8
0
  6
CONTINUOUS
 62
     7
 10
71.1225249671
 20
60.3927551446
 30
0.0
 11
77.951095333
 21
60.3927551446
 31
0.0
  0
LINE
  5
80
  8
0
  6
CONTINUOUS
 62
     7
 10
81.7097403907
 20
59.1927551342
 30
0.0
 11
77.951095333
 21
59.1927551342
 31
0.0
  0
LINE
  5
81
  8
0
  6
CONTINUOUS
 62
     7
 10
77.951095333
 20
60.3927551446
 30
0.0
 11
81.7097403907
 21
60.3927551446
 31
0.0
  0
LINE
  5
82
  8
0
  6
CONTINUOUS
 62
     7
 10
341.1225297355
 20
59.1927551342
 30
0.0
 11
337.3638846778
 21
59.1927551342
 31
0.0
  0
LINE
  5
83
  8
0
  6
CONTINUOUS
 62
     7
 10
337.3638846778
 20
60.3927551446
 30
0.0
 11
341.1225297355
 21
60.3927551446
 31
0.0
  0
LINE
  5
84
  8
0
  6
CONTINUOUS
 62
     7
 10
341.1225297355
 20
59.1927551342
 30
0.0
 11
347.9511001014
 21
59.1927551342
 31
0.0
  0
LINE
  5
85
  8
0
  6
CONTINUOUS
 62
     7
 10
341.1225297355
 20
60.3927551446
 30
0.0
 11
347.9511001014
 21
60.3927551446
 31
0.0
  0
LINE
  5
86
  8
0
  6
CONTINUOUS
 62
     7
 10
351.709745159
 20
59.1927551342
 30
0.0
 11
347.9511001014
 21
59.1927551342
 31
0.0
  0
LINE
  5
87
  8
0
  6
CONTINUOUS
 62
     7
 10
347.9511001014
 20
60.3927551446
 30
0.0
 11
351.709745159
 21
60.3927551446
 31
0.0
  0
LINE
  5
88
  8
0
  6
CONTINUOUS
 62
     7
 10
86.5368106269
 20
59.1927551342
 30
0.0
 11
86.5368106269
 21
60.3927551446
 31
0.0
  0
LINE
  5
89
  8
0
  6
CONTINUOUS
 62
     7
 10
81.7097403907
 20
59.1927551342
 30
0.0
 11
86.5368106269
 21
59.1927551342
 31
0.0
  0
LINE
  5
8A
  8
0
  6
CONTINUOUS
 62
     7
 10
86.5368106269
 20
60.3927551446
 30
0.0
 11
81.7097403907
 21
60.3927551446
 31
0.0
  0
LINE
  5
8B
  8
0
  6
CONTINUOUS
 62
     7
 10
62.5368096732
 20
59.1927551342
 30
0.0
 11
62.5368096732
 21
60.3927551446
 31
0.0
  0
LINE
  5
8C
  8
0
  6
CONTINUOUS
 62
     7
 10
62.5368096732
 20
59.1927551342
 30
0.0
 11
67.3638799094
 21
59.1927551342
 31
0.0
  0
LINE
  5
8D
  8
0
  6
CONTINUOUS
 62
     7
 10
67.3638799094
 20
60.3927551446
 30
0.0
 11
62.5368096732
 21
60.3927551446
 31
0.0
  0
LINE
  5
8E
  8
0
  6
CONTINUOUS
 62
     7
 10
332.5368144416
 20
59.1927551342
 30
0.0
 11
332.5368144416
 21
60.3927551446
 31
0.0
  0
LINE
  5
8F
  8
0
  6
CONTINUOUS
 62
     7
 10
332.5368144416
 20
59.1927551342
 30
0.0
 11
337.3638846778
 21
59.1927551342
 31
0.0
  0
LINE
  5
90
  8
0
  6
CONTINUOUS
 62
     7
 10
337.3638846778
 20
60.3927551446
 30
0.0
 11
332.5368144416
 21
60.3927551446
 31
0.0
  0
LINE
  5
91
  8
0
  6
CONTINUOUS
 62
     7
 10
356.5368153952
 20
59.1927551342
 30
0.0
 11
356.5368153952
 21
60.3927551446
 31
0.0
  0
LINE
  5
92
  8
0
  6
CONTINUOUS
 62
     7
 10
351.709745159
 20
59.1927551342
 30
0.0
 11
356.5368153952
 21
59.1927551342
 31
0.0
  0
LINE
  5
93
  8
0
  6
CONTINUOUS
 62
     7
 10
356.5368153952
 20
60.3927551446
 30
0.0
 11
351.709745159
 21
60.3927551446
 31
0.0
  0
LINE
  5
94
  8
0
  6
CONTINUOUS
 62
     7
 10
69.5368149184
 20
60.3927551446
 30
0.0
 11
69.5368149184
 21
124.3927561356
 31
0.0
  0
POLYLINE
  5
95
  8
0
  6
CONTINUOUS
 62
     7
 66
     1
 10
0.0
 20
0.0
 30
0.0
  0
VERTEX
  5
364
  8
0
  6
CONTINUOUS
 62
     7
 10
69.5368149184
 20
124.3927561356
 30
0.0
  0
VERTEX
  5
365
  8
0
  6
CONTINUOUS
 62
     7
 10
69.5560314559
 20
124.411972673
 30
0.0
  0
VERTEX
  5
366
  8
0
  6
CONTINUOUS
 62
     7
 10
69.6129300498
 20
124.4688772274
 30
0.0
  0
VERTEX
  5
367
  8
0
  6
CONTINUOUS
 62
     7
 10
69.705341091
 20
124.5612882687
 30
0.0
  0
VERTEX
  5
368
  8
0
  6
CONTINUOUS
 62
     7
 10
69.8297002219
 20
124.6856473995
 30
0.0
  0
VERTEX
  5
369
  8
0
  6
CONTINUOUS
 62
     7
 10
69.9812390708
 20
124.8371862484
 30
0.0
  0
VERTEX
  5
36A
  8
0
  6
CONTINUOUS
 62
     7
 10
70.1541283034
 20
125.0100695206
 30
0.0
  0
VERTEX
  5
36B
  8
0
  6
CONTINUOUS
 62
     7
 10
70.3417279624
 20
125.1976632191
 30
0.0
  0
VERTEX
  5
36C
  8
0
  6
CONTINUOUS
 62
     7
 10
70.5368139647
 20
125.3927551819
 30
0.0
  0
SEQEND
  5
6EF
  8
0
  6
CONTINUOUS
 62
     7
  0
ARC
  5
96
  8
0
  6
CONTINUOUS
 62
     7
 10
372.7368125342
 20
133.9927551342
 30
0.0
 40
0.3999999999999773
 50
0.0
 51
90.0
  0
LINE
  5
97
  8
0
  6
CONTINUOUS
 62
     7
 10
373.1368162535
 20
133.9927577091
 30
0.0
 11
373.1368162535
 21
133.3927535129
 31
0.0
  0
LINE
  5
98
  8
0
  6
CONTINUOUS
 62
     7
 10
46.336815586
 20
134.3927525593
 30
0.0
 11
48.1368162535
 21
134.3927525593
 31
0.0
  0
LINE
  5
99
  8
0
  6
CONTINUOUS
 62
     7
 10
57.9368092917
 20
134.3927525593
 30
0.0
 11
121.1368122004
 21
134.3927525593
 31
0.0
  0
LINE
  5
9A
  8
0
  6
CONTINUOUS
 62
     7
 10
130.9368111991
 20
134.3927525593
 30
0.0
 11
168.1368120812
 21
134.3927525593
 31
0.0
  0
LINE
  5
9B
  8
0
  6
CONTINUOUS
 62
     7
 10
177.9368110799
 20
134.3927525593
 30
0.0
 11
241.1368139886
 21
134.3927525593
 31
0.0
  0
LINE
  5
9C
  8
0
  6
CONTINUOUS
 62
     7
 10
250.9368129872
 20
134.3927525593
 30
0.0
 11
288.1368138694
 21
134.3927525593
 31
0.0
  0
LINE
  5
9D
  8
0
  6
CONTINUOUS
 62
     7
 10
297.936812868
 20
134.3927525593
 30
0.0
 11
361.1368157767
 21
134.3927525593
 31
0.0
  0
LINE
  5
9E
  8
0
  6
CONTINUOUS
 62
     7
 10
370.9368088149
 20
134.3927525593
 30
0.0
 11
372.7368094825
 21
134.3927525593
 31
0.0
  0
POLYLINE
  5
9F
  8
0
  6
CONTINUOUS
 62
     7
 66
     1
 10
0.0
 20
0.0
 30
0.0
  0
VERTEX
  5
36D
  8
0
  6
CONTINUOUS
 62
     7
 10
78.5368182563
 20
125.3927551819
 30
0.0
  0
VERTEX
  5
36E
  8
0
  6
CONTINUOUS
 62
     7
 10
78.7319042586
 20
125.1976632191
 30
0.0
  0
VERTEX
  5
36F
  8
0
  6
CONTINUOUS
 62
     7
 10
78.9194919967
 20
125.0100695206
 30
0.0
  0
VERTEX
  5
370
  8
0
  6
CONTINUOUS
 62
     7
 10
79.0923812293
 20
124.8371862484
 30
0.0
  0
VERTEX
  5
371
  8
0
  6
CONTINUOUS
 62
     7
 10
79.2439200782
 20
124.6856473995
 30
0.0
  0
VERTEX
  5
372
  8
0
  6
CONTINUOUS
 62
     7
 10
79.368279209
 20
124.5612882687
 30
0.0
  0
VERTEX
  5
373
  8
0
  6
CONTINUOUS
 62
     7
 10
79.4606902503
 20
124.4688772274
 30
0.0
  0
VERTEX
  5
374
  8
0
  6
CONTINUOUS
 62
     7
 10
79.5176007651
 20
124.411972673
 30
0.0
  0
VERTEX
  5
375
  8
0
  6
CONTINUOUS
 62
     7
 10
79.5368173026
 20
124.3927561356
 30
0.0
  0
SEQEND
  5
6EE
  8
0
  6
CONTINUOUS
 62
     7
  0
LINE
  5
A0
  8
0
  6
CONTINUOUS
 62
     7
 10
79.5368173026
 20
124.3927561356
 30
0.0
 11
79.5368173026
 21
60.3927551446
 31
0.0
  0
POLYLINE
  5
A1
  8
0
  6
CONTINUOUS
 62
     7
 66
     1
 10
0.0
 20
0.0
 30
0.0
  0
VERTEX
  5
376
  8
0
  6
CONTINUOUS
 62
     7
 10
340.5368068122
 20
125.3927551819
 30
0.0
  0
VERTEX
  5
377
  8
0
  6
CONTINUOUS
 62
     7
 10
340.3417208098
 20
125.1976632191
 30
0.0
  0
VERTEX
  5
378
  8
0
  6
CONTINUOUS
 62
     7
 10
340.1541330718
 20
125.0100695206
 30
0.0
  0
VERTEX
  5
379
  8
0
  6
CONTINUOUS
 62
     7
 10
339.9812438391
 20
124.8371862484
 30
0.0
  0
VERTEX
  5
37A
  8
0
  6
CONTINUOUS
 62
     7
 10
339.8297049903
 20
124.6856473995
 30
0.0
  0
VERTEX
  5
37B
  8
0
  6
CONTINUOUS
 62
     7
 10
339.7053458594
 20
124.5612882687
 30
0.0
  0
VERTEX
  5
37C
  8
0
  6
CONTINUOUS
 62
     7
 10
339.6129348182
 20
124.4688772274
 30
0.0
  0
VERTEX
  5
37D
  8
0
  6
CONTINUOUS
 62
     7
 10
339.5560243033
 20
124.411972673
 30
0.0
  0
VERTEX
  5
37E
  8
0
  6
CONTINUOUS
 62
     7
 10
339.5368077658
 20
124.3927561356
 30
0.0
  0
SEQEND
  5
6ED
  8
0
  6
CONTINUOUS
 62
     7
  0
LINE
  5
A2
  8
0
  6
CONTINUOUS
 62
     7
 10
339.5368077658
 20
124.3927561356
 30
0.0
 11
296.8085923098
 21
124.3927561356
 31
0.0
  0
LINE
  5
A3
  8
0
  6
CONTINUOUS
 62
     7
 10
289.2650344275
 20
124.3927561356
 30
0.0
 11
249.808592429
 21
124.3927561356
 31
0.0
  0
LINE
  5
A4
  8
0
  6
CONTINUOUS
 62
     7
 10
242.2650315665
 20
124.3927561356
 30
0.0
 11
176.8085935019
 21
124.3927561356
 31
0.0
  0
LINE
  5
A5
  8
0
  6
CONTINUOUS
 62
     7
 10
169.2650326394
 20
124.3927561356
 30
0.0
 11
129.8085906409
 21
124.3927561356
 31
0.0
  0
LINE
  5
A6
  8
0
  6
CONTINUOUS
 62
     7
 10
122.2650327586
 20
124.3927561356
 30
0.0
 11
79.5368173026
 21
124.3927561356
 31
0.0
  0
LINE
  5
A7
  8
0
  6
CONTINUOUS
 62
     7
 10
45.9368088149
 20
124.7927569462
 30
0.0
 11
45.9368088149
 21
125.3927551819
 31
0.0
  0
ARC
  5
A8
  8
0
  6
CONTINUOUS
 62
     7
 10
46.3368125342
 20
124.7927551342
 30
0.0
 40
0.3999999999999915
 50
180.0
 51
270.0
  0
LINE
  5
A9
  8
0
  6
CONTINUOUS
 62
     7
 10
339.5368077658
 20
60.3927551446
 30
0.0
 11
339.5368077658
 21
124.3927561356
 31
0.0
  0
LINE
  5
AA
  8
0
  6
CONTINUOUS
 62
     7
 10
45.9368088149
 20
133.3927535129
 30
0.0
 11
45.9368088149
 21
133.9927577091
 31
0.0
  0
ARC
  5
AB
  8
0
  6
CONTINUOUS
 62
     7
 10
46.3368125342
 20
133.9927551342
 30
0.0
 40
0.3999999999999844
 50
90.0
 51
180.0
  0
POLYLINE
  5
AC
  8
0
  6
CONTINUOUS
 62
     7
 66
     1
 10
0.0
 20
0.0
 30
0.0
  0
VERTEX
  5
37F
  8
0
  6
CONTINUOUS
 62
     7
 10
349.53681015
 20
124.3927561356
 30
0.0
  0
VERTEX
  5
380
  8
0
  6
CONTINUOUS
 62
     7
 10
349.5175936126
 20
124.411972673
 30
0.0
  0
VERTEX
  5
381
  8
0
  6
CONTINUOUS
 62
     7
 10
349.4606950187
 20
124.4688772274
 30
0.0
  0
VERTEX
  5
382
  8
0
  6
CONTINUOUS
 62
     7
 10
349.3682839774
 20
124.5612882687
 30
0.0
  0
VERTEX
  5
383
  8
0
  6
CONTINUOUS
 62
     7
 10
349.2439248465
 20
124.6856473995
 30
0.0
  0
VERTEX
  5
384
  8
0
  6
CONTINUOUS
 62
     7
 10
349.0923859977
 20
124.8371862484
 30
0.0
  0
VERTEX
  5
385
  8
0
  6
CONTINUOUS
 62
     7
 10
348.919496765
 20
125.0100695206
 30
0.0
  0
VERTEX
  5
386
  8
0
  6
CONTINUOUS
 62
     7
 10
348.7318971061
 20
125.1976632191
 30
0.0
  0
VERTEX
  5
387
  8
0
  6
CONTINUOUS
 62
     7
 10
348.5368111037
 20
125.3927551819
 30
0.0
  0
SEQEND
  5
6EC
  8
0
  6
CONTINUOUS
 62
     7
  0
LINE
  5
AD
  8
0
  6
CONTINUOUS
 62
     7
 10
372.7368094825
 20
124.3927561356
 30
0.0
 11
369.8085882567
 21
124.3927561356
 31
0.0
  0
LINE
  5
AE
  8
0
  6
CONTINUOUS
 62
     7
 10
362.2650363349
 20
124.3927561356
 30
0.0
 11
349.53681015
 21
124.3927561356
 31
0.0
  0
LINE
  5
AF
  8
0
  6
CONTINUOUS
 62
     7
 10
69.5368149184
 20
124.3927561356
 30
0.0
 11
56.8085887336
 21
124.3927561356
 31
0.0
  0
LINE
  5
B0
  8
0
  6
CONTINUOUS
 62
     7
 10
49.2650368117
 20
124.3927561356
 30
0.0
 11
46.336815586
 21
124.3927561356
 31
0.0
  0
LINE
  5
B1
  8
0
  6
CONTINUOUS
 62
     7
 10
45.9368088149
 20
125.3927551819
 30
0.0
 11
45.9368088149
 21
133.3927535129
 31
0.0
  0
LINE
  5
B2
  8
0
  6
CONTINUOUS
 62
     7
 10
373.1368162535
 20
133.3927535129
 30
0.0
 11
373.1368162535
 21
125.3927551819
 31
0.0
  0
LINE
  5
B3
  8
0
  6
CONTINUOUS
 62
     7
 10
349.53681015
 20
124.3927561356
 30
0.0
 11
349.53681015
 21
60.3927551446
 31
0.0
  0
CIRCLE
  5
B4
  8
0
  6
CONTINUOUS
 62
     7
 10
247.0368125342
 20
128.5927551342
 30
0.0
 40
1.049999999999983
  0
CIRCLE
  5
B5
  8
0
  6
CONTINUOUS
 62
     7
 10
127.0368125342
 20
128.5927551342
 30
0.0
 40
1.049999999999983
  0
CIRCLE
  5
B6
  8
0
  6
CONTINUOUS
 62
     7
 10
367.0368125342
 20
128.5927551342
 30
0.0
 40
1.049999999999955
  0
CIRCLE
  5
B7
  8
0
  6
CONTINUOUS
 62
     7
 10
52.0368125342
 20
128.5927551342
 30
0.0
 40
1.049999999999997
  0
CIRCLE
  5
B8
  8
0
  6
CONTINUOUS
 62
     7
 10
292.0368125342
 20
128.5927551342
 30
0.0
 40
1.050000000000011
  0
CIRCLE
  5
B9
  8
0
  6
CONTINUOUS
 62
     7
 10
172.0368125342
 20
128.5927551342
 30
0.0
 40
1.050000000000011
  0
LINE
  5
BA
  8
0
  6
CONTINUOUS
 62
     7
 10
373.1368162535
 20
125.3927551819
 30
0.0
 11
373.1368162535
 21
124.7927569462
 31
0.0
  0
ARC
  5
BB
  8
0
  6
CONTINUOUS
 62
     7
 10
372.7368125342
 20
124.7927551342
 30
0.0
 40
0.3999999999999915
 50
270.0
 51
0.0
  0
ARC
  5
BC
  8
0
  6
CONTINUOUS
 62
     7
 10
89.5368107461
 20
223.9609781637
 30
0.0
 40
73.93766739022547
 50
244.5871832169
 51
295.4128167831
  0
LINE
  5
BD
  8
0
  6
CONTINUOUS
 62
     7
 10
58.0243089103
 20
223.3281754566
 30
0.0
 11
58.1336476706
 21
223.3385228229
 31
0.0
  0
LINE
  5
BE
  8
0
  6
CONTINUOUS
 62
     7
 10
120.9399738215
 20
223.3385228229
 30
0.0
 11
121.0493125819
 21
223.3281754566
 31
0.0
  0
ARC
  5
BF
  8
0
  6
CONTINUOUS
 62
     7
 10
89.5368107461
 20
-108.8256729622
 30
0.0
 40
333.6453458260344
 50
84.5803871394
 51
95.4196128606
  0
POLYLINE
  5
C0
  8
0
  6
CONTINUOUS
 62
     7
 66
     1
 10
0.0
 20
0.0
 30
0.0
  0
VERTEX
  5
388
  8
0
  6
CONTINUOUS
 62
     7
 10
121.2662138842
 20
157.1775697781
 30
0.0
  0
VERTEX
  5
389
  8
0
  6
CONTINUOUS
 62
     7
 10
122.2670712374
 20
157.7613615108
 30
0.0
  0
VERTEX
  5
38A
  8
0
  6
CONTINUOUS
 62
     7
 10
122.7603533171
 20
158.1742369247
 30
0.0
  0
SEQEND
  5
6EB
  8
0
  6
CONTINUOUS
 62
     7
  0
POLYLINE
  5
C1
  8
0
  6
CONTINUOUS
 62
     7
 66
     1
 10
0.0
 20
0.0
 30
0.0
  0
VERTEX
  5
38B
  8
0
  6
CONTINUOUS
 62
     7
 10
56.2976934813
 20
158.1883036209
 30
0.0
  0
VERTEX
  5
38C
  8
0
  6
CONTINUOUS
 62
     7
 10
56.674275627
 20
157.8564845634
 30
0.0
  0
VERTEX
  5
38D
  8
0
  6
CONTINUOUS
 62
     7
 10
57.8074076079
 20
157.1775697781
 30
0.0
  0
SEQEND
  5
6EA
  8
0
  6
CONTINUOUS
 62
     7
  0
LINE
  5
C2
  8
0
  6
CONTINUOUS
 62
     7
 10
51.9368150138
 20
194.8211454464
 30
0.0
 11
51.9398786925
 21
193.7927507473
 31
0.0
  0
LINE
  5
C3
  8
0
  6
CONTINUOUS
 62
     7
 10
51.9368150138
 20
204.8205160213
 30
0.0
 11
51.9368150138
 21
194.8211454464
 31
0.0
  0
POLYLINE
  5
C4
  8
0
  6
CONTINUOUS
 62
     7
 66
     1
 10
0.0
 20
0.0
 30
0.0
  0
VERTEX
  5
38E
  8
0
  6
CONTINUOUS
 62
     7
 10
51.9367434882
 20
216.4817236973
 30
0.0
  0
VERTEX
  5
38F
  8
0
  6
CONTINUOUS
 62
     7
 10
51.936779251
 20
215.2774118496
 30
0.0
  0
VERTEX
  5
390
  8
0
  6
CONTINUOUS
 62
     7
 10
51.9369103812
 20
214.0638374401
 30
0.0
  0
VERTEX
  5
391
  8
0
  6
CONTINUOUS
 62
     7
 10
51.9373514556
 20
211.758699329
 30
0.0
  0
VERTEX
  5
392
  8
0
  6
CONTINUOUS
 62
     7
 10
51.9377448462
 20
209.4507717205
 30
0.0
  0
VERTEX
  5
393
  8
0
  6
CONTINUOUS
 62
     7
 10
51.9368150138
 20
204.8205160213
 30
0.0
  0
SEQEND
  5
6E9
  8
0
  6
CONTINUOUS
 62
     7
  0
ARC
  5
C5
  8
0
  6
CONTINUOUS
 62
     7
 10
58.6955811026
 20
216.6016617266
 30
0.0
 40
6.759925540703464
 50
95.6989614911
 51
181.0166241387
  0
ARC
  5
C6
  8
0
  6
CONTINUOUS
 62
     7
 10
120.3840281851
 20
216.6069973379
 30
0.0
 40
6.754023884491212
 50
358.9453084878
 51
84.3470884531
  0
POLYLINE
  5
C7
  8
0
  6
CONTINUOUS
 62
     7
 66
     1
 10
0.0
 20
0.0
 30
0.0
  0
VERTEX
  5
394
  8
0
  6
CONTINUOUS
 62
     7
 10
127.1349944972
 20
193.7927507473
 30
0.0
  0
VERTEX
  5
395
  8
0
  6
CONTINUOUS
 62
     7
 10
127.1368124389
 20
194.8211454464
 30
0.0
  0
VERTEX
  5
396
  8
0
  6
CONTINUOUS
 62
     7
 10
127.1403767966
 20
197.2516798092
 30
0.0
  0
VERTEX
  5
397
  8
0
  6
CONTINUOUS
 62
     7
 10
127.1389641665
 20
202.1129631115
 30
0.0
  0
VERTEX
  5
398
  8
0
  6
CONTINUOUS
 62
     7
 10
127.1365740203
 20
205.7048224522
 30
0.0
  0
VERTEX
  5
399
  8
0
  6
CONTINUOUS
 62
     7
 10
127.135864725
 20
209.2962049557
 30
0.0
  0
VERTEX
  5
39A
  8
0
  6
CONTINUOUS
 62
     7
 10
127.1362223529
 20
211.6994523121
 30
0.0
  0
VERTEX
  5
39B
  8
0
  6
CONTINUOUS
 62
     7
 10
127.1366693877
 20
214.1011380268
 30
0.0
  0
VERTEX
  5
39C
  8
0
  6
CONTINUOUS
 62
     7
 10
127.1368839644
 20
216.4826773716
 30
0.0
  0
SEQEND
  5
6E8
  8
0
  6
CONTINUOUS
 62
     7
  0
LINE
  5
C8
  8
0
  6
CONTINUOUS
 62
     7
 10
58.0839970015
 20
157.0551597191
 30
0.0
 11
58.2042076491
 21
156.9903813911
 31
0.0
  0
LINE
  5
C9
  8
0
  6
CONTINUOUS
 62
     7
 10
120.869413843
 20
156.9903813911
 30
0.0
 11
120.9790565871
 21
157.049473436
 31
0.0
  0
LINE
  5
CA
  8
0
  6
CONTINUOUS
 62
     7
 10
121.2834038638
 20
223.288514526
 30
0.0
 11
120.9399738215
 21
223.3385228229
 31
0.0
  0
POLYLINE
  5
CB
  8
0
  6
CONTINUOUS
 62
     7
 66
     1
 10
0.0
 20
0.0
 30
0.0
  0
VERTEX
  5
39D
  8
0
  6
CONTINUOUS
 62
     7
 10
291.936741104
 20
149.7318052364
 30
0.0
  0
VERTEX
  5
39E
  8
0
  6
CONTINUOUS
 62
     7
 10
291.9367768668
 20
149.8987459255
 30
0.0
  0
VERTEX
  5
39F
  8
0
  6
CONTINUOUS
 62
     7
 10
291.936907997
 20
150.0105225159
 30
0.0
  0
VERTEX
  5
3A0
  8
0
  6
CONTINUOUS
 62
     7
 10
291.9373550319
 20
150.1080893589
 30
0.0
  0
VERTEX
  5
3A1
  8
0
  6
CONTINUOUS
 62
     7
 10
291.9375457667
 20
150.1021944595
 30
0.0
  0
SEQEND
  5
6E7
  8
0
  6
CONTINUOUS
 62
     7
  0
POLYLINE
  5
CC
  8
0
  6
CONTINUOUS
 62
     7
 66
     1
 10
0.0
 20
0.0
 30
0.0
  0
VERTEX
  5
3A2
  8
0
  6
CONTINUOUS
 62
     7
 10
298.0243124865
 20
146.2020837379
 30
0.0
  0
VERTEX
  5
3A3
  8
0
  6
CONTINUOUS
 62
     7
 10
296.9009199046
 20
146.4144670082
 30
0.0
  0
VERTEX
  5
3A4
  8
0
  6
CONTINUOUS
 62
     7
 10
295.8530344867
 20
146.7495285583
 30
0.0
  0
VERTEX
  5
3A5
  8
0
  6
CONTINUOUS
 62
     7
 10
295.0382270716
 20
147.1117698265
 30
0.0
  0
VERTEX
  5
3A6
  8
0
  6
CONTINUOUS
 62
     7
 10
294.3078019522
 20
147.5186311317
 30
0.0
  0
VERTEX
  5
3A7
  8
0
  6
CONTINUOUS
 62
     7
 10
293.5421206855
 20
148.0395518852
 30
0.0
  0
VERTEX
  5
3A8
  8
0
  6
CONTINUOUS
 62
     7
 10
292.9117479228
 20
148.5526763512
 30
0.0
  0
VERTEX
  5
3A9
  8
0
  6
CONTINUOUS
 62
     7
 10
292.5314583682
 20
148.9069723202
 30
0.0
  0
VERTEX
  5
3AA
  8
0
  6
CONTINUOUS
 62
     7
 10
292.2368802928
 20
149.2188059402
 30
0.0
  0
VERTEX
  5
3AB
  8
0
  6
CONTINUOUS
 62
     7
 10
292.0384743117
 20
149.4753979755
 30
0.0
  0
VERTEX
  5
3AC
  8
0
  6
CONTINUOUS
 62
     7
 10
291.9367172622
 20
149.7318111969
 30
0.0
  0
SEQEND
  5
6E6
  8
0
  6
CONTINUOUS
 62
     7
  0
POLYLINE
  5
CD
  8
0
  6
CONTINUOUS
 62
     7
 66
     1
 10
0.0
 20
0.0
 30
0.0
  0
VERTEX
  5
3AD
  8
0
  6
CONTINUOUS
 62
     7
 10
361.0493161582
 20
146.2020837379
 30
0.0
  0
VERTEX
  5
3AE
  8
0
  6
CONTINUOUS
 62
     7
 10
354.0060737037
 20
145.4160594059
 30
0.0
  0
VERTEX
  5
3AF
  8
0
  6
CONTINUOUS
 62
     7
 10
346.9354369544
 20
144.7985195232
 30
0.0
  0
VERTEX
  5
3B0
  8
0
  6
CONTINUOUS
 62
     7
 10
339.8098447226
 20
144.3763994289
 30
0.0
  0
VERTEX
  5
3B1
  8
0
  6
CONTINUOUS
 62
     7
 10
332.6702334784
 20
144.1679262234
 30
0.0
  0
VERTEX
  5
3B2
  8
0
  6
CONTINUOUS
 62
     7
 10
326.8963792228
 20
144.1623174263
 30
0.0
  0
VERTEX
  5
3B3
  8
0
  6
CONTINUOUS
 62
     7
 10
321.1236097716
 20
144.3012737347
 30
0.0
  0
VERTEX
  5
3B4
  8
0
  6
CONTINUOUS
 62
     7
 10
315.3597690963
 20
144.5816003395
 30
0.0
  0
VERTEX
  5
3B5
  8
0
  6
CONTINUOUS
 62
     7
 10
309.564540615
 20
145.002182634
 30
0.0
  0
VERTEX
  5
3B6
  8
0
  6
CONTINUOUS
 62
     7
 10
303.7845172786
 20
145.5477797104
 30
0.0
  0
VERTEX
  5
3B7
  8
0
  6
CONTINUOUS
 62
     7
 10
298.0243124865
 20
146.2020837379
 30
0.0
  0
SEQEND
  5
6E5
  8
0
  6
CONTINUOUS
 62
     7
  0
POLYLINE
  5
CE
  8
0
  6
CONTINUOUS
 62
     7
 66
     1
 10
0.0
 20
0.0
 30
0.0
  0
VERTEX
  5
3B8
  8
0
  6
CONTINUOUS
 62
     7
 10
367.1369054221
 20
149.7316502644
 30
0.0
  0
VERTEX
  5
3B9
  8
0
  6
CONTINUOUS
 62
     7
 10
367.0477487944
 20
149.4958960129
 30
0.0
  0
VERTEX
  5
3BA
  8
0
  6
CONTINUOUS
 62
     7
 10
366.79193758
 20
149.1704665733
 30
0.0
  0
VERTEX
  5
3BB
  8
0
  6
CONTINUOUS
 62
     7
 10
366.3921215438
 20
148.7631820751
 30
0.0
  0
VERTEX
  5
3BC
  8
0
  6
CONTINUOUS
 62
     7
 10
365.8609130286
 20
148.2970320297
 30
0.0
  0
VERTEX
  5
3BD
  8
0
  6
CONTINUOUS
 62
     7
 10
365.1275374793
 20
147.7520965649
 30
0.0
  0
VERTEX
  5
3BE
  8
0
  6
CONTINUOUS
 62
     7
 10
364.2499902152
 20
147.222676189
 30
0.0
  0
VERTEX
  5
3BF
  8
0
  6
CONTINUOUS
 62
     7
 10
363.3717157744
 20
146.8102597309
 30
0.0
  0
VERTEX
  5
3C0
  8
0
  6
CONTINUOUS
 62
     7
 10
362.399420967
 20
146.474405439
 30
0.0
  0
VERTEX
  5
3C1
  8
0
  6
CONTINUOUS
 62
     7
 10
361.735794773
 20
146.3136338306
 30
0.0
  0
VERTEX
  5
3C2
  8
0
  6
CONTINUOUS
 62
     7
 10
361.0493161582
 20
146.2020837379
 30
0.0
  0
SEQEND
  5
6E4
  8
0
  6
CONTINUOUS
 62
     7
  0
POLYLINE
  5
CF
  8
0
  6
CONTINUOUS
 62
     7
 66
     1
 10
0.0
 20
0.0
 30
0.0
  0
VERTEX
  5
3C3
  8
0
  6
CONTINUOUS
 62
     7
 10
367.1360709571
 20
150.103714378
 30
0.0
  0
VERTEX
  5
3C4
  8
0
  6
CONTINUOUS
 62
     7
 10
367.1362259291
 20
150.1126133514
 30
0.0
  0
VERTEX
  5
3C5
  8
0
  6
CONTINUOUS
 62
     7
 10
367.1366670035
 20
150.0146888805
 30
0.0
  0
VERTEX
  5
3C6
  8
0
  6
CONTINUOUS
 62
     7
 10
367.1368815802
 20
149.7316443039
 30
0.0
  0
SEQEND
  5
6E3
  8
0
  6
CONTINUOUS
 62
     7
  0
POLYLINE
  5
D0
  8
0
  6
CONTINUOUS
 62
     7
 66
     1
 10
0.0
 20
0.0
 30
0.0
  0
VERTEX
  5
3C7
  8
0
  6
CONTINUOUS
 62
     7
 10
294.3304636382
 20
151.1074387146
 30
0.0
  0
VERTEX
  5
3C8
  8
0
  6
CONTINUOUS
 62
     7
 10
293.5560800933
 20
151.1094414307
 30
0.0
  0
VERTEX
  5
3C9
  8
0
  6
CONTINUOUS
 62
     7
 10
293.3599927329
 20
151.1103176189
 30
0.0
  0
SEQEND
  5
6E2
  8
0
  6
CONTINUOUS
 62
     7
  0
POLYLINE
  5
D1
  8
0
  6
CONTINUOUS
 62
     7
 66
     1
 10
0.0
 20
0.0
 30
0.0
  0
VERTEX
  5
3CA
  8
0
  6
CONTINUOUS
 62
     7
 10
292.0833983325
 20
151.2650631977
 30
0.0
  0
VERTEX
  5
3CB
  8
0
  6
CONTINUOUS
 62
     7
 10
292.0735158824
 20
151.2121998383
 30
0.0
  0
VERTEX
  5
3CC
  8
0
  6
CONTINUOUS
 62
     7
 10
292.0450069808
 20
150.9563707424
 30
0.0
  0
SEQEND
  5
6E1
  8
0
  6
CONTINUOUS
 62
     7
  0
ARC
  5
D2
  8
0
  6
CONTINUOUS
 62
     7
 10
293.1531103938
 20
136.5452168438
 30
0.0
 40
14.60969668671557
 50
75.6822755447
 51
85.3777097861
  0
ARC
  5
D3
  8
0
  6
CONTINUOUS
 62
     7
 10
365.7607295012
 20
137.3323161086
 30
0.0
 40
13.81261302932282
 50
94.2247381702
 51
104.9751728166
  0
POLYLINE
  5
D4
  8
0
  6
CONTINUOUS
 62
     7
 66
     1
 10
0.0
 20
0.0
 30
0.0
  0
VERTEX
  5
3CD
  8
0
  6
CONTINUOUS
 62
     7
 10
364.743170967
 20
151.1073969913
 30
0.0
  0
VERTEX
  5
3CE
  8
0
  6
CONTINUOUS
 62
     7
 10
365.60094141
 20
151.1097692562
 30
0.0
  0
VERTEX
  5
3CF
  8
0
  6
CONTINUOUS
 62
     7
 10
365.7211639785
 20
151.110305698
 30
0.0
  0
SEQEND
  5
6E0
  8
0
  6
CONTINUOUS
 62
     7
  0
POLYLINE
  5
D5
  8
0
  6
CONTINUOUS
 62
     7
 66
     1
 10
0.0
 20
0.0
 30
0.0
  0
VERTEX
  5
3D0
  8
0
  6
CONTINUOUS
 62
     7
 10
366.9490673446
 20
151.1068188263
 30
0.0
  0
VERTEX
  5
3D1
  8
0
  6
CONTINUOUS
 62
     7
 10
366.9585921668
 20
151.0951661182
 30
0.0
  0
VERTEX
  5
3D2
  8
0
  6
CONTINUOUS
 62
     7
 10
366.9710733794
 20
151.1193358017
 30
0.0
  0
VERTEX
  5
3D3
  8
0
  6
CONTINUOUS
 62
     7
 10
366.9725873374
 20
151.1768125606
 30
0.0
  0
VERTEX
  5
3D4
  8
0
  6
CONTINUOUS
 62
     7
 10
366.9740416907
 20
151.2477003647
 30
0.0
  0
SEQEND
  5
6DF
  8
0
  6
CONTINUOUS
 62
     7
  0
POLYLINE
  5
D6
  8
0
  6
CONTINUOUS
 62
     7
 66
     1
 10
0.0
 20
0.0
 30
0.0
  0
VERTEX
  5
3D5
  8
0
  6
CONTINUOUS
 62
     7
 10
366.9758298301
 20
151.2711190296
 30
0.0
  0
VERTEX
  5
3D6
  8
0
  6
CONTINUOUS
 62
     7
 10
366.977844467
 20
151.2977563454
 30
0.0
  0
VERTEX
  5
3D7
  8
0
  6
CONTINUOUS
 62
     7
 10
366.986582508
 20
151.2912952019
 30
0.0
  0
VERTEX
  5
3D8
  8
0
  6
CONTINUOUS
 62
     7
 10
367.0028664969
 20
151.1917852474
 30
0.0
  0
VERTEX
  5
3D9
  8
0
  6
CONTINUOUS
 62
     7
 10
367.0286157035
 20
150.9563707424
 30
0.0
  0
SEQEND
  5
6DE
  8
0
  6
CONTINUOUS
 62
     7
  0
POLYLINE
  5
D7
  8
0
  6
CONTINUOUS
 62
     7
 66
     1
 10
0.0
 20
0.0
 30
0.0
  0
VERTEX
  5
3DA
  8
0
  6
CONTINUOUS
 62
     7
 10
367.0286157035
 20
150.9563707424
 30
0.0
  0
VERTEX
  5
3DB
  8
0
  6
CONTINUOUS
 62
     7
 10
366.9542291068
 20
150.7421039654
 30
0.0
  0
VERTEX
  5
3DC
  8
0
  6
CONTINUOUS
 62
     7
 10
366.7096235656
 20
150.4484438015
 30
0.0
  0
VERTEX
  5
3DD
  8
0
  6
CONTINUOUS
 62
     7
 10
366.307351818
 20
150.0760041786
 30
0.0
  0
VERTEX
  5
3DE
  8
0
  6
CONTINUOUS
 62
     7
 10
365.7637932204
 20
149.6448301388
 30
0.0
  0
VERTEX
  5
3DF
  8
0
  6
CONTINUOUS
 62
     7
 10
365.0328733825
 20
149.1494261337
 30
0.0
  0
VERTEX
  5
3E0
  8
0
  6
CONTINUOUS
 62
     7
 10
364.1602971457
 20
148.6633740974
 30
0.0
  0
VERTEX
  5
3E1
  8
0
  6
CONTINUOUS
 62
     7
 10
363.2683732413
 20
148.2727550579
 30
0.0
  0
VERTEX
  5
3E2
  8
0
  6
CONTINUOUS
 62
     7
 10
362.2828938865
 20
147.9539476944
 30
0.0
  0
VERTEX
  5
3E3
  8
0
  6
CONTINUOUS
 62
     7
 10
361.62218832
 20
147.8037082268
 30
0.0
  0
VERTEX
  5
3E4
  8
0
  6
CONTINUOUS
 62
     7
 10
360.9399773978
 20
147.6992451263
 30
0.0
  0
SEQEND
  5
6DD
  8
0
  6
CONTINUOUS
 62
     7
  0
POLYLINE
  5
D8
  8
0
  6
CONTINUOUS
 62
     7
 66
     1
 10
0.0
 20
0.0
 30
0.0
  0
VERTEX
  5
3E5
  8
0
  6
CONTINUOUS
 62
     7
 10
360.9399773978
 20
147.6992451263
 30
0.0
  0
VERTEX
  5
3E6
  8
0
  6
CONTINUOUS
 62
     7
 10
355.8753707312
 20
147.1494638039
 30
0.0
  0
VERTEX
  5
3E7
  8
0
  6
CONTINUOUS
 62
     7
 10
350.8972623252
 20
146.6856085373
 30
0.0
  0
VERTEX
  5
3E8
  8
0
  6
CONTINUOUS
 62
     7
 10
345.9049441718
 20
146.3063859058
 30
0.0
  0
VERTEX
  5
3E9
  8
0
  6
CONTINUOUS
 62
     7
 10
340.8584692382
 20
146.0187636925
 30
0.0
  0
VERTEX
  5
3EA
  8
0
  6
CONTINUOUS
 62
     7
 10
335.8390905761
 20
145.8338998867
 30
0.0
  0
VERTEX
  5
3EB
  8
0
  6
CONTINUOUS
 62
     7
 10
330.7967402839
 20
145.7535885883
 30
0.0
  0
VERTEX
  5
3EC
  8
0
  6
CONTINUOUS
 62
     7
 10
325.7671573066
 20
145.780237825
 30
0.0
  0
VERTEX
  5
3ED
  8
0
  6
CONTINUOUS
 62
     7
 10
321.1451032065
 20
145.8982729031
 30
0.0
  0
VERTEX
  5
3EE
  8
0
  6
CONTINUOUS
 62
     7
 10
316.5435411834
 20
146.1029790951
 30
0.0
  0
VERTEX
  5
3EF
  8
0
  6
CONTINUOUS
 62
     7
 10
311.9439699553
 20
146.3909946991
 30
0.0
  0
VERTEX
  5
3F0
  8
0
  6
CONTINUOUS
 62
     7
 10
307.3336102866
 20
146.7583440853
 30
0.0
  0
VERTEX
  5
3F1
  8
0
  6
CONTINUOUS
 62
     7
 10
302.787581911
 20
147.1912645412
 30
0.0
  0
VERTEX
  5
3F2
  8
0
  6
CONTINUOUS
 62
     7
 10
298.1336512469
 20
147.6992451263
 30
0.0
  0
SEQEND
  5
6DC
  8
0
  6
CONTINUOUS
 62
     7
  0
POLYLINE
  5
D9
  8
0
  6
CONTINUOUS
 62
     7
 66
     1
 10
0.0
 20
0.0
 30
0.0
  0
VERTEX
  5
3F3
  8
0
  6
CONTINUOUS
 62
     7
 10
298.1336512469
 20
147.6992451263
 30
0.0
  0
VERTEX
  5
3F4
  8
0
  6
CONTINUOUS
 62
     7
 10
297.7020480536
 20
147.7593623711
 30
0.0
  0
VERTEX
  5
3F5
  8
0
  6
CONTINUOUS
 62
     7
 10
297.2685553931
 20
147.8403293205
 30
0.0
  0
VERTEX
  5
3F6
  8
0
  6
CONTINUOUS
 62
     7
 10
296.8357124232
 20
147.9421400143
 30
0.0
  0
VERTEX
  5
3F7
  8
0
  6
CONTINUOUS
 62
     7
 10
296.4438595675
 20
148.0529748512
 30
0.0
  0
VERTEX
  5
3F8
  8
0
  6
CONTINUOUS
 62
     7
 10
296.0483946704
 20
148.183044107
 30
0.0
  0
VERTEX
  5
3F9
  8
0
  6
CONTINUOUS
 62
     7
 10
295.6520297431
 20
148.3322762562
 30
0.0
  0
VERTEX
  5
3FA
  8
0
  6
CONTINUOUS
 62
     7
 10
295.3446545504
 20
148.4615289284
 30
0.0
  0
VERTEX
  5
3FB
  8
0
  6
CONTINUOUS
 62
     7
 10
295.0409271621
 20
148.601117046
 30
0.0
  0
VERTEX
  5
3FC
  8
0
  6
CONTINUOUS
 62
     7
 10
294.7533466719
 20
148.7445139004
 30
0.0
  0
VERTEX
  5
3FD
  8
0
  6
CONTINUOUS
 62
     7
 10
294.4804289244
 20
148.8910101963
 30
0.0
  0
VERTEX
  5
3FE
  8
0
  6
CONTINUOUS
 62
     7
 10
294.2142941855
 20
149.0439616753
 30
0.0
  0
VERTEX
  5
3FF
  8
0
  6
CONTINUOUS
 62
     7
 10
293.9881303214
 20
149.1821550442
 30
0.0
  0
VERTEX
  5
400
  8
0
  6
CONTINUOUS
 62
     7
 10
293.7250711821
 20
149.3526183678
 30
0.0
  0
VERTEX
  5
401
  8
0
  6
CONTINUOUS
 62
     7
 10
293.4293308162
 20
149.5576166225
 30
0.0
  0
VERTEX
  5
402
  8
0
  6
CONTINUOUS
 62
     7
 10
293.2179906272
 20
149.7135542942
 30
0.0
  0
VERTEX
  5
403
  8
0
  6
CONTINUOUS
 62
     7
 10
293.0077173613
 20
149.8771511627
 30
0.0
  0
VERTEX
  5
404
  8
0
  6
CONTINUOUS
 62
     7
 10
292.7964963816
 20
150.0508450581
 30
0.0
  0
VERTEX
  5
405
  8
0
  6
CONTINUOUS
 62
     7
 10
292.6204063796
 20
150.2044700695
 30
0.0
  0
VERTEX
  5
406
  8
0
  6
CONTINUOUS
 62
     7
 10
292.4759187602
 20
150.3382109714
 30
0.0
  0
VERTEX
  5
407
  8
0
  6
CONTINUOUS
 62
     7
 10
292.1463050746
 20
150.7014357162
 30
0.0
  0
VERTEX
  5
408
  8
0
  6
CONTINUOUS
 62
     7
 10
292.0450069808
 20
150.9563707424
 30
0.0
  0
SEQEND
  5
6DB
  8
0
  6
CONTINUOUS
 62
     7
  0
ARC
  5
DA
  8
0
  6
CONTINUOUS
 62
     7
 10
209.5368125342
 20
223.960970026
 30
0.0
 40
73.93765876098942
 50
244.5871825967
 51
295.4128174033
  0
LINE
  5
DB
  8
0
  6
CONTINUOUS
 62
     7
 10
178.0243106984
 20
223.3281754566
 30
0.0
 11
178.1336494588
 21
223.3385228229
 31
0.0
  0
LINE
  5
DC
  8
0
  6
CONTINUOUS
 62
     7
 10
240.9399756097
 20
223.3385228229
 30
0.0
 11
241.04931437
 21
223.3281754566
 31
0.0
  0
ARC
  5
DD
  8
0
  6
CONTINUOUS
 62
     7
 10
209.5368125342
 20
-108.8257162678
 30
0.0
 40
333.6453889380387
 50
84.5803878418
 51
95.4196121582
  0
POLYLINE
  5
DE
  8
0
  6
CONTINUOUS
 62
     7
 66
     1
 10
0.0
 20
0.0
 30
0.0
  0
VERTEX
  5
409
  8
0
  6
CONTINUOUS
 62
     7
 10
241.2662126921
 20
157.1775697781
 30
0.0
  0
VERTEX
  5
40A
  8
0
  6
CONTINUOUS
 62
     7
 10
242.2670730256
 20
157.7613615108
 30
0.0
  0
VERTEX
  5
40B
  8
0
  6
CONTINUOUS
 62
     7
 10
242.7603551053
 20
158.1742369247
 30
0.0
  0
SEQEND
  5
6DA
  8
0
  6
CONTINUOUS
 62
     7
  0
POLYLINE
  5
DF
  8
0
  6
CONTINUOUS
 62
     7
 66
     1
 10
0.0
 20
0.0
 30
0.0
  0
VERTEX
  5
40C
  8
0
  6
CONTINUOUS
 62
     7
 10
176.2976952695
 20
158.1883036209
 30
0.0
  0
VERTEX
  5
40D
  8
0
  6
CONTINUOUS
 62
     7
 10
176.6742714547
 20
157.8564845634
 30
0.0
  0
VERTEX
  5
40E
  8
0
  6
CONTINUOUS
 62
     7
 10
177.8074123763
 20
157.1775697781
 30
0.0
  0
SEQEND
  5
6D9
  8
0
  6
CONTINUOUS
 62
     7
  0
LINE
  5
E0
  8
0
  6
CONTINUOUS
 62
     7
 10
171.9368138217
 20
194.8211454464
 30
0.0
 11
171.9398745202
 21
193.7927507473
 31
0.0
  0
LINE
  5
E1
  8
0
  6
CONTINUOUS
 62
     7
 10
171.9368138217
 20
204.8205160213
 30
0.0
 11
171.9368138217
 21
194.8211454464
 31
0.0
  0
POLYLINE
  5
E2
  8
0
  6
CONTINUOUS
 62
     7
 66
     1
 10
0.0
 20
0.0
 30
0.0
  0
VERTEX
  5
40F
  8
0
  6
CONTINUOUS
 62
     7
 10
171.9367422961
 20
216.4817236973
 30
0.0
  0
VERTEX
  5
410
  8
0
  6
CONTINUOUS
 62
     7
 10
171.9367750787
 20
215.2774118496
 30
0.0
  0
VERTEX
  5
411
  8
0
  6
CONTINUOUS
 62
     7
 10
171.9369091891
 20
214.0638374401
 30
0.0
  0
VERTEX
  5
412
  8
0
  6
CONTINUOUS
 62
     7
 10
171.9373562239
 20
211.758699329
 30
0.0
  0
VERTEX
  5
413
  8
0
  6
CONTINUOUS
 62
     7
 10
171.9377466344
 20
209.4507717205
 30
0.0
  0
VERTEX
  5
414
  8
0
  6
CONTINUOUS
 62
     7
 10
171.9368108414
 20
204.8205160213
 30
0.0
  0
SEQEND
  5
6D8
  8
0
  6
CONTINUOUS
 62
     7
  0
ARC
  5
E3
  8
0
  6
CONTINUOUS
 62
     7
 10
178.6955874352
 20
216.6016518017
 30
0.0
 40
6.75993586786385
 50
95.6989914649
 51
181.0165384505
  0
ARC
  5
E4
  8
0
  6
CONTINUOUS
 62
     7
 10
240.3840242278
 20
216.6069922286
 30
0.0
 40
6.75402953491626
 50
358.9453527211
 51
84.3470442198
  0
POLYLINE
  5
E5
  8
0
  6
CONTINUOUS
 62
     7
 66
     1
 10
0.0
 20
0.0
 30
0.0
  0
VERTEX
  5
415
  8
0
  6
CONTINUOUS
 62
     7
 10
247.1349962853
 20
193.7927507473
 30
0.0
  0
VERTEX
  5
416
  8
0
  6
CONTINUOUS
 62
     7
 10
247.1368112468
 20
194.8211454464
 30
0.0
  0
VERTEX
  5
417
  8
0
  6
CONTINUOUS
 62
     7
 10
247.1403756045
 20
197.2516798092
 30
0.0
  0
VERTEX
  5
418
  8
0
  6
CONTINUOUS
 62
     7
 10
247.1389659547
 20
202.1129631115
 30
0.0
  0
VERTEX
  5
419
  8
0
  6
CONTINUOUS
 62
     7
 10
247.1365758084
 20
205.7048224522
 30
0.0
  0
VERTEX
  5
41A
  8
0
  6
CONTINUOUS
 62
     7
 10
247.1358635329
 20
209.2962049557
 30
0.0
  0
VERTEX
  5
41B
  8
0
  6
CONTINUOUS
 62
     7
 10
247.136224141
 20
211.6994523121
 30
0.0
  0
VERTEX
  5
41C
  8
0
  6
CONTINUOUS
 62
     7
 10
247.1366681956
 20
214.1011380268
 30
0.0
  0
VERTEX
  5
41D
  8
0
  6
CONTINUOUS
 62
     7
 10
247.1368827723
 20
216.4826773716
 30
0.0
  0
SEQEND
  5
6D7
  8
0
  6
CONTINUOUS
 62
     7
  0
LINE
  5
E6
  8
0
  6
CONTINUOUS
 62
     7
 10
178.0839928292
 20
157.0551597191
 30
0.0
 11
178.2042124175
 21
156.9903813911
 31
0.0
  0
LINE
  5
E7
  8
0
  6
CONTINUOUS
 62
     7
 10
240.8694126509
 20
156.9903813911
 30
0.0
 11
240.9790583752
 21
157.049473436
 31
0.0
  0
LINE
  5
E8
  8
0
  6
CONTINUOUS
 62
     7
 10
241.2833996915
 20
223.288514526
 30
0.0
 11
240.9399756097
 21
223.3385228229
 31
0.0
  0
LINE
  5
E9
  8
0
  6
CONTINUOUS
 62
     7
 10
51.8368103408
 20
146.793296249
 30
0.0
 11
52.636811962
 21
146.793296249
 31
0.0
  0
LINE
  5
EA
  8
0
  6
CONTINUOUS
 62
     7
 10
68.236813774
 20
139.6927558494
 30
0.0
 11
68.236813774
 21
151.8927537514
 31
0.0
  0
LINE
  5
EB
  8
0
  6
CONTINUOUS
 62
     7
 10
51.8368103408
 20
139.6927558494
 30
0.0
 11
51.8368103408
 21
146.793296249
 31
0.0
  0
LINE
  5
EC
  8
0
  6
CONTINUOUS
 62
     7
 10
52.636811962
 20
146.793296249
 30
0.0
 11
52.636811962
 21
192.3358701778
 31
0.0
  0
LINE
  5
ED
  8
0
  6
CONTINUOUS
 62
     7
 10
51.8368103408
 20
146.793296249
 30
0.0
 11
51.8368103408
 21
192.3358701778
 31
0.0
  0
LINE
  5
EE
  8
0
  6
CONTINUOUS
 62
     7
 10
52.636811962
 20
193.7927507473
 30
0.0
 11
51.8368103408
 21
193.7927507473
 31
0.0
  0
LINE
  5
EF
  8
0
  6
CONTINUOUS
 62
     7
 10
52.636811962
 20
192.3358701778
 30
0.0
 11
52.636811962
 21
193.7927507473
 31
0.0
  0
LINE
  5
F0
  8
0
  6
CONTINUOUS
 62
     7
 10
51.8368103408
 20
192.3358701778
 30
0.0
 11
51.8368103408
 21
193.7927507473
 31
0.0
  0
ARC
  5
F1
  8
0
  6
CONTINUOUS
 62
     7
 10
54.9850386458
 20
191.8050025869
 30
0.0
 40
1.987786709256562
 50
359.6469068559
 51
89.6431718537
  0
LINE
  5
F2
  8
0
  6
CONTINUOUS
 62
     7
 10
56.972787609
 20
184.6305512501
 30
0.0
 11
56.972787609
 21
191.7927526546
 31
0.0
  0
ARC
  5
F3
  8
0
  6
CONTINUOUS
 62
     7
 10
87.1010533229
 20
184.5818377293
 30
0.0
 40
30.12830509567024
 50
179.9073601933
 51
232.1234621275
  0
ARC
  5
F4
  8
0
  6
CONTINUOUS
 62
     7
 10
67.5051577447
 20
159.3923146463
 30
0.0
 40
1.78581854872478
 50
333.9116953809
 51
52.0488141313
  0
POLYLINE
  5
F5
  8
0
  6
CONTINUOUS
 62
     7
 66
     1
 10
0.0
 20
0.0
 30
0.0
  0
VERTEX
  5
41E
  8
0
  6
CONTINUOUS
 62
     7
 10
67.8911187552
 20
155.1443420959
 30
0.0
  0
VERTEX
  5
41F
  8
0
  6
CONTINUOUS
 62
     7
 10
68.3997132682
 20
156.9118522716
 30
0.0
  0
VERTEX
  5
420
  8
0
  6
CONTINUOUS
 62
     7
 10
69.1090323829
 20
158.6069904877
 30
0.0
  0
SEQEND
  5
6D6
  8
0
  6
CONTINUOUS
 62
     7
  0
ARC
  5
F6
  8
0
  6
CONTINUOUS
 62
     7
 10
66.7343291476
 20
155.3971027973
 30
0.0
 40
1.184081993932978
 50
252.0749405521
 51
347.6744805764
  0
POLYLINE
  5
F7
  8
0
  6
CONTINUOUS
 62
     7
 66
     1
 10
0.0
 20
0.0
 30
0.0
  0
VERTEX
  5
421
  8
0
  6
CONTINUOUS
 62
     7
 10
58.2432248496
 20
157.471975
 30
0.0
  0
VERTEX
  5
422
  8
0
  6
CONTINUOUS
 62
     7
 10
62.2672655486
 20
155.7511173798
 30
0.0
  0
VERTEX
  5
423
  8
0
  6
CONTINUOUS
 62
     7
 10
66.3699009322
 20
154.2704962803
 30
0.0
  0
SEQEND
  5
6D5
  8
0
  6
CONTINUOUS
 62
     7
  0
LINE
  5
F8
  8
0
  6
CONTINUOUS
 62
     7
 10
57.2629191779
 20
158.0443286014
 30
0.0
 11
58.2432248496
 21
157.471975
 31
0.0
  0
ARC
  5
F9
  8
0
  6
CONTINUOUS
 62
     7
 10
56.5772944237
 20
157.0779722081
 30
0.0
 40
1.184873825628987
 50
54.6445005898
 51
180.6186280469
  0
LINE
  5
FA
  8
0
  6
CONTINUOUS
 62
     7
 10
55.3924896621
 20
151.8927537514
 30
0.0
 11
55.3924896621
 21
157.0651792599
 31
0.0
  0
LINE
  5
FB
  8
0
  6
CONTINUOUS
 62
     7
 10
54.9974181556
 20
193.7927507473
 30
0.0
 11
52.636811962
 21
193.7927507473
 31
0.0
  0
ARC
  5
FC
  8
0
  6
CONTINUOUS
 62
     7
 10
56.7084960252
 20
157.0742996434
 30
0.0
 40
1.190895375365272
 50
90.2710617878
 51
180.4387997506
  0
LINE
  5
FD
  8
0
  6
CONTINUOUS
 62
     7
 10
55.081413021
 20
193.7927507473
 30
0.0
 11
54.9974181556
 21
193.7927507473
 31
0.0
  0
LINE
  5
FE
  8
0
  6
CONTINUOUS
 62
     7
 10
55.5176355742
 20
151.8927537514
 30
0.0
 11
55.5176355742
 21
157.0651792599
 31
0.0
  0
LINE
  5
FF
  8
0
  6
CONTINUOUS
 62
     7
 10
171.8368121289
 20
146.793296249
 30
0.0
 11
172.6368137502
 21
146.793296249
 31
0.0
  0
LINE
  5
100
  8
0
  6
CONTINUOUS
 62
     7
 10
188.2368125819
 20
139.6927558494
 30
0.0
 11
188.2368125819
 21
151.8927537514
 31
0.0
  0
LINE
  5
101
  8
0
  6
CONTINUOUS
 62
     7
 10
171.8368121289
 20
139.6927558494
 30
0.0
 11
171.8368121289
 21
146.793296249
 31
0.0
  0
LINE
  5
102
  8
0
  6
CONTINUOUS
 62
     7
 10
172.6368137502
 20
146.793296249
 30
0.0
 11
172.6368137502
 21
192.3358701778
 31
0.0
  0
LINE
  5
103
  8
0
  6
CONTINUOUS
 62
     7
 10
171.8368121289
 20
146.793296249
 30
0.0
 11
171.8368121289
 21
192.3358701778
 31
0.0
  0
LINE
  5
104
  8
0
  6
CONTINUOUS
 62
     7
 10
172.6368137502
 20
193.7927507473
 30
0.0
 11
171.8368121289
 21
193.7927507473
 31
0.0
  0
LINE
  5
105
  8
0
  6
CONTINUOUS
 62
     7
 10
172.6368137502
 20
192.3358701778
 30
0.0
 11
172.6368137502
 21
193.7927507473
 31
0.0
  0
LINE
  5
106
  8
0
  6
CONTINUOUS
 62
     7
 10
171.8368121289
 20
192.3358701778
 30
0.0
 11
171.8368121289
 21
193.7927507473
 31
0.0
  0
ARC
  5
107
  8
0
  6
CONTINUOUS
 62
     7
 10
174.985028512
 20
191.8049878129
 30
0.0
 40
1.987801520105249
 50
359.647335336
 51
89.6430026788
  0
LINE
  5
108
  8
0
  6
CONTINUOUS
 62
     7
 10
176.9727923774
 20
184.6305512501
 30
0.0
 11
176.9727923774
 21
191.7927526546
 31
0.0
  0
ARC
  5
109
  8
0
  6
CONTINUOUS
 62
     7
 10
207.1009940559
 20
184.5818041625
 30
0.0
 40
30.12824111466225
 50
179.9072961615
 51
232.1235145853
  0
ARC
  5
10A
  8
0
  6
CONTINUOUS
 62
     7
 10
187.5051547344
 20
159.3923146298
 30
0.0
 40
1.785821512733455
 50
333.9117425335
 51
52.0486930605
  0
POLYLINE
  5
10B
  8
0
  6
CONTINUOUS
 62
     7
 66
     1
 10
0.0
 20
0.0
 30
0.0
  0
VERTEX
  5
424
  8
0
  6
CONTINUOUS
 62
     7
 10
187.8911205434
 20
155.1443420959
 30
0.0
  0
VERTEX
  5
425
  8
0
  6
CONTINUOUS
 62
     7
 10
188.3997090958
 20
156.9118522716
 30
0.0
  0
VERTEX
  5
426
  8
0
  6
CONTINUOUS
 62
     7
 10
189.1090326809
 20
158.6069904877
 30
0.0
  0
SEQEND
  5
6D4
  8
0
  6
CONTINUOUS
 62
     7
  0
ARC
  5
10C
  8
0
  6
CONTINUOUS
 62
     7
 10
186.7343266852
 20
155.3971070897
 30
0.0
 40
1.184087062881065
 50
252.0748571538
 51
347.674321566
  0
POLYLINE
  5
10D
  8
0
  6
CONTINUOUS
 62
     7
 66
     1
 10
0.0
 20
0.0
 30
0.0
  0
VERTEX
  5
427
  8
0
  6
CONTINUOUS
 62
     7
 10
178.2432236575
 20
157.471975
 30
0.0
  0
VERTEX
  5
428
  8
0
  6
CONTINUOUS
 62
     7
 10
182.2672673367
 20
155.7511173798
 30
0.0
  0
VERTEX
  5
429
  8
0
  6
CONTINUOUS
 62
     7
 10
186.3698952698
 20
154.2704962803
 30
0.0
  0
SEQEND
  5
6D3
  8
0
  6
CONTINUOUS
 62
     7
  0
LINE
  5
10E
  8
0
  6
CONTINUOUS
 62
     7
 10
177.2629150056
 20
158.0443286014
 30
0.0
 11
178.2432236575
 21
157.471975
 31
0.0
  0
ARC
  5
10F
  8
0
  6
CONTINUOUS
 62
     7
 10
176.5772918371
 20
157.0779763911
 30
0.0
 40
1.184869496387548
 50
54.6444460832
 51
180.6188325968
  0
LINE
  5
110
  8
0
  6
CONTINUOUS
 62
     7
 10
175.3924914502
 20
151.8927537514
 30
0.0
 11
175.3924914502
 21
157.0651792599
 31
0.0
  0
LINE
  5
111
  8
0
  6
CONTINUOUS
 62
     7
 10
174.9974139832
 20
193.7927507473
 30
0.0
 11
172.6368137502
 21
193.7927507473
 31
0.0
  0
ARC
  5
112
  8
0
  6
CONTINUOUS
 62
     7
 10
176.708494899
 20
157.0743025218
 30
0.0
 40
1.190892483190257
 50
90.2709222324
 51
180.438939306
  0
LINE
  5
113
  8
0
  6
CONTINUOUS
 62
     7
 10
175.0814118289
 20
193.7927507473
 30
0.0
 11
174.9974139832
 21
193.7927507473
 31
0.0
  0
LINE
  5
114
  8
0
  6
CONTINUOUS
 62
     7
 10
175.5176373624
 20
151.8927537514
 30
0.0
 11
175.5176373624
 21
157.0651792599
 31
0.0
  0
LINE
  5
115
  8
0
  6
CONTINUOUS
 62
     7
 10
292.6368095778
 20
148.8088213516
 30
0.0
 11
292.6368095778
 21
147.6990603519
 31
0.0
  0
LINE
  5
116
  8
0
  6
CONTINUOUS
 62
     7
 10
291.836813917
 20
147.6990603519
 30
0.0
 11
291.836813917
 21
149.3927561356
 31
0.0
  0
LINE
  5
117
  8
0
  6
CONTINUOUS
 62
     7
 10
291.9213511847
 20
149.92652169
 30
0.0
 11
291.836813917
 21
149.3927561356
 31
0.0
  0
LINE
  5
118
  8
0
  6
CONTINUOUS
 62
     7
 10
291.836813917
 20
145.7742177559
 30
0.0
 11
291.836813917
 21
147.6990603519
 31
0.0
  0
LINE
  5
119
  8
0
  6
CONTINUOUS
 62
     7
 10
292.6368095778
 20
145.7742177559
 30
0.0
 11
292.6368095778
 21
147.6990603519
 31
0.0
  0
LINE
  5
11A
  8
0
  6
CONTINUOUS
 62
     7
 10
291.836813917
 20
139.7616767002
 30
0.0
 11
291.836813917
 21
145.7742177559
 31
0.0
  0
LINE
  5
11B
  8
0
  6
CONTINUOUS
 62
     7
 10
292.6368095778
 20
139.7616767002
 30
0.0
 11
292.6368095778
 21
145.7742177559
 31
0.0
  0
LINE
  5
11C
  8
0
  6
CONTINUOUS
 62
     7
 10
308.2368113898
 20
149.8314105583
 30
0.0
 11
308.2368113898
 21
151.8927537514
 31
0.0
  0
LINE
  5
11D
  8
0
  6
CONTINUOUS
 62
     7
 10
308.2368113898
 20
139.6927558494
 30
0.0
 11
308.2368113898
 21
145.1241098953
 31
0.0
  0
LINE
  5
11E
  8
0
  6
CONTINUOUS
 62
     7
 10
291.836813917
 20
149.3927561356
 30
0.0
 11
291.836813917
 21
151.8927537514
 31
0.0
  0
LINE
  5
11F
  8
0
  6
CONTINUOUS
 62
     7
 10
291.836813917
 20
139.6927558494
 30
0.0
 11
291.836813917
 21
139.7616767002
 31
0.0
  0
LINE
  5
120
  8
0
  6
CONTINUOUS
 62
     7
 10
127.2368111514
 20
146.793296249
 30
0.0
 11
126.4368154906
 21
146.793296249
 31
0.0
  0
LINE
  5
121
  8
0
  6
CONTINUOUS
 62
     7
 10
110.8368136786
 20
151.8927537514
 30
0.0
 11
110.8368136786
 21
139.6927558494
 31
0.0
  0
LINE
  5
122
  8
0
  6
CONTINUOUS
 62
     7
 10
127.2368111514
 20
146.793296249
 30
0.0
 11
127.2368111514
 21
139.6927558494
 31
0.0
  0
LINE
  5
123
  8
0
  6
CONTINUOUS
 62
     7
 10
126.4368154906
 20
192.3358701778
 30
0.0
 11
126.4368154906
 21
146.793296249
 31
0.0
  0
LINE
  5
124
  8
0
  6
CONTINUOUS
 62
     7
 10
127.2368111514
 20
192.3358701778
 30
0.0
 11
127.2368111514
 21
146.793296249
 31
0.0
  0
LINE
  5
125
  8
0
  6
CONTINUOUS
 62
     7
 10
127.2368111514
 20
193.7927507473
 30
0.0
 11
126.4368154906
 21
193.7927507473
 31
0.0
  0
LINE
  5
126
  8
0
  6
CONTINUOUS
 62
     7
 10
126.4368154906
 20
193.7927507473
 30
0.0
 11
126.4368154906
 21
192.3358701778
 31
0.0
  0
LINE
  5
127
  8
0
  6
CONTINUOUS
 62
     7
 10
127.2368111514
 20
193.7927507473
 30
0.0
 11
127.2368111514
 21
192.3358701778
 31
0.0
  0
ARC
  5
128
  8
0
  6
CONTINUOUS
 62
     7
 10
118.2984191334
 20
162.9343529347
 30
0.0
 40
6.020673798829807
 50
294.8692018604
 51
305.6880228142
  0
ARC
  5
129
  8
0
  6
CONTINUOUS
 62
     7
 10
89.0912366111
 20
226.123924714
 30
0.0
 40
75.633754748766
 50
288.1915691329
 51
294.8120425034
  0
ARC
  5
12A
  8
0
  6
CONTINUOUS
 62
     7
 10
112.33929664
 20
155.3971077892
 30
0.0
 40
1.184087256000116
 50
192.3257110377
 51
287.9250617609
  0
ARC
  5
12B
  8
0
  6
CONTINUOUS
 62
     7
 10
95.7324482219
 20
151.6556473167
 30
0.0
 40
15.83903961038573
 50
12.724259681
 51
26.032061976
  0
ARC
  5
12C
  8
0
  6
CONTINUOUS
 62
     7
 10
111.5684717623
 20
159.3923171571
 30
0.0
 40
1.785821497921969
 50
127.9514381778
 51
206.0883479828
  0
ARC
  5
12D
  8
0
  6
CONTINUOUS
 62
     7
 10
91.9793157445
 20
184.57854447
 30
0.0
 40
30.1215630351588
 50
307.8702528498
 51
0.0989248294
  0
LINE
  5
12E
  8
0
  6
CONTINUOUS
 62
     7
 10
122.1008338832
 20
191.7927526546
 30
0.0
 11
122.1008338832
 21
184.6305512501
 31
0.0
  0
ARC
  5
12F
  8
0
  6
CONTINUOUS
 62
     7
 10
124.0885947546
 20
191.8049907883
 30
0.0
 40
1.987798544622187
 50
90.3569974629
 51
180.3527509572
  0
LINE
  5
130
  8
0
  6
CONTINUOUS
 62
     7
 10
126.4368154906
 20
193.7927507473
 30
0.0
 11
124.0762092971
 21
193.7927507473
 31
0.0
  0
LINE
  5
131
  8
0
  6
CONTINUOUS
 62
     7
 10
123.6811318301
 20
157.0651792599
 30
0.0
 11
123.6811318301
 21
151.8927537514
 31
0.0
  0
ARC
  5
132
  8
0
  6
CONTINUOUS
 62
     7
 10
122.4960102099
 20
157.0773627541
 30
0.0
 40
1.185184243991652
 50
359.4109986692
 51
125.3257226509
  0
ARC
  5
133
  8
0
  6
CONTINUOUS
 62
     7
 10
122.3621148334
 20
157.0717436907
 30
0.0
 40
1.193889131423298
 50
359.6849656575
 51
86.5801751306
  0
LINE
  5
134
  8
0
  6
CONTINUOUS
 62
     7
 10
124.0762092971
 20
193.7927507473
 30
0.0
 11
123.9922144316
 21
193.7927507473
 31
0.0
  0
LINE
  5
135
  8
0
  6
CONTINUOUS
 62
     7
 10
123.5559859179
 20
157.0651792599
 30
0.0
 11
123.5559859179
 21
151.8927537514
 31
0.0
  0
LINE
  5
136
  8
0
  6
CONTINUOUS
 62
     7
 10
230.8368124865
 20
151.8927537514
 30
0.0
 11
230.8368124865
 21
139.6927558494
 31
0.0
  0
LINE
  5
137
  8
0
  6
CONTINUOUS
 62
     7
 10
247.2368129395
 20
146.793296249
 30
0.0
 11
246.4368113183
 21
146.793296249
 31
0.0
  0
LINE
  5
138
  8
0
  6
CONTINUOUS
 62
     7
 10
247.2368129395
 20
146.793296249
 30
0.0
 11
247.2368129395
 21
139.6927558494
 31
0.0
  0
LINE
  5
139
  8
0
  6
CONTINUOUS
 62
     7
 10
246.4368113183
 20
192.3358701778
 30
0.0
 11
246.4368113183
 21
146.793296249
 31
0.0
  0
LINE
  5
13A
  8
0
  6
CONTINUOUS
 62
     7
 10
247.2368129395
 20
192.3358701778
 30
0.0
 11
247.2368129395
 21
146.793296249
 31
0.0
  0
LINE
  5
13B
  8
0
  6
CONTINUOUS
 62
     7
 10
247.2368129395
 20
193.7927507473
 30
0.0
 11
246.4368113183
 21
193.7927507473
 31
0.0
  0
LINE
  5
13C
  8
0
  6
CONTINUOUS
 62
     7
 10
246.4368113183
 20
193.7927507473
 30
0.0
 11
246.4368113183
 21
192.3358701778
 31
0.0
  0
LINE
  5
13D
  8
0
  6
CONTINUOUS
 62
     7
 10
247.2368129395
 20
193.7927507473
 30
0.0
 11
247.2368129395
 21
192.3358701778
 31
0.0
  0
ARC
  5
13E
  8
0
  6
CONTINUOUS
 62
     7
 10
238.2984151967
 20
162.934375924
 30
0.0
 40
6.020695810577141
 50
294.8691335512
 51
305.6879394352
  0
ARC
  5
13F
  8
0
  6
CONTINUOUS
 62
     7
 10
209.0909420286
 20
226.1246364888
 30
0.0
 40
75.63452393837964
 50
288.1916151611
 51
294.8120179715
  0
ARC
  5
140
  8
0
  6
CONTINUOUS
 62
     7
 10
232.3392983833
 20
155.3971070897
 30
0.0
 40
1.184087062881101
 50
192.325678434
 51
287.9251428462
  0
ARC
  5
141
  8
0
  6
CONTINUOUS
 62
     7
 10
215.7325357467
 20
151.6556590987
 30
0.0
 40
15.83895338422741
 50
12.7242864193
 51
26.0321668905
  0
ARC
  5
142
  8
0
  6
CONTINUOUS
 62
     7
 10
231.568470334
 20
159.3923146298
 30
0.0
 40
1.785821512733481
 50
127.9513069395
 51
206.0882574665
  0
ARC
  5
143
  8
0
  6
CONTINUOUS
 62
     7
 10
211.9793124807
 20
184.5785431686
 30
0.0
 40
30.12156510914804
 50
307.8702619552
 51
0.098927298
  0
LINE
  5
144
  8
0
  6
CONTINUOUS
 62
     7
 10
242.1008326911
 20
191.7927526546
 30
0.0
 11
242.1008326911
 21
184.6305512501
 31
0.0
  0
ARC
  5
145
  8
0
  6
CONTINUOUS
 62
     7
 10
244.0885965564
 20
191.8049878129
 30
0.0
 40
1.987801520105271
 50
90.3569973212
 51
180.352664664
  0
LINE
  5
146
  8
0
  6
CONTINUOUS
 62
     7
 10
246.4368113183
 20
193.7927507473
 30
0.0
 11
244.0762110852
 21
193.7927507473
 31
0.0
  0
LINE
  5
147
  8
0
  6
CONTINUOUS
 62
     7
 10
243.6811336182
 20
157.0651792599
 30
0.0
 11
243.6811336182
 21
151.8927537514
 31
0.0
  0
ARC
  5
148
  8
0
  6
CONTINUOUS
 62
     7
 10
242.496011998
 20
157.0773627541
 30
0.0
 40
1.185184243991652
 50
359.4109986692
 51
125.3257226509
  0
ARC
  5
149
  8
0
  6
CONTINUOUS
 62
     7
 10
242.3621097345
 20
157.0717372386
 30
0.0
 40
1.193895982895799
 50
359.6852771112
 51
86.5798636769
  0
LINE
  5
14A
  8
0
  6
CONTINUOUS
 62
     7
 10
244.0762110852
 20
193.7927507473
 30
0.0
 11
243.9922132396
 21
193.7927507473
 31
0.0
  0
LINE
  5
14B
  8
0
  6
CONTINUOUS
 62
     7
 10
243.5559877061
 20
157.0651792599
 30
0.0
 11
243.5559877061
 21
151.8927537514
 31
0.0
  0
LINE
  5
14C
  8
0
  6
CONTINUOUS
 62
     7
 10
367.1477773093
 20
149.9549233032
 30
0.0
 11
367.2368147277
 21
149.3927561356
 31
0.0
  0
LINE
  5
14D
  8
0
  6
CONTINUOUS
 62
     7
 10
367.2368147277
 20
149.3927561356
 30
0.0
 11
367.2368147277
 21
147.6990603519
 31
0.0
  0
LINE
  5
14E
  8
0
  6
CONTINUOUS
 62
     7
 10
366.4368131064
 20
147.6990603519
 30
0.0
 11
366.4368131064
 21
148.8087140633
 31
0.0
  0
LINE
  5
14F
  8
0
  6
CONTINUOUS
 62
     7
 10
367.2368147277
 20
147.6990603519
 30
0.0
 11
367.2368147277
 21
145.7742177559
 31
0.0
  0
LINE
  5
150
  8
0
  6
CONTINUOUS
 62
     7
 10
366.4368131064
 20
147.6990603519
 30
0.0
 11
366.4368131064
 21
145.7742177559
 31
0.0
  0
LINE
  5
151
  8
0
  6
CONTINUOUS
 62
     7
 10
367.2368147277
 20
145.7742177559
 30
0.0
 11
367.2368147277
 21
139.7616767002
 31
0.0
  0
LINE
  5
152
  8
0
  6
CONTINUOUS
 62
     7
 10
366.4368131064
 20
145.7742177559
 30
0.0
 11
366.4368131064
 21
139.7616767002
 31
0.0
  0
LINE
  5
153
  8
0
  6
CONTINUOUS
 62
     7
 10
350.8368112944
 20
151.8927537514
 30
0.0
 11
350.8368112944
 21
149.8273753239
 31
0.0
  0
LINE
  5
154
  8
0
  6
CONTINUOUS
 62
     7
 10
350.8368112944
 20
145.136334808
 30
0.0
 11
350.8368112944
 21
139.6927558494
 31
0.0
  0
LINE
  5
155
  8
0
  6
CONTINUOUS
 62
     7
 10
367.2368147277
 20
139.7616767002
 30
0.0
 11
367.2368147277
 21
139.6927558494
 31
0.0
  0
LINE
  5
156
  8
0
  6
CONTINUOUS
 62
     7
 10
367.2368147277
 20
151.8927537514
 30
0.0
 11
367.2368147277
 21
149.3927561356
 31
0.0
  0
LINE
  5
157
  8
0
  6
CONTINUOUS
 62
     7
 10
250.9368129872
 20
152.1927558495
 30
0.0
 11
250.9368129872
 21
143.0355214191
 31
0.0
  0
LINE
  5
158
  8
0
  6
CONTINUOUS
 62
     7
 10
247.5368120574
 20
152.1927558495
 30
0.0
 11
247.5368120574
 21
143.0355214191
 31
0.0
  0
LINE
  5
159
  8
0
  6
CONTINUOUS
 62
     7
 10
230.1368125581
 20
151.7927550388
 30
0.0
 11
230.1368125581
 21
139.792754562
 31
0.0
  0
LINE
  5
15A
  8
0
  6
CONTINUOUS
 62
     7
 10
241.1368139886
 20
134.1927551342
 30
0.0
 11
241.1368139886
 21
135.1927541805
 31
0.0
  0
LINE
  5
15B
  8
0
  6
CONTINUOUS
 62
     7
 10
241.1368139886
 20
135.1927541805
 30
0.0
 11
250.9368129872
 21
135.1927541805
 31
0.0
  0
LINE
  5
15C
  8
0
  6
CONTINUOUS
 62
     7
 10
250.9368129872
 20
135.1927541805
 30
0.0
 11
250.9368129872
 21
134.1927551342
 31
0.0
  0
CIRCLE
  5
15D
  8
0
  6
CONTINUOUS
 62
     7
 10
247.0368125342
 20
128.5927551342
 30
0.0
 40
1.100000000000023
  0
ARC
  5
15E
  8
0
  6
CONTINUOUS
 62
     7
 10
248.9368125342
 20
126.1927551342
 30
0.0
 40
2.000000000000014
 50
270.0
 51
0.0
  0
ARC
  5
15F
  8
0
  6
CONTINUOUS
 62
     7
 10
243.1368125342
 20
126.1927551342
 30
0.0
 40
2.000000000000014
 50
180.0
 51
270.0
  0
LINE
  5
160
  8
0
  6
CONTINUOUS
 62
     7
 10
241.1368139886
 20
126.1927568031
 30
0.0
 11
241.1368139886
 21
134.1927551342
 31
0.0
  0
LINE
  5
161
  8
0
  6
CONTINUOUS
 62
     7
 10
248.9368119143
 20
124.19275275
 30
0.0
 11
243.1368120812
 21
124.19275275
 31
0.0
  0
LINE
  5
162
  8
0
  6
CONTINUOUS
 62
     7
 10
250.9368129872
 20
126.1927568031
 30
0.0
 11
250.9368129872
 21
134.1927551342
 31
0.0
  0
LINE
  5
163
  8
0
  6
CONTINUOUS
 62
     7
 10
250.9368129872
 20
143.0355214191
 30
0.0
 11
250.9368129872
 21
138.7273453785
 31
0.0
  0
LINE
  5
164
  8
0
  6
CONTINUOUS
 62
     7
 10
247.5368120574
 20
138.7273453785
 30
0.0
 11
247.5368120574
 21
143.0355214191
 31
0.0
  0
LINE
  5
165
  8
0
  6
CONTINUOUS
 62
     7
 10
250.9368129872
 20
138.7273453785
 30
0.0
 11
250.9368129872
 21
135.1927541805
 31
0.0
  0
LINE
  5
166
  8
0
  6
CONTINUOUS
 62
     7
 10
247.5368120574
 20
138.7273453785
 30
0.0
 11
247.5368120574
 21
135.1927541805
 31
0.0
  0
LINE
  5
167
  8
0
  6
CONTINUOUS
 62
     7
 10
370.9368088149
 20
152.1927558495
 30
0.0
 11
370.9368088149
 21
143.0355214191
 31
0.0
  0
LINE
  5
168
  8
0
  6
CONTINUOUS
 62
     7
 10
367.5368168258
 20
152.1927558495
 30
0.0
 11
367.5368168258
 21
143.0355214191
 31
0.0
  0
LINE
  5
169
  8
0
  6
CONTINUOUS
 62
     7
 10
350.1368143462
 20
151.7927550388
 30
0.0
 11
350.1368143462
 21
149.7850143028
 31
0.0
  0
LINE
  5
16A
  8
0
  6
CONTINUOUS
 62
     7
 10
350.1368143462
 20
145.0760923935
 30
0.0
 11
350.1368143462
 21
139.792754562
 31
0.0
  0
CIRCLE
  5
16B
  8
0
  6
CONTINUOUS
 62
     7
 10
367.0368125342
 20
128.5927551342
 30
0.0
 40
1.099999999999966
  0
ARC
  5
16C
  8
0
  6
CONTINUOUS
 62
     7
 10
368.9368125342
 20
126.1927551342
 30
0.0
 40
2.000000000000014
 50
270.0
 51
0.0
  0
LINE
  5
16D
  8
0
  6
CONTINUOUS
 62
     7
 10
368.9368107222
 20
124.19275275
 30
0.0
 11
363.1368138694
 21
124.19275275
 31
0.0
  0
ARC
  5
16E
  8
0
  6
CONTINUOUS
 62
     7
 10
363.1368125342
 20
126.1927551342
 30
0.0
 40
2.000000000000014
 50
180.0
 51
270.0
  0
LINE
  5
16F
  8
0
  6
CONTINUOUS
 62
     7
 10
361.1368157767
 20
126.1927568031
 30
0.0
 11
361.1368157767
 21
134.1927551342
 31
0.0
  0
LINE
  5
170
  8
0
  6
CONTINUOUS
 62
     7
 10
370.9368088149
 20
126.1927568031
 30
0.0
 11
370.9368088149
 21
134.1927551342
 31
0.0
  0
LINE
  5
171
  8
0
  6
CONTINUOUS
 62
     7
 10
361.1368157767
 20
135.1927541805
 30
0.0
 11
370.9368088149
 21
135.1927541805
 31
0.0
  0
LINE
  5
172
  8
0
  6
CONTINUOUS
 62
     7
 10
361.1368157767
 20
134.1927551342
 30
0.0
 11
361.1368157767
 21
135.1927541805
 31
0.0
  0
LINE
  5
173
  8
0
  6
CONTINUOUS
 62
     7
 10
370.9368088149
 20
135.1927541805
 30
0.0
 11
370.9368088149
 21
134.1927551342
 31
0.0
  0
LINE
  5
174
  8
0
  6
CONTINUOUS
 62
     7
 10
370.9368088149
 20
143.0355214191
 30
0.0
 11
370.9368088149
 21
138.7273453785
 31
0.0
  0
LINE
  5
175
  8
0
  6
CONTINUOUS
 62
     7
 10
367.5368168258
 20
138.7273453785
 30
0.0
 11
367.5368168258
 21
143.0355214191
 31
0.0
  0
LINE
  5
176
  8
0
  6
CONTINUOUS
 62
     7
 10
370.9368088149
 20
138.7273453785
 30
0.0
 11
370.9368088149
 21
135.1927541805
 31
0.0
  0
LINE
  5
177
  8
0
  6
CONTINUOUS
 62
     7
 10
367.5368168258
 20
138.7273453785
 30
0.0
 11
367.5368168258
 21
135.1927541805
 31
0.0
  0
LINE
  5
178
  8
0
  6
CONTINUOUS
 62
     7
 10
127.5368132495
 20
152.1927558495
 30
0.0
 11
127.5368132495
 21
143.0355214191
 31
0.0
  0
LINE
  5
179
  8
0
  6
CONTINUOUS
 62
     7
 10
130.9368111991
 20
152.1927558495
 30
0.0
 11
130.9368111991
 21
143.0355214191
 31
0.0
  0
LINE
  5
17A
  8
0
  6
CONTINUOUS
 62
     7
 10
110.1368107699
 20
151.7927550388
 30
0.0
 11
110.1368107699
 21
139.792754562
 31
0.0
  0
LINE
  5
17B
  8
0
  6
CONTINUOUS
 62
     7
 10
121.1368122004
 20
135.1927541805
 30
0.0
 11
130.9368111991
 21
135.1927541805
 31
0.0
  0
LINE
  5
17C
  8
0
  6
CONTINUOUS
 62
     7
 10
121.1368122004
 20
134.1927551342
 30
0.0
 11
121.1368122004
 21
135.1927541805
 31
0.0
  0
LINE
  5
17D
  8
0
  6
CONTINUOUS
 62
     7
 10
130.9368111991
 20
135.1927541805
 30
0.0
 11
130.9368111991
 21
134.1927551342
 31
0.0
  0
LINE
  5
17E
  8
0
  6
CONTINUOUS
 62
     7
 10
121.1368122004
 20
126.1927568031
 30
0.0
 11
121.1368122004
 21
134.1927551342
 31
0.0
  0
ARC
  5
17F
  8
0
  6
CONTINUOUS
 62
     7
 10
123.1368125342
 20
126.1927551342
 30
0.0
 40
2.000000000000014
 50
180.0
 51
270.0
  0
ARC
  5
180
  8
0
  6
CONTINUOUS
 62
     7
 10
128.9368125342
 20
126.1927551342
 30
0.0
 40
2.000000000000014
 50
270.0
 51
0.0
  0
CIRCLE
  5
181
  8
0
  6
CONTINUOUS
 62
     7
 10
127.0368125342
 20
128.5927551342
 30
0.0
 40
1.099999999999994
  0
LINE
  5
182
  8
0
  6
CONTINUOUS
 62
     7
 10
128.9368131064
 20
124.19275275
 30
0.0
 11
123.1368102931
 21
124.19275275
 31
0.0
  0
LINE
  5
183
  8
0
  6
CONTINUOUS
 62
     7
 10
130.9368111991
 20
126.1927568031
 30
0.0
 11
130.9368111991
 21
134.1927551342
 31
0.0
  0
LINE
  5
184
  8
0
  6
CONTINUOUS
 62
     7
 10
127.5368132495
 20
138.7273453785
 30
0.0
 11
127.5368132495
 21
143.0355214191
 31
0.0
  0
LINE
  5
185
  8
0
  6
CONTINUOUS
 62
     7
 10
130.9368111991
 20
143.0355214191
 30
0.0
 11
130.9368111991
 21
138.7273453785
 31
0.0
  0
LINE
  5
186
  8
0
  6
CONTINUOUS
 62
     7
 10
127.5368132495
 20
138.7273453785
 30
0.0
 11
127.5368132495
 21
135.1927541805
 31
0.0
  0
LINE
  5
187
  8
0
  6
CONTINUOUS
 62
     7
 10
130.9368111991
 20
138.7273453785
 30
0.0
 11
130.9368111991
 21
135.1927541805
 31
0.0
  0
LINE
  5
188
  8
0
  6
CONTINUOUS
 62
     7
 10
288.1368138694
 20
152.1927558495
 30
0.0
 11
288.1368138694
 21
143.0355214191
 31
0.0
  0
LINE
  5
189
  8
0
  6
CONTINUOUS
 62
     7
 10
291.536811819
 20
152.1927558495
 30
0.0
 11
291.536811819
 21
143.0355214191
 31
0.0
  0
LINE
  5
18A
  8
0
  6
CONTINUOUS
 62
     7
 10
308.9368142985
 20
151.7927550388
 30
0.0
 11
308.9368142985
 21
149.7848950935
 31
0.0
  0
LINE
  5
18B
  8
0
  6
CONTINUOUS
 62
     7
 10
308.9368142985
 20
145.0591229511
 30
0.0
 11
308.9368142985
 21
139.792754562
 31
0.0
  0
LINE
  5
18C
  8
0
  6
CONTINUOUS
 62
     7
 10
288.1368138694
 20
135.1927541805
 30
0.0
 11
297.936812868
 21
135.1927541805
 31
0.0
  0
LINE
  5
18D
  8
0
  6
CONTINUOUS
 62
     7
 10
297.936812868
 20
135.1927541805
 30
0.0
 11
297.936812868
 21
134.1927551342
 31
0.0
  0
LINE
  5
18E
  8
0
  6
CONTINUOUS
 62
     7
 10
288.1368138694
 20
134.1927551342
 30
0.0
 11
288.1368138694
 21
135.1927541805
 31
0.0
  0
CIRCLE
  5
18F
  8
0
  6
CONTINUOUS
 62
     7
 10
292.0368125342
 20
128.5927551342
 30
0.0
 40
1.100000000000023
  0
LINE
  5
190
  8
0
  6
CONTINUOUS
 62
     7
 10
297.936812868
 20
134.1927551342
 30
0.0
 11
297.936812868
 21
126.1927568031
 31
0.0
  0
ARC
  5
191
  8
0
  6
CONTINUOUS
 62
     7
 10
295.9368125342
 20
126.1927551342
 30
0.0
 40
2.000000000000014
 50
270.0
 51
0.0
  0
ARC
  5
192
  8
0
  6
CONTINUOUS
 62
     7
 10
290.1368125342
 20
126.1927551342
 30
0.0
 40
2.000000000000014
 50
180.0
 51
270.0
  0
LINE
  5
193
  8
0
  6
CONTINUOUS
 62
     7
 10
295.9368147754
 20
124.19275275
 30
0.0
 11
290.136811962
 21
124.19275275
 31
0.0
  0
LINE
  5
194
  8
0
  6
CONTINUOUS
 62
     7
 10
288.1368138694
 20
126.1927568031
 30
0.0
 11
288.1368138694
 21
134.1927551342
 31
0.0
  0
LINE
  5
195
  8
0
  6
CONTINUOUS
 62
     7
 10
288.1368138694
 20
138.7273453785
 30
0.0
 11
288.1368138694
 21
143.0355214191
 31
0.0
  0
LINE
  5
196
  8
0
  6
CONTINUOUS
 62
     7
 10
291.536811819
 20
143.0355214191
 30
0.0
 11
291.536811819
 21
138.7273453785
 31
0.0
  0
LINE
  5
197
  8
0
  6
CONTINUOUS
 62
     7
 10
288.1368138694
 20
138.7273453785
 30
0.0
 11
288.1368138694
 21
135.1927541805
 31
0.0
  0
LINE
  5
198
  8
0
  6
CONTINUOUS
 62
     7
 10
291.536811819
 20
138.7273453785
 30
0.0
 11
291.536811819
 21
135.1927541805
 31
0.0
  0
LINE
  5
199
  8
0
  6
CONTINUOUS
 62
     7
 10
48.1368162535
 20
152.1927558495
 30
0.0
 11
48.1368162535
 21
143.0355214191
 31
0.0
  0
LINE
  5
19A
  8
0
  6
CONTINUOUS
 62
     7
 10
51.5368082427
 20
152.1927558495
 30
0.0
 11
51.5368082427
 21
143.0355214191
 31
0.0
  0
LINE
  5
19B
  8
0
  6
CONTINUOUS
 62
     7
 10
68.9368107222
 20
151.7927550388
 30
0.0
 11
68.9368107222
 21
139.792754562
 31
0.0
  0
CIRCLE
  5
19C
  8
0
  6
CONTINUOUS
 62
     7
 10
52.0368125342
 20
128.5927551342
 30
0.0
 40
1.099999999999994
  0
LINE
  5
19D
  8
0
  6
CONTINUOUS
 62
     7
 10
57.9368092917
 20
134.1927551342
 30
0.0
 11
57.9368092917
 21
126.1927568031
 31
0.0
  0
ARC
  5
19E
  8
0
  6
CONTINUOUS
 62
     7
 10
50.1368125342
 20
126.1927551342
 30
0.0
 40
2.000000000000014
 50
180.0
 51
270.0
  0
ARC
  5
19F
  8
0
  6
CONTINUOUS
 62
     7
 10
55.9368125342
 20
126.1927551342
 30
0.0
 40
2.000000000000014
 50
270.0
 51
0.0
  0
LINE
  5
1A0
  8
0
  6
CONTINUOUS
 62
     7
 10
55.9368111991
 20
124.19275275
 30
0.0
 11
50.1368143462
 21
124.19275275
 31
0.0
  0
LINE
  5
1A1
  8
0
  6
CONTINUOUS
 62
     7
 10
48.1368162535
 20
126.1927568031
 30
0.0
 11
48.1368162535
 21
134.1927551342
 31
0.0
  0
LINE
  5
1A2
  8
0
  6
CONTINUOUS
 62
     7
 10
48.1368162535
 20
135.1927541805
 30
0.0
 11
57.9368092917
 21
135.1927541805
 31
0.0
  0
LINE
  5
1A3
  8
0
  6
CONTINUOUS
 62
     7
 10
57.9368092917
 20
135.1927541805
 30
0.0
 11
57.9368092917
 21
134.1927551342
 31
0.0
  0
LINE
  5
1A4
  8
0
  6
CONTINUOUS
 62
     7
 10
48.1368162535
 20
134.1927551342
 30
0.0
 11
48.1368162535
 21
135.1927541805
 31
0.0
  0
LINE
  5
1A5
  8
0
  6
CONTINUOUS
 62
     7
 10
48.1368162535
 20
138.7273453785
 30
0.0
 11
48.1368162535
 21
143.0355214191
 31
0.0
  0
LINE
  5
1A6
  8
0
  6
CONTINUOUS
 62
     7
 10
51.5368082427
 20
143.0355214191
 30
0.0
 11
51.5368082427
 21
138.7273453785
 31
0.0
  0
LINE
  5
1A7
  8
0
  6
CONTINUOUS
 62
     7
 10
48.1368162535
 20
138.7273453785
 30
0.0
 11
48.1368162535
 21
135.1927541805
 31
0.0
  0
LINE
  5
1A8
  8
0
  6
CONTINUOUS
 62
     7
 10
51.5368082427
 20
138.7273453785
 30
0.0
 11
51.5368082427
 21
135.1927541805
 31
0.0
  0
LINE
  5
1A9
  8
0
  6
CONTINUOUS
 62
     7
 10
171.5368130111
 20
152.1927558495
 30
0.0
 11
171.5368130111
 21
143.0355214191
 31
0.0
  0
LINE
  5
1AA
  8
0
  6
CONTINUOUS
 62
     7
 10
168.1368120812
 20
152.1927558495
 30
0.0
 11
168.1368120812
 21
143.0355214191
 31
0.0
  0
LINE
  5
1AB
  8
0
  6
CONTINUOUS
 62
     7
 10
188.9368125104
 20
151.7927550388
 30
0.0
 11
188.9368125104
 21
139.792754562
 31
0.0
  0
LINE
  5
1AC
  8
0
  6
CONTINUOUS
 62
     7
 10
168.1368120812
 20
135.1927541805
 30
0.0
 11
177.9368110799
 21
135.1927541805
 31
0.0
  0
LINE
  5
1AD
  8
0
  6
CONTINUOUS
 62
     7
 10
177.9368110799
 20
135.1927541805
 30
0.0
 11
177.9368110799
 21
134.1927551342
 31
0.0
  0
LINE
  5
1AE
  8
0
  6
CONTINUOUS
 62
     7
 10
168.1368120812
 20
134.1927551342
 30
0.0
 11
168.1368120812
 21
135.1927541805
 31
0.0
  0
LINE
  5
1AF
  8
0
  6
CONTINUOUS
 62
     7
 10
177.9368110799
 20
134.1927551342
 30
0.0
 11
177.9368110799
 21
126.1927568031
 31
0.0
  0
ARC
  5
1B0
  8
0
  6
CONTINUOUS
 62
     7
 10
175.9368125342
 20
126.1927551342
 30
0.0
 40
2.000000000000014
 50
270.0
 51
0.0
  0
CIRCLE
  5
1B1
  8
0
  6
CONTINUOUS
 62
     7
 10
172.0368125342
 20
128.5927551342
 30
0.0
 40
1.100000000000023
  0
LINE
  5
1B2
  8
0
  6
CONTINUOUS
 62
     7
 10
175.9368129872
 20
124.19275275
 30
0.0
 11
170.1368131541
 21
124.19275275
 31
0.0
  0
ARC
  5
1B3
  8
0
  6
CONTINUOUS
 62
     7
 10
170.1368125342
 20
126.1927551342
 30
0.0
 40
2.000000000000014
 50
180.0
 51
270.0
  0
LINE
  5
1B4
  8
0
  6
CONTINUOUS
 62
     7
 10
168.1368120812
 20
126.1927568031
 30
0.0
 11
168.1368120812
 21
134.1927551342
 31
0.0
  0
LINE
  5
1B5
  8
0
  6
CONTINUOUS
 62
     7
 10
171.5368130111
 20
143.0355214191
 30
0.0
 11
171.5368130111
 21
138.7273453785
 31
0.0
  0
LINE
  5
1B6
  8
0
  6
CONTINUOUS
 62
     7
 10
168.1368120812
 20
138.7273453785
 30
0.0
 11
168.1368120812
 21
143.0355214191
 31
0.0
  0
LINE
  5
1B7
  8
0
  6
CONTINUOUS
 62
     7
 10
171.5368130111
 20
138.7273453785
 30
0.0
 11
171.5368130111
 21
135.1927541805
 31
0.0
  0
LINE
  5
1B8
  8
0
  6
CONTINUOUS
 62
     7
 10
168.1368120812
 20
138.7273453785
 30
0.0
 11
168.1368120812
 21
135.1927541805
 31
0.0
  0
POLYLINE
  5
1B9
  8
0
  6
CONTINUOUS
 62
     7
 66
     1
 10
0.0
 20
0.0
 30
0.0
  0
VERTEX
  5
42A
  8
0
  6
CONTINUOUS
 62
     7
 10
126.9751050376
 20
-37.9588053496
 30
0.0
  0
VERTEX
  5
42B
  8
0
  6
CONTINUOUS
 62
     7
 10
125.9874977969
 20
-38.0906772734
 30
0.0
  0
VERTEX
  5
42C
  8
0
  6
CONTINUOUS
 62
     7
 10
124.7779824637
 20
-38.2465914758
 30
0.0
  0
VERTEX
  5
42D
  8
0
  6
CONTINUOUS
 62
     7
 10
123.7938740157
 20
-38.3694832148
 30
0.0
  0
VERTEX
  5
42E
  8
0
  6
CONTINUOUS
 62
     7
 10
123.0354585551
 20
-38.461771694
 30
0.0
  0
VERTEX
  5
42F
  8
0
  6
CONTINUOUS
 62
     7
 10
122.4297740363
 20
-38.5330677898
 30
0.0
  0
VERTEX
  5
430
  8
0
  6
CONTINUOUS
 62
     7
 10
121.8335964583
 20
-38.599196163
 30
0.0
  0
VERTEX
  5
431
  8
0
  6
CONTINUOUS
 62
     7
 10
120.9501125716
 20
-38.6895556869
 30
0.0
  0
VERTEX
  5
432
  8
0
  6
CONTINUOUS
 62
     7
 10
120.0796344184
 20
-38.7699575098
 30
0.0
  0
VERTEX
  5
433
  8
0
  6
CONTINUOUS
 62
     7
 10
119.2223288916
 20
-38.8418556125
 30
0.0
  0
VERTEX
  5
434
  8
0
  6
CONTINUOUS
 62
     7
 10
118.3784403704
 20
-38.9076591404
 30
0.0
  0
VERTEX
  5
435
  8
0
  6
CONTINUOUS
 62
     7
 10
117.5430872344
 20
-38.971900654
 30
0.0
  0
VERTEX
  5
436
  8
0
  6
CONTINUOUS
 62
     7
 10
116.6889407538
 20
-39.0403938414
 30
0.0
  0
VERTEX
  5
437
  8
0
  6
CONTINUOUS
 62
     7
 10
115.8117034339
 20
-39.1095784427
 30
0.0
  0
VERTEX
  5
438
  8
0
  6
CONTINUOUS
 62
     7
 10
114.9111010932
 20
-39.1761683793
 30
0.0
  0
VERTEX
  5
439
  8
0
  6
CONTINUOUS
 62
     7
 10
113.9869608783
 20
-39.239627582
 30
0.0
  0
VERTEX
  5
43A
  8
0
  6
CONTINUOUS
 62
     7
 10
113.0392708682
 20
-39.3001892538
 30
0.0
  0
VERTEX
  5
43B
  8
0
  6
CONTINUOUS
 62
     7
 10
112.1583022975
 20
-39.3527877451
 30
0.0
  0
VERTEX
  5
43C
  8
0
  6
CONTINUOUS
 62
     7
 10
111.4947535895
 20
-39.3904549004
 30
0.0
  0
VERTEX
  5
43D
  8
0
  6
CONTINUOUS
 62
     7
 10
110.9949388408
 20
-39.4177799048
 30
0.0
  0
VERTEX
  5
43E
  8
0
  6
CONTINUOUS
 62
     7
 10
110.3787817859
 20
-39.4503188254
 30
0.0
  0
VERTEX
  5
43F
  8
0
  6
CONTINUOUS
 62
     7
 10
109.6061625384
 20
-39.4894258054
 30
0.0
  0
VERTEX
  5
440
  8
0
  6
CONTINUOUS
 62
     7
 10
108.6770274543
 20
-39.5340547831
 30
0.0
  0
VERTEX
  5
441
  8
0
  6
CONTINUOUS
 62
     7
 10
107.5913288497
 20
-39.5829868437
 30
0.0
  0
VERTEX
  5
442
  8
0
  6
CONTINUOUS
 62
     7
 10
105.9327342414
 20
-39.6512490632
 30
0.0
  0
VERTEX
  5
443
  8
0
  6
CONTINUOUS
 62
     7
 10
104.013560047
 20
-39.7207789989
 30
0.0
  0
VERTEX
  5
444
  8
0
  6
CONTINUOUS
 62
     7
 10
102.011618843
 20
-39.7830159338
 30
0.0
  0
VERTEX
  5
445
  8
0
  6
CONTINUOUS
 62
     7
 10
96.5991713904
 20
-39.9022375168
 30
0.0
  0
VERTEX
  5
446
  8
0
  6
CONTINUOUS
 62
     7
 10
91.1146500014
 20
-39.9546046676
 30
0.0
  0
VERTEX
  5
447
  8
0
  6
CONTINUOUS
 62
     7
 10
87.5874378585
 20
-39.9531559022
 30
0.0
  0
VERTEX
  5
448
  8
0
  6
CONTINUOUS
 62
     7
 10
84.0317227744
 20
-39.9238781007
 30
0.0
  0
VERTEX
  5
449
  8
0
  6
CONTINUOUS
 62
     7
 10
80.5523612403
 20
-39.8675815137
 30
0.0
  0
VERTEX
  5
44A
  8
0
  6
CONTINUOUS
 62
     7
 10
77.3241498374
 20
-39.7899505617
 30
0.0
  0
VERTEX
  5
44B
  8
0
  6
CONTINUOUS
 62
     7
 10
75.7345535659
 20
-39.7423834474
 30
0.0
  0
VERTEX
  5
44C
  8
0
  6
CONTINUOUS
 62
     7
 10
74.214647045
 20
-39.6908950926
 30
0.0
  0
VERTEX
  5
44D
  8
0
  6
CONTINUOUS
 62
     7
 10
72.7644421958
 20
-39.6360845239
 30
0.0
  0
VERTEX
  5
44E
  8
0
  6
CONTINUOUS
 62
     7
 10
71.3839390181
 20
-39.5785284163
 30
0.0
  0
VERTEX
  5
44F
  8
0
  6
CONTINUOUS
 62
     7
 10
70.073149433
 20
-39.518788916
 30
0.0
  0
VERTEX
  5
450
  8
0
  6
CONTINUOUS
 62
     7
 10
68.8825466536
 20
-39.4600142659
 30
0.0
  0
VERTEX
  5
451
  8
0
  6
CONTINUOUS
 62
     7
 10
68.0622675322
 20
-39.4169018538
 30
0.0
  0
VERTEX
  5
452
  8
0
  6
CONTINUOUS
 62
     7
 10
67.4256064795
 20
-39.3818997712
 30
0.0
  0
VERTEX
  5
453
  8
0
  6
CONTINUOUS
 62
     7
 10
67.1761133574
 20
-39.3677976848
 30
0.0
  0
VERTEX
  5
454
  8
0
  6
CONTINUOUS
 62
     7
 10
66.9469334983
 20
-39.3545982362
 30
0.0
  0
VERTEX
  5
455
  8
0
  6
CONTINUOUS
 62
     7
 10
66.6800358199
 20
-39.3389229597
 30
0.0
  0
VERTEX
  5
456
  8
0
  6
CONTINUOUS
 62
     7
 10
66.3731791877
 20
-39.3208661051
 30
0.0
  0
VERTEX
  5
457
  8
0
  6
CONTINUOUS
 62
     7
 10
65.7991626166
 20
-39.2876786114
 30
0.0
  0
VERTEX
  5
458
  8
0
  6
CONTINUOUS
 62
     7
 10
65.1229360007
 20
-39.2481543989
 30
0.0
  0
VERTEX
  5
459
  8
0
  6
CONTINUOUS
 62
     7
 10
64.3538334273
 20
-39.2008823277
 30
0.0
  0
VERTEX
  5
45A
  8
0
  6
CONTINUOUS
 62
     7
 10
63.544116249
 20
-39.1471614064
 30
0.0
  0
VERTEX
  5
45B
  8
0
  6
CONTINUOUS
 62
     7
 10
62.7018787764
 20
-39.0868292125
 30
0.0
  0
VERTEX
  5
45C
  8
0
  6
CONTINUOUS
 62
     7
 10
61.2261869811
 20
-38.9702671142
 30
0.0
  0
VERTEX
  5
45D
  8
0
  6
CONTINUOUS
 62
     7
 10
59.6608855628
 20
-38.8315432639
 30
0.0
  0
VERTEX
  5
45E
  8
0
  6
CONTINUOUS
 62
     7
 10
57.9983332061
 20
-38.6673455061
 30
0.0
  0
VERTEX
  5
45F
  8
0
  6
CONTINUOUS
 62
     7
 10
56.6176392936
 20
-38.5181513549
 30
0.0
  0
VERTEX
  5
460
  8
0
  6
CONTINUOUS
 62
     7
 10
55.0994136237
 20
-38.3418166013
 30
0.0
  0
VERTEX
  5
461
  8
0
  6
CONTINUOUS
 62
     7
 10
53.4439542197
 20
-38.1360967578
 30
0.0
  0
VERTEX
  5
462
  8
0
  6
CONTINUOUS
 62
     7
 10
52.0983912848
 20
-37.9581977548
 30
0.0
  0
SEQEND
  5
6D2
  8
0
  6
CONTINUOUS
 62
     7
  0
LINE
  5
1BA
  8
0
  6
CONTINUOUS
 62
     7
 10
51.9507505797
 20
-39.0197833003
 30
0.0
 11
51.9363858603
 21
-39.0830849232
 31
0.0
  0
LINE
  5
1BB
  8
0
  6
CONTINUOUS
 62
     7
 10
52.0844676398
 20
-37.9553050669
 30
0.0
 11
52.0811417006
 21
-37.982300383
 31
0.0
  0
POLYLINE
  5
1BC
  8
0
  6
CONTINUOUS
 62
     7
 66
     1
 10
0.0
 20
0.0
 30
0.0
  0
VERTEX
  5
463
  8
0
  6
CONTINUOUS
 62
     7
 10
52.0488002204
 20
-38.2449735822
 30
0.0
  0
VERTEX
  5
464
  8
0
  6
CONTINUOUS
 62
     7
 10
52.0132996939
 20
-38.5331922145
 30
0.0
  0
VERTEX
  5
465
  8
0
  6
CONTINUOUS
 62
     7
 10
51.9365885161
 20
-39.1299110772
 30
0.0
  0
SEQEND
  5
6D1
  8
0
  6
CONTINUOUS
 62
     7
  0
POLYLINE
  5
1BD
  8
0
  6
CONTINUOUS
 62
     7
 66
     1
 10
0.0
 20
0.0
 30
0.0
  0
VERTEX
  5
466
  8
0
  6
CONTINUOUS
 62
     7
 10
127.1372415923
 20
-39.1315196575
 30
0.0
  0
VERTEX
  5
467
  8
0
  6
CONTINUOUS
 62
     7
 10
127.0604290866
 20
-38.533987564
 30
0.0
  0
VERTEX
  5
468
  8
0
  6
CONTINUOUS
 62
     7
 10
127.0254471206
 20
-38.2499639811
 30
0.0
  0
SEQEND
  5
6D0
  8
0
  6
CONTINUOUS
 62
     7
  0
LINE
  5
1BE
  8
0
  6
CONTINUOUS
 62
     7
 10
126.9913592242
 20
-37.9732106747
 30
0.0
 11
126.9891538523
 21
-37.9553058119
 31
0.0
  0
LINE
  5
1BF
  8
0
  6
CONTINUOUS
 62
     7
 10
127.1372356318
 20
-39.0830867858
 30
0.0
 11
127.1228828334
 21
-39.0198235334
 31
0.0
  0
POLYLINE
  5
1C0
  8
0
  6
CONTINUOUS
 62
     7
 66
     1
 10
0.0
 20
0.0
 30
0.0
  0
VERTEX
  5
469
  8
0
  6
CONTINUOUS
 62
     7
 10
246.9751038455
 20
-37.9588053496
 30
0.0
  0
VERTEX
  5
46A
  8
0
  6
CONTINUOUS
 62
     7
 10
245.987499585
 20
-38.0906772734
 30
0.0
  0
VERTEX
  5
46B
  8
0
  6
CONTINUOUS
 62
     7
 10
244.7779842519
 20
-38.2465914758
 30
0.0
  0
VERTEX
  5
46C
  8
0
  6
CONTINUOUS
 62
     7
 10
243.7938728236
 20
-38.3694832148
 30
0.0
  0
VERTEX
  5
46D
  8
0
  6
CONTINUOUS
 62
     7
 10
243.0354603432
 20
-38.461771694
 30
0.0
  0
VERTEX
  5
46E
  8
0
  6
CONTINUOUS
 62
     7
 10
242.4297758244
 20
-38.5330677898
 30
0.0
  0
VERTEX
  5
46F
  8
0
  6
CONTINUOUS
 62
     7
 10
241.8335982465
 20
-38.599196163
 30
0.0
  0
VERTEX
  5
470
  8
0
  6
CONTINUOUS
 62
     7
 10
240.9501113795
 20
-38.6895556869
 30
0.0
  0
VERTEX
  5
471
  8
0
  6
CONTINUOUS
 62
     7
 10
240.0796332263
 20
-38.7699575098
 30
0.0
  0
VERTEX
  5
472
  8
0
  6
CONTINUOUS
 62
     7
 10
239.2223247193
 20
-38.8418556125
 30
0.0
  0
VERTEX
  5
473
  8
0
  6
CONTINUOUS
 62
     7
 10
238.3784391784
 20
-38.9076591404
 30
0.0
  0
VERTEX
  5
474
  8
0
  6
CONTINUOUS
 62
     7
 10
237.5430860423
 20
-38.971900654
 30
0.0
  0
VERTEX
  5
475
  8
0
  6
CONTINUOUS
 62
     7
 10
236.6889395617
 20
-39.0403938414
 30
0.0
  0
VERTEX
  5
476
  8
0
  6
CONTINUOUS
 62
     7
 10
235.8117022418
 20
-39.1095784427
 30
0.0
  0
VERTEX
  5
477
  8
0
  6
CONTINUOUS
 62
     7
 10
234.9110969209
 20
-39.1761683793
 30
0.0
  0
VERTEX
  5
478
  8
0
  6
CONTINUOUS
 62
     7
 10
233.986958196
 20
-39.239627582
 30
0.0
  0
VERTEX
  5
479
  8
0
  6
CONTINUOUS
 62
     7
 10
233.0392696761
 20
-39.3001892538
 30
0.0
  0
VERTEX
  5
47A
  8
0
  6
CONTINUOUS
 62
     7
 10
232.1582996153
 20
-39.3527877451
 30
0.0
  0
VERTEX
  5
47B
  8
0
  6
CONTINUOUS
 62
     7
 10
231.4947553777
 20
-39.3904549004
 30
0.0
  0
VERTEX
  5
47C
  8
0
  6
CONTINUOUS
 62
     7
 10
230.9949376487
 20
-39.4177799048
 30
0.0
  0
VERTEX
  5
47D
  8
0
  6
CONTINUOUS
 62
     7
 10
230.3787791036
 20
-39.4503188254
 30
0.0
  0
VERTEX
  5
47E
  8
0
  6
CONTINUOUS
 62
     7
 10
229.6061613463
 20
-39.4894258054
 30
0.0
  0
VERTEX
  5
47F
  8
0
  6
CONTINUOUS
 62
     7
 10
228.6770307325
 20
-39.5340547831
 30
0.0
  0
VERTEX
  5
480
  8
0
  6
CONTINUOUS
 62
     7
 10
227.591333618
 20
-39.5829868437
 30
0.0
  0
VERTEX
  5
481
  8
0
  6
CONTINUOUS
 62
     7
 10
225.9327285789
 20
-39.6512490632
 30
0.0
  0
VERTEX
  5
482
  8
0
  6
CONTINUOUS
 62
     7
 10
224.0135603451
 20
-39.7207789989
 30
0.0
  0
VERTEX
  5
483
  8
0
  6
CONTINUOUS
 62
     7
 10
222.0116213762
 20
-39.7830159338
 30
0.0
  0
VERTEX
  5
484
  8
0
  6
CONTINUOUS
 62
     7
 10
216.5991701983
 20
-39.9022375168
 30
0.0
  0
VERTEX
  5
485
  8
0
  6
CONTINUOUS
 62
     7
 10
211.1146471329
 20
-39.9546046676
 30
0.0
  0
VERTEX
  5
486
  8
0
  6
CONTINUOUS
 62
     7
 10
207.5874392741
 20
-39.9531559022
 30
0.0
  0
VERTEX
  5
487
  8
0
  6
CONTINUOUS
 62
     7
 10
204.0317279153
 20
-39.9238781007
 30
0.0
  0
VERTEX
  5
488
  8
0
  6
CONTINUOUS
 62
     7
 10
200.552357813
 20
-39.8675815137
 30
0.0
  0
VERTEX
  5
489
  8
0
  6
CONTINUOUS
 62
     7
 10
197.3241538607
 20
-39.7899505617
 30
0.0
  0
VERTEX
  5
48A
  8
0
  6
CONTINUOUS
 62
     7
 10
195.7345493935
 20
-39.7423834474
 30
0.0
  0
VERTEX
  5
48B
  8
0
  6
CONTINUOUS
 62
     7
 10
194.2146413826
 20
-39.6908950926
 30
0.0
  0
VERTEX
  5
48C
  8
0
  6
CONTINUOUS
 62
     7
 10
192.7644380235
 20
-39.6360845239
 30
0.0
  0
VERTEX
  5
48D
  8
0
  6
CONTINUOUS
 62
     7
 10
191.3839393162
 20
-39.5785284163
 30
0.0
  0
VERTEX
  5
48E
  8
0
  6
CONTINUOUS
 62
     7
 10
190.0731467508
 20
-39.518788916
 30
0.0
  0
VERTEX
  5
48F
  8
0
  6
CONTINUOUS
 62
     7
 10
188.8825469517
 20
-39.4600142659
 30
0.0
  0
VERTEX
  5
490
  8
0
  6
CONTINUOUS
 62
     7
 10
188.0622663401
 20
-39.4169018538
 30
0.0
  0
VERTEX
  5
491
  8
0
  6
CONTINUOUS
 62
     7
 10
187.4256067776
 20
-39.3818997712
 30
0.0
  0
VERTEX
  5
492
  8
0
  6
CONTINUOUS
 62
     7
 10
187.1761166357
 20
-39.3677976848
 30
0.0
  0
VERTEX
  5
493
  8
0
  6
CONTINUOUS
 62
     7
 10
186.9469397568
 20
-39.3545982362
 30
0.0
  0
VERTEX
  5
494
  8
0
  6
CONTINUOUS
 62
     7
 10
186.6800301575
 20
-39.3389229597
 30
0.0
  0
VERTEX
  5
495
  8
0
  6
CONTINUOUS
 62
     7
 10
186.3731765055
 20
-39.3208661051
 30
0.0
  0
VERTEX
  5
496
  8
0
  6
CONTINUOUS
 62
     7
 10
185.7991644048
 20
-39.2876786114
 30
0.0
  0
VERTEX
  5
497
  8
0
  6
CONTINUOUS
 62
     7
 10
185.1229362987
 20
-39.2481543989
 30
0.0
  0
VERTEX
  5
498
  8
0
  6
CONTINUOUS
 62
     7
 10
184.3538381957
 20
-39.2008823277
 30
0.0
  0
VERTEX
  5
499
  8
0
  6
CONTINUOUS
 62
     7
 10
183.5441150569
 20
-39.1471614064
 30
0.0
  0
VERTEX
  5
49A
  8
0
  6
CONTINUOUS
 62
     7
 10
182.7018805646
 20
-39.0868292125
 30
0.0
  0
VERTEX
  5
49B
  8
0
  6
CONTINUOUS
 62
     7
 10
181.226185789
 20
-38.9702671142
 30
0.0
  0
VERTEX
  5
49C
  8
0
  6
CONTINUOUS
 62
     7
 10
179.6608903312
 20
-38.8315432639
 30
0.0
  0
VERTEX
  5
49D
  8
0
  6
CONTINUOUS
 62
     7
 10
177.9983379744
 20
-38.6673455061
 30
0.0
  0
VERTEX
  5
49E
  8
0
  6
CONTINUOUS
 62
     7
 10
176.6176410817
 20
-38.5181513549
 30
0.0
  0
VERTEX
  5
49F
  8
0
  6
CONTINUOUS
 62
     7
 10
175.0994124316
 20
-38.3418166013
 30
0.0
  0
VERTEX
  5
4A0
  8
0
  6
CONTINUOUS
 62
     7
 10
173.4439589881
 20
-38.1360967578
 30
0.0
  0
VERTEX
  5
4A1
  8
0
  6
CONTINUOUS
 62
     7
 10
172.0983900927
 20
-37.9581977548
 30
0.0
  0
SEQEND
  5
6CF
  8
0
  6
CONTINUOUS
 62
     7
  0
LINE
  5
1C1
  8
0
  6
CONTINUOUS
 62
     7
 10
171.9507493876
 20
-39.0197833003
 30
0.0
 11
171.9363876485
 21
-39.0830849232
 31
0.0
  0
LINE
  5
1C2
  8
0
  6
CONTINUOUS
 62
     7
 10
172.0844694279
 20
-37.9553050669
 30
0.0
 11
172.081146469
 21
-37.982300383
 31
0.0
  0
POLYLINE
  5
1C3
  8
0
  6
CONTINUOUS
 62
     7
 66
     1
 10
0.0
 20
0.0
 30
0.0
  0
VERTEX
  5
4A2
  8
0
  6
CONTINUOUS
 62
     7
 10
172.0487960481
 20
-38.2449735822
 30
0.0
  0
VERTEX
  5
4A3
  8
0
  6
CONTINUOUS
 62
     7
 10
172.0132985019
 20
-38.5331922145
 30
0.0
  0
VERTEX
  5
4A4
  8
0
  6
CONTINUOUS
 62
     7
 10
171.9365932845
 20
-39.1299110772
 30
0.0
  0
SEQEND
  5
6CE
  8
0
  6
CONTINUOUS
 62
     7
  0
POLYLINE
  5
1C4
  8
0
  6
CONTINUOUS
 62
     7
 66
     1
 10
0.0
 20
0.0
 30
0.0
  0
VERTEX
  5
4A5
  8
0
  6
CONTINUOUS
 62
     7
 10
247.1372404002
 20
-39.1315196575
 30
0.0
  0
VERTEX
  5
4A6
  8
0
  6
CONTINUOUS
 62
     7
 10
247.0604278945
 20
-38.533987564
 30
0.0
  0
VERTEX
  5
4A7
  8
0
  6
CONTINUOUS
 62
     7
 10
247.0254459285
 20
-38.2499639811
 30
0.0
  0
SEQEND
  5
6CD
  8
0
  6
CONTINUOUS
 62
     7
  0
LINE
  5
1C5
  8
0
  6
CONTINUOUS
 62
     7
 10
246.9913610123
 20
-37.9732106747
 30
0.0
 11
246.9891556405
 21
-37.9553058119
 31
0.0
  0
LINE
  5
1C6
  8
0
  6
CONTINUOUS
 62
     7
 10
247.13723742
 20
-39.0830867858
 30
0.0
 11
247.1228846215
 21
-39.0198235334
 31
0.0
  0
LINE
  5
1C7
  8
0
  6
CONTINUOUS
 62
     7
 10
51.8368103408
 20
-49.4736340763
 30
0.0
 11
52.636811962
 21
-49.4736340763
 31
0.0
  0
LINE
  5
1C8
  8
0
  6
CONTINUOUS
 62
     7
 10
51.8368103408
 20
-49.5425582798
 30
0.0
 11
68.236813774
 21
-49.5425582798
 31
0.0
  0
LINE
  5
1C9
  8
0
  6
CONTINUOUS
 62
     7
 10
68.236813774
 20
-37.3425585152
 30
0.0
 11
51.8368103408
 21
-37.3425585152
 31
0.0
  0
LINE
  5
1CA
  8
0
  6
CONTINUOUS
 62
     7
 10
171.8368121289
 20
-49.4736340763
 30
0.0
 11
172.6368137502
 21
-49.4736340763
 31
0.0
  0
LINE
  5
1CB
  8
0
  6
CONTINUOUS
 62
     7
 10
171.8368121289
 20
-49.5425582798
 30
0.0
 11
188.2368125819
 21
-49.5425582798
 31
0.0
  0
LINE
  5
1CC
  8
0
  6
CONTINUOUS
 62
     7
 10
188.2368125819
 20
-37.3425585152
 30
0.0
 11
171.8368121289
 21
-37.3425585152
 31
0.0
  0
LINE
  5
1CD
  8
0
  6
CONTINUOUS
 62
     7
 10
295.5176391505
 20
-49.5425582798
 30
0.0
 11
308.2368113898
 21
-49.5425582798
 31
0.0
  0
LINE
  5
1CE
  8
0
  6
CONTINUOUS
 62
     7
 10
308.2368113898
 20
-37.3425585152
 30
0.0
 11
291.836813917
 21
-37.3425585152
 31
0.0
  0
LINE
  5
1CF
  8
0
  6
CONTINUOUS
 62
     7
 10
126.4368154906
 20
-49.4736340763
 30
0.0
 11
127.2368111514
 21
-49.4736340763
 31
0.0
  0
LINE
  5
1D0
  8
0
  6
CONTINUOUS
 62
     7
 10
127.2368111514
 20
-37.3425585152
 30
0.0
 11
110.8368136786
 21
-37.3425585152
 31
0.0
  0
LINE
  5
1D1
  8
0
  6
CONTINUOUS
 62
     7
 10
110.8368136786
 20
-49.5425582798
 30
0.0
 11
127.2368111514
 21
-49.5425582798
 31
0.0
  0
LINE
  5
1D2
  8
0
  6
CONTINUOUS
 62
     7
 10
246.4368113183
 20
-49.4736340763
 30
0.0
 11
247.2368129395
 21
-49.4736340763
 31
0.0
  0
LINE
  5
1D3
  8
0
  6
CONTINUOUS
 62
     7
 10
247.2368129395
 20
-37.3425585152
 30
0.0
 11
230.8368124865
 21
-37.3425585152
 31
0.0
  0
LINE
  5
1D4
  8
0
  6
CONTINUOUS
 62
     7
 10
230.8368124865
 20
-49.5425582798
 30
0.0
 11
247.2368129395
 21
-49.5425582798
 31
0.0
  0
LINE
  5
1D5
  8
0
  6
CONTINUOUS
 62
     7
 10
367.2368147277
 20
-37.3425585152
 30
0.0
 11
350.8368112944
 21
-37.3425585152
 31
0.0
  0
LINE
  5
1D6
  8
0
  6
CONTINUOUS
 62
     7
 10
350.8368112944
 20
-49.5425582798
 30
0.0
 11
363.5559894942
 21
-49.5425582798
 31
0.0
  0
LINE
  5
1D7
  8
0
  6
CONTINUOUS
 62
     7
 10
247.5368120574
 20
-49.8425581427
 30
0.0
 11
250.9368129872
 21
-49.8425581427
 31
0.0
  0
LINE
  5
1D8
  8
0
  6
CONTINUOUS
 62
     7
 10
247.5368120574
 20
-37.4425583453
 30
0.0
 11
247.2368129395
 21
-37.4425583453
 31
0.0
  0
LINE
  5
1D9
  8
0
  6
CONTINUOUS
 62
     7
 10
230.8368124865
 20
-37.4425583453
 30
0.0
 11
230.1368125581
 21
-37.4425583453
 31
0.0
  0
LINE
  5
1DA
  8
0
  6
CONTINUOUS
 62
     7
 10
230.1368125581
 20
-49.4425584497
 30
0.0
 11
230.8368124865
 21
-49.4425584497
 31
0.0
  0
LINE
  5
1DB
  8
0
  6
CONTINUOUS
 62
     7
 10
247.2368129395
 20
-49.4425584497
 30
0.0
 11
247.5368120574
 21
-49.4425584497
 31
0.0
  0
LINE
  5
1DC
  8
0
  6
CONTINUOUS
 62
     7
 10
250.9368129872
 20
-34.8425582917
 30
0.0
 11
247.5368120574
 21
-34.8425582917
 31
0.0
  0
LINE
  5
1DD
  8
0
  6
CONTINUOUS
 62
     7
 10
367.5368168258
 20
-49.8425581427
 30
0.0
 11
370.9368088149
 21
-49.8425581427
 31
0.0
  0
LINE
  5
1DE
  8
0
  6
CONTINUOUS
 62
     7
 10
367.5368168258
 20
-37.4425583453
 30
0.0
 11
367.2368147277
 21
-37.4425583453
 31
0.0
  0
LINE
  5
1DF
  8
0
  6
CONTINUOUS
 62
     7
 10
350.8368112944
 20
-37.4425583453
 30
0.0
 11
350.1368143462
 21
-37.4425583453
 31
0.0
  0
LINE
  5
1E0
  8
0
  6
CONTINUOUS
 62
     7
 10
350.1368143462
 20
-49.4425584497
 30
0.0
 11
350.8368112944
 21
-49.4425584497
 31
0.0
  0
LINE
  5
1E1
  8
0
  6
CONTINUOUS
 62
     7
 10
367.2368147277
 20
-49.4425584497
 30
0.0
 11
367.5368168258
 21
-49.4425584497
 31
0.0
  0
LINE
  5
1E2
  8
0
  6
CONTINUOUS
 62
     7
 10
370.9368088149
 20
-34.8425582917
 30
0.0
 11
367.5368168258
 21
-34.8425582917
 31
0.0
  0
LINE
  5
1E3
  8
0
  6
CONTINUOUS
 62
     7
 10
127.5368132495
 20
-49.8425581427
 30
0.0
 11
130.9368111991
 21
-49.8425581427
 31
0.0
  0
LINE
  5
1E4
  8
0
  6
CONTINUOUS
 62
     7
 10
127.5368132495
 20
-37.4425583453
 30
0.0
 11
127.2368111514
 21
-37.4425583453
 31
0.0
  0
LINE
  5
1E5
  8
0
  6
CONTINUOUS
 62
     7
 10
110.8368136786
 20
-37.4425583453
 30
0.0
 11
110.1368107699
 21
-37.4425583453
 31
0.0
  0
LINE
  5
1E6
  8
0
  6
CONTINUOUS
 62
     7
 10
110.1368107699
 20
-49.4425584497
 30
0.0
 11
110.8368136786
 21
-49.4425584497
 31
0.0
  0
LINE
  5
1E7
  8
0
  6
CONTINUOUS
 62
     7
 10
127.2368111514
 20
-49.4425584497
 30
0.0
 11
127.5368132495
 21
-49.4425584497
 31
0.0
  0
LINE
  5
1E8
  8
0
  6
CONTINUOUS
 62
     7
 10
130.9368111991
 20
-34.8425582917
 30
0.0
 11
127.5368132495
 21
-34.8425582917
 31
0.0
  0
LINE
  5
1E9
  8
0
  6
CONTINUOUS
 62
     7
 10
288.1368138694
 20
-49.8425581427
 30
0.0
 11
291.536811819
 21
-49.8425581427
 31
0.0
  0
LINE
  5
1EA
  8
0
  6
CONTINUOUS
 62
     7
 10
291.536811819
 20
-49.4425584497
 30
0.0
 11
291.836813917
 21
-49.4425584497
 31
0.0
  0
LINE
  5
1EB
  8
0
  6
CONTINUOUS
 62
     7
 10
308.2368113898
 20
-49.4425584497
 30
0.0
 11
308.9368142985
 21
-49.4425584497
 31
0.0
  0
LINE
  5
1EC
  8
0
  6
CONTINUOUS
 62
     7
 10
308.9368142985
 20
-37.4425583453
 30
0.0
 11
308.2368113898
 21
-37.4425583453
 31
0.0
  0
LINE
  5
1ED
  8
0
  6
CONTINUOUS
 62
     7
 10
291.836813917
 20
-37.4425583453
 30
0.0
 11
291.536811819
 21
-37.4425583453
 31
0.0
  0
LINE
  5
1EE
  8
0
  6
CONTINUOUS
 62
     7
 10
291.536811819
 20
-34.8425582917
 30
0.0
 11
288.1368138694
 21
-34.8425582917
 31
0.0
  0
LINE
  5
1EF
  8
0
  6
CONTINUOUS
 62
     7
 10
48.1368162535
 20
-49.8425581427
 30
0.0
 11
51.5368082427
 21
-49.8425581427
 31
0.0
  0
LINE
  5
1F0
  8
0
  6
CONTINUOUS
 62
     7
 10
51.5368082427
 20
-49.4425584497
 30
0.0
 11
51.8368103408
 21
-49.4425584497
 31
0.0
  0
LINE
  5
1F1
  8
0
  6
CONTINUOUS
 62
     7
 10
68.236813774
 20
-49.4425584497
 30
0.0
 11
68.9368107222
 21
-49.4425584497
 31
0.0
  0
LINE
  5
1F2
  8
0
  6
CONTINUOUS
 62
     7
 10
68.9368107222
 20
-37.4425583453
 30
0.0
 11
68.236813774
 21
-37.4425583453
 31
0.0
  0
LINE
  5
1F3
  8
0
  6
CONTINUOUS
 62
     7
 10
51.8368103408
 20
-37.4425583453
 30
0.0
 11
51.5368082427
 21
-37.4425583453
 31
0.0
  0
LINE
  5
1F4
  8
0
  6
CONTINUOUS
 62
     7
 10
51.5368082427
 20
-34.8425582917
 30
0.0
 11
48.1368162535
 21
-34.8425582917
 31
0.0
  0
LINE
  5
1F5
  8
0
  6
CONTINUOUS
 62
     7
 10
168.1368120812
 20
-49.8425581427
 30
0.0
 11
171.5368130111
 21
-49.8425581427
 31
0.0
  0
LINE
  5
1F6
  8
0
  6
CONTINUOUS
 62
     7
 10
171.5368130111
 20
-49.4425584497
 30
0.0
 11
171.8368121289
 21
-49.4425584497
 31
0.0
  0
LINE
  5
1F7
  8
0
  6
CONTINUOUS
 62
     7
 10
188.2368125819
 20
-49.4425584497
 30
0.0
 11
188.9368125104
 21
-49.4425584497
 31
0.0
  0
LINE
  5
1F8
  8
0
  6
CONTINUOUS
 62
     7
 10
188.9368125104
 20
-37.4425583453
 30
0.0
 11
188.2368125819
 21
-37.4425583453
 31
0.0
  0
LINE
  5
1F9
  8
0
  6
CONTINUOUS
 62
     7
 10
171.8368121289
 20
-37.4425583453
 30
0.0
 11
171.5368130111
 21
-37.4425583453
 31
0.0
  0
LINE
  5
1FA
  8
0
  6
CONTINUOUS
 62
     7
 10
171.5368130111
 20
-34.8425582917
 30
0.0
 11
168.1368120812
 21
-34.8425582917
 31
0.0
  0
LINE
  5
1FB
  8
0
  6
CONTINUOUS
 62
     7
 10
46.336815586
 20
-38.3425583066
 30
0.0
 11
48.1368162535
 21
-38.3425583066
 31
0.0
  0
LINE
  5
1FC
  8
0
  6
CONTINUOUS
 62
     7
 10
68.9368107222
 20
-38.3425583066
 30
0.0
 11
110.1368107699
 21
-38.3425583066
 31
0.0
  0
LINE
  5
1FD
  8
0
  6
CONTINUOUS
 62
     7
 10
130.9368111991
 20
-38.3425583066
 30
0.0
 11
168.1368120812
 21
-38.3425583066
 31
0.0
  0
LINE
  5
1FE
  8
0
  6
CONTINUOUS
 62
     7
 10
188.9368125104
 20
-38.3425583066
 30
0.0
 11
230.1368125581
 21
-38.3425583066
 31
0.0
  0
LINE
  5
1FF
  8
0
  6
CONTINUOUS
 62
     7
 10
250.9368129872
 20
-38.3425583066
 30
0.0
 11
288.1368138694
 21
-38.3425583066
 31
0.0
  0
LINE
  5
200
  8
0
  6
CONTINUOUS
 62
     7
 10
308.9368142985
 20
-38.3425583066
 30
0.0
 11
350.1368143462
 21
-38.3425583066
 31
0.0
  0
LINE
  5
201
  8
0
  6
CONTINUOUS
 62
     7
 10
370.9368088149
 20
-38.3425583066
 30
0.0
 11
372.7368094825
 21
-38.3425583066
 31
0.0
  0
LINE
  5
202
  8
0
  6
CONTINUOUS
 62
     7
 10
373.1368162535
 20
-38.7425583722
 30
0.0
 11
373.1368162535
 21
-39.3425584705
 31
0.0
  0
ARC
  5
203
  8
0
  6
CONTINUOUS
 62
     7
 10
372.7368125342
 20
-38.7425583811
 30
0.0
 40
0.3999999999999986
 50
0.0
 51
90.0
  0
LINE
  5
204
  8
0
  6
CONTINUOUS
 62
     7
 10
45.9368088149
 20
-39.3425584705
 30
0.0
 11
45.9368088149
 21
-38.7425583722
 31
0.0
  0
ARC
  5
205
  8
0
  6
CONTINUOUS
 62
     7
 10
46.3368125342
 20
-38.7425583811
 30
0.0
 40
0.3999999999999986
 50
90.0
 51
180.0
  0
LINE
  5
206
  8
0
  6
CONTINUOUS
 62
     7
 10
45.9368088149
 20
-47.3425582917
 30
0.0
 11
45.9368088149
 21
-39.3425584705
 31
0.0
  0
LINE
  5
207
  8
0
  6
CONTINUOUS
 62
     7
 10
373.1368162535
 20
-39.3425584705
 30
0.0
 11
373.1368162535
 21
-47.3425582917
 31
0.0
  0
ARC
  5
208
  8
0
  6
CONTINUOUS
 62
     7
 10
46.3368125342
 20
-47.9425583811
 30
0.0
 40
0.3999999999999915
 50
180.0
 51
270.0
  0
LINE
  5
209
  8
0
  6
CONTINUOUS
 62
     7
 10
45.9368088149
 20
-47.94255839
 30
0.0
 11
45.9368088149
 21
-47.3425582917
 31
0.0
  0
LINE
  5
20A
  8
0
  6
CONTINUOUS
 62
     7
 10
372.7368094825
 20
-48.3425584556
 30
0.0
 11
370.9368088149
 21
-48.3425584556
 31
0.0
  0
LINE
  5
20B
  8
0
  6
CONTINUOUS
 62
     7
 10
350.1368143462
 20
-48.3425584556
 30
0.0
 11
339.4038059615
 21
-48.3425584556
 31
0.0
  0
LINE
  5
20C
  8
0
  6
CONTINUOUS
 62
     7
 10
319.78873991
 20
-48.3425584556
 30
0.0
 11
308.9368142985
 21
-48.3425584556
 31
0.0
  0
LINE
  5
20D
  8
0
  6
CONTINUOUS
 62
     7
 10
288.1368138694
 20
-48.3425584556
 30
0.0
 11
250.9368129872
 21
-48.3425584556
 31
0.0
  0
LINE
  5
20E
  8
0
  6
CONTINUOUS
 62
     7
 10
230.1368125581
 20
-48.3425584556
 30
0.0
 11
188.9368125104
 21
-48.3425584556
 31
0.0
  0
LINE
  5
20F
  8
0
  6
CONTINUOUS
 62
     7
 10
168.1368120812
 20
-48.3425584556
 30
0.0
 11
130.9368111991
 21
-48.3425584556
 31
0.0
  0
LINE
  5
210
  8
0
  6
CONTINUOUS
 62
     7
 10
110.1368107699
 20
-48.3425584556
 30
0.0
 11
68.9368107222
 21
-48.3425584556
 31
0.0
  0
LINE
  5
211
  8
0
  6
CONTINUOUS
 62
     7
 10
48.1368162535
 20
-48.3425584556
 30
0.0
 11
46.336815586
 21
-48.3425584556
 31
0.0
  0
LINE
  5
212
  8
0
  6
CONTINUOUS
 62
     7
 10
373.1368162535
 20
-47.3425582917
 30
0.0
 11
373.1368162535
 21
-47.94255839
 31
0.0
  0
ARC
  5
213
  8
0
  6
CONTINUOUS
 62
     7
 10
372.7368125342
 20
-47.9425583811
 30
0.0
 40
0.3999999999999915
 50
270.0
 51
0.0
  0
ARC
  5
214
  8
0
  6
CONTINUOUS
 62
     7
 10
352.5368125342
 20
-35.3425583811
 30
0.0
 40
4.000000000000004
 50
0.0
 51
90.0
  0
LINE
  5
215
  8
0
  6
CONTINUOUS
 62
     7
 10
356.5368153952
 20
-37.3425585152
 30
0.0
 11
356.5368153952
 21
-35.3425585599
 31
0.0
  0
POLYLINE
  5
216
  8
0
  6
CONTINUOUS
 62
     7
 66
     1
 10
0.0
 20
0.0
 30
0.0
  0
VERTEX
  5
4A8
  8
0
  6
CONTINUOUS
 62
     7
 10
355.6010939978
 20
-49.5425582798
 30
0.0
  0
VERTEX
  5
4A9
  8
0
  6
CONTINUOUS
 62
     7
 10
355.5314042472
 20
-49.9859229596
 30
0.0
  0
VERTEX
  5
4AA
  8
0
  6
CONTINUOUS
 62
     7
 10
355.1366784476
 20
-52.2442483278
 30
0.0
  0
SEQEND
  5
6CC
  8
0
  6
CONTINUOUS
 62
     7
  0
LINE
  5
217
  8
0
  6
CONTINUOUS
 62
     7
 10
332.5430610083
 20
-38.3425583066
 30
0.0
 11
332.5368144416
 21
-37.3425585152
 31
0.0
  0
LINE
  5
218
  8
0
  6
CONTINUOUS
 62
     7
 10
332.5368144416
 20
-35.3425585599
 30
0.0
 11
332.5368144416
 21
-37.3425585152
 31
0.0
  0
ARC
  5
219
  8
0
  6
CONTINUOUS
 62
     7
 10
336.5368125342
 20
-35.3425583811
 30
0.0
 40
4.000000000000004
 50
90.0
 51
180.0
  0
LINE
  5
21A
  8
0
  6
CONTINUOUS
 62
     7
 10
352.536807289
 20
-31.3425586493
 30
0.0
 11
336.5368106269
 21
-31.3425586493
 31
0.0
  0
CIRCLE
  5
21B
  8
0
  6
CONTINUOUS
 62
     7
 10
352.5368125342
 20
-35.3425583811
 30
0.0
 40
1.500000000000014
  0
CIRCLE
  5
21C
  8
0
  6
CONTINUOUS
 62
     7
 10
336.5368125342
 20
-35.3425583811
 30
0.0
 40
1.500000000000021
  0
ARC
  5
21D
  8
0
  6
CONTINUOUS
 62
     7
 10
71.1225282488
 20
-63.3425583811
 30
0.0
 40
4.0
 50
200.0051900882
 51
270.0
  0
ARC
  5
21E
  8
0
  6
CONTINUOUS
 62
     7
 10
142.5368125342
 20
-37.3425583811
 30
0.0
 40
80.00000000000003
 50
188.7718331197
 51
200.0051900882
  0
LINE
  5
21F
  8
0
  6
CONTINUOUS
 62
     7
 10
62.5368096732
 20
-35.3425585599
 30
0.0
 11
62.5368096732
 21
-37.3425585152
 31
0.0
  0
ARC
  5
220
  8
0
  6
CONTINUOUS
 62
     7
 10
66.5368125342
 20
-35.3425583811
 30
0.0
 40
4.000000000000007
 50
90.0
 51
180.0
  0
LINE
  5
221
  8
0
  6
CONTINUOUS
 62
     7
 10
82.5368144416
 20
-31.3425586493
 30
0.0
 11
66.5368177794
 21
-31.3425586493
 31
0.0
  0
ARC
  5
222
  8
0
  6
CONTINUOUS
 62
     7
 10
82.5368125342
 20
-35.3425583811
 30
0.0
 40
4.000000000000007
 50
0.0
 51
90.0
  0
LINE
  5
223
  8
0
  6
CONTINUOUS
 62
     7
 10
86.5368106269
 20
-37.3425585152
 30
0.0
 11
86.5368106269
 21
-35.3425585599
 31
0.0
  0
LINE
  5
224
  8
0
  6
CONTINUOUS
 62
     7
 10
86.5368106269
 20
-37.3425585152
 30
0.0
 11
86.5305640601
 21
-38.3425583066
 31
0.0
  0
ARC
  5
225
  8
0
  6
CONTINUOUS
 62
     7
 10
6.5368125342
 20
-37.3425583811
 30
0.0
 40
80.00000000000003
 50
339.9948099118
 51
352.0967922665
  0
ARC
  5
226
  8
0
  6
CONTINUOUS
 62
     7
 10
77.9510968196
 20
-63.3425583811
 30
0.0
 40
4.000000000000038
 50
270.0
 51
339.9948099118
  0
LINE
  5
227
  8
0
  6
CONTINUOUS
 62
     7
 10
71.1225249671
 20
-67.3425578447
 30
0.0
 11
77.951095333
 21
-67.3425578447
 31
0.0
  0
CIRCLE
  5
228
  8
0
  6
CONTINUOUS
 62
     7
 10
66.5368125342
 20
-35.3425583811
 30
0.0
 40
1.500000000000014
  0
CIRCLE
  5
229
  8
0
  6
CONTINUOUS
 62
     7
 10
82.5368125342
 20
-35.3425583811
 30
0.0
 40
1.500000000000007
  0
CIRCLE
  5
22A
  8
0
  6
CONTINUOUS
 62
     7
 10
74.5368125342
 20
-63.3425583811
 30
0.0
 40
1.500000000000014
  0
POLYLINE
  5
22B
  8
0
  6
CONTINUOUS
 62
     7
 66
     1
 10
0.0
 20
0.0
 30
0.0
  0
VERTEX
  5
4AB
  8
0
  6
CONTINUOUS
 62
     7
 10
51.9367434882
 20
-39.5035066576
 30
0.0
  0
VERTEX
  5
4AC
  8
0
  6
CONTINUOUS
 62
     7
 10
51.936779251
 20
-39.3365704389
 30
0.0
  0
VERTEX
  5
4AD
  8
0
  6
CONTINUOUS
 62
     7
 10
51.9369103812
 20
-39.2247901233
 30
0.0
  0
VERTEX
  5
4AE
  8
0
  6
CONTINUOUS
 62
     7
 10
51.9373514556
 20
-39.1272221626
 30
0.0
  0
VERTEX
  5
4AF
  8
0
  6
CONTINUOUS
 62
     7
 10
51.9375421904
 20
-39.1331189246
 30
0.0
  0
SEQEND
  5
6CB
  8
0
  6
CONTINUOUS
 62
     7
  0
POLYLINE
  5
22C
  8
0
  6
CONTINUOUS
 62
     7
 66
     1
 10
0.0
 20
0.0
 30
0.0
  0
VERTEX
  5
4B0
  8
0
  6
CONTINUOUS
 62
     7
 10
58.0243089103
 20
-43.0332309967
 30
0.0
  0
VERTEX
  5
4B1
  8
0
  6
CONTINUOUS
 62
     7
 10
56.9215991401
 20
-42.8271500794
 30
0.0
  0
VERTEX
  5
4B2
  8
0
  6
CONTINUOUS
 62
     7
 10
55.8530309104
 20
-42.4857844533
 30
0.0
  0
VERTEX
  5
4B3
  8
0
  6
CONTINUOUS
 62
     7
 10
55.0455191039
 20
-42.1274267071
 30
0.0
  0
VERTEX
  5
4B4
  8
0
  6
CONTINUOUS
 62
     7
 10
54.3078043364
 20
-41.7166807623
 30
0.0
  0
VERTEX
  5
4B5
  8
0
  6
CONTINUOUS
 62
     7
 10
53.5498597525
 20
-41.2016569571
 30
0.0
  0
VERTEX
  5
4B6
  8
0
  6
CONTINUOUS
 62
     7
 10
52.9117443465
 20
-40.6826390819
 30
0.0
  0
VERTEX
  5
4B7
  8
0
  6
CONTINUOUS
 62
     7
 10
52.3807504081
 20
-40.1719913752
 30
0.0
  0
VERTEX
  5
4B8
  8
0
  6
CONTINUOUS
 62
     7
 10
52.1812298201
 20
-39.9493147553
 30
0.0
  0
VERTEX
  5
4B9
  8
0
  6
CONTINUOUS
 62
     7
 10
52.0384766959
 20
-39.7599168988
 30
0.0
  0
VERTEX
  5
4BA
  8
0
  6
CONTINUOUS
 62
     7
 10
51.9367196463
 20
-39.5035040499
 30
0.0
  0
SEQEND
  5
6CA
  8
0
  6
CONTINUOUS
 62
     7
  0
POLYLINE
  5
22D
  8
0
  6
CONTINUOUS
 62
     7
 66
     1
 10
0.0
 20
0.0
 30
0.0
  0
VERTEX
  5
4BB
  8
0
  6
CONTINUOUS
 62
     7
 10
121.0493125819
 20
-43.0332309967
 30
0.0
  0
VERTEX
  5
4BC
  8
0
  6
CONTINUOUS
 62
     7
 10
114.0060820483
 20
-43.8192521156
 30
0.0
  0
VERTEX
  5
4BD
  8
0
  6
CONTINUOUS
 62
     7
 10
106.9354393386
 20
-44.4367952579
 30
0.0
  0
VERTEX
  5
4BE
  8
0
  6
CONTINUOUS
 62
     7
 10
99.8098351859
 20
-44.8589161904
 30
0.0
  0
VERTEX
  5
4BF
  8
0
  6
CONTINUOUS
 62
     7
 10
92.6702358626
 20
-45.0673892097
 30
0.0
  0
VERTEX
  5
4C0
  8
0
  6
CONTINUOUS
 62
     7
 10
86.896369686
 20
-45.0729976343
 30
0.0
  0
VERTEX
  5
4C1
  8
0
  6
CONTINUOUS
 62
     7
 10
81.1236121558
 20
-44.9340385319
 30
0.0
  0
VERTEX
  5
4C2
  8
0
  6
CONTINUOUS
 62
     7
 10
75.3597714804
 20
-44.6537159318
 30
0.0
  0
VERTEX
  5
4C3
  8
0
  6
CONTINUOUS
 62
     7
 10
69.5645429992
 20
-44.2331323335
 30
0.0
  0
VERTEX
  5
4C4
  8
0
  6
CONTINUOUS
 62
     7
 10
63.7845137023
 20
-43.6875354899
 30
0.0
  0
VERTEX
  5
4C5
  8
0
  6
CONTINUOUS
 62
     7
 10
58.0243089103
 20
-43.0332309967
 30
0.0
  0
SEQEND
  5
6C9
  8
0
  6
CONTINUOUS
 62
     7
  0
POLYLINE
  5
22E
  8
0
  6
CONTINUOUS
 62
     7
 66
     1
 10
0.0
 20
0.0
 30
0.0
  0
VERTEX
  5
4C6
  8
0
  6
CONTINUOUS
 62
     7
 10
127.1369078063
 20
-39.5036649825
 30
0.0
  0
VERTEX
  5
4C7
  8
0
  6
CONTINUOUS
 62
     7
 10
127.0510532759
 20
-39.7349336119
 30
0.0
  0
VERTEX
  5
4C8
  8
0
  6
CONTINUOUS
 62
     7
 10
126.7919340037
 20
-40.0648475559
 30
0.0
  0
VERTEX
  5
4C9
  8
0
  6
CONTINUOUS
 62
     7
 10
126.3976313971
 20
-40.4667808609
 30
0.0
  0
VERTEX
  5
4CA
  8
0
  6
CONTINUOUS
 62
     7
 10
125.8609094523
 20
-40.9382800506
 30
0.0
  0
VERTEX
  5
4CB
  8
0
  6
CONTINUOUS
 62
     7
 10
125.1378276252
 20
-41.4764841022
 30
0.0
  0
VERTEX
  5
4CC
  8
0
  6
CONTINUOUS
 62
     7
 10
124.2499925994
 20
-42.0126402685
 30
0.0
  0
VERTEX
  5
4CD
  8
0
  6
CONTINUOUS
 62
     7
 10
123.3846762084
 20
-42.4202568763
 30
0.0
  0
VERTEX
  5
4CE
  8
0
  6
CONTINUOUS
 62
     7
 10
122.3994173907
 20
-42.760909575
 30
0.0
  0
VERTEX
  5
4CF
  8
0
  6
CONTINUOUS
 62
     7
 10
121.7409291171
 20
-42.9207987552
 30
0.0
  0
VERTEX
  5
4D0
  8
0
  6
CONTINUOUS
 62
     7
 10
121.0493125819
 20
-43.0332309967
 30
0.0
  0
SEQEND
  5
6C8
  8
0
  6
CONTINUOUS
 62
     7
  0
POLYLINE
  5
22F
  8
0
  6
CONTINUOUS
 62
     7
 66
     1
 10
0.0
 20
0.0
 30
0.0
  0
VERTEX
  5
4D1
  8
0
  6
CONTINUOUS
 62
     7
 10
127.1360614203
 20
-39.1271528722
 30
0.0
  0
VERTEX
  5
4D2
  8
0
  6
CONTINUOUS
 62
     7
 10
127.1361329459
 20
-39.1214379044
 30
0.0
  0
VERTEX
  5
4D3
  8
0
  6
CONTINUOUS
 62
     7
 10
127.1365084552
 20
-39.157992688
 30
0.0
  0
VERTEX
  5
4D4
  8
0
  6
CONTINUOUS
 62
     7
 10
127.136788597
 20
-39.2743823053
 30
0.0
  0
VERTEX
  5
4D5
  8
0
  6
CONTINUOUS
 62
     7
 10
127.1368839644
 20
-39.5036672176
 30
0.0
  0
SEQEND
  5
6C7
  8
0
  6
CONTINUOUS
 62
     7
  0
POLYLINE
  5
230
  8
0
  6
CONTINUOUS
 62
     7
 66
     1
 10
0.0
 20
0.0
 30
0.0
  0
VERTEX
  5
4D6
  8
0
  6
CONTINUOUS
 62
     7
 10
54.3304660224
 20
-38.1278765322
 30
0.0
  0
VERTEX
  5
4D7
  8
0
  6
CONTINUOUS
 62
     7
 10
53.5560824775
 20
-38.1258741887
 30
0.0
  0
VERTEX
  5
4D8
  8
0
  6
CONTINUOUS
 62
     7
 10
53.3599951171
 20
-38.1249953927
 30
0.0
  0
SEQEND
  5
6C6
  8
0
  6
CONTINUOUS
 62
     7
  0
POLYLINE
  5
231
  8
0
  6
CONTINUOUS
 62
     7
 66
     1
 10
0.0
 20
0.0
 30
0.0
  0
VERTEX
  5
4D9
  8
0
  6
CONTINUOUS
 62
     7
 10
52.0833947562
 20
-37.9702501865
 30
0.0
  0
VERTEX
  5
4DA
  8
0
  6
CONTINUOUS
 62
     7
 10
52.0735123061
 20
-38.0231131734
 30
0.0
  0
VERTEX
  5
4DB
  8
0
  6
CONTINUOUS
 62
     7
 10
52.045009365
 20
-38.2789433868
 30
0.0
  0
SEQEND
  5
6C5
  8
0
  6
CONTINUOUS
 62
     7
  0
ARC
  5
232
  8
0
  6
CONTINUOUS
 62
     7
 10
53.1529926981
 20
-52.6906093344
 30
0.0
 40
14.61021960881749
 50
75.6823370584
 51
85.377426591
  0
ARC
  5
233
  8
0
  6
CONTINUOUS
 62
     7
 10
125.7607915093
 20
-51.9031718793
 30
0.0
 40
13.81279459082227
 50
94.2249553242
 51
104.9752273842
  0
POLYLINE
  5
234
  8
0
  6
CONTINUOUS
 62
     7
 66
     1
 10
0.0
 20
0.0
 30
0.0
  0
VERTEX
  5
4DC
  8
0
  6
CONTINUOUS
 62
     7
 10
124.7431673907
 20
-38.1279149027
 30
0.0
  0
VERTEX
  5
4DD
  8
0
  6
CONTINUOUS
 62
     7
 10
125.6009378337
 20
-38.1255445005
 30
0.0
  0
VERTEX
  5
4DE
  8
0
  6
CONTINUOUS
 62
     7
 10
125.7211663626
 20
-38.1250088038
 30
0.0
  0
SEQEND
  5
6C4
  8
0
  6
CONTINUOUS
 62
     7
  0
POLYLINE
  5
235
  8
0
  6
CONTINUOUS
 62
     7
 66
     1
 10
0.0
 20
0.0
 30
0.0
  0
VERTEX
  5
4DF
  8
0
  6
CONTINUOUS
 62
     7
 10
126.9490637683
 20
-38.1284930678
 30
0.0
  0
VERTEX
  5
4E0
  8
0
  6
CONTINUOUS
 62
     7
 10
126.9585885905
 20
-38.1401450308
 30
0.0
  0
VERTEX
  5
4E1
  8
0
  6
CONTINUOUS
 62
     7
 10
126.9710698031
 20
-38.1159749748
 30
0.0
  0
VERTEX
  5
4E2
  8
0
  6
CONTINUOUS
 62
     7
 10
126.9725837611
 20
-38.0585000785
 30
0.0
  0
VERTEX
  5
4E3
  8
0
  6
CONTINUOUS
 62
     7
 10
126.9740440749
 20
-37.9876156272
 30
0.0
  0
SEQEND
  5
6C3
  8
0
  6
CONTINUOUS
 62
     7
  0
POLYLINE
  5
236
  8
0
  6
CONTINUOUS
 62
     7
 66
     1
 10
0.0
 20
0.0
 30
0.0
  0
VERTEX
  5
4E4
  8
0
  6
CONTINUOUS
 62
     7
 10
126.9758262538
 20
-37.9641917469
 30
0.0
  0
VERTEX
  5
4E5
  8
0
  6
CONTINUOUS
 62
     7
 10
126.9778528117
 20
-37.9375548036
 30
0.0
  0
VERTEX
  5
4E6
  8
0
  6
CONTINUOUS
 62
     7
 10
126.9865789317
 20
-37.9440163197
 30
0.0
  0
VERTEX
  5
4E7
  8
0
  6
CONTINUOUS
 62
     7
 10
127.0028748416
 20
-38.0435273917
 30
0.0
  0
VERTEX
  5
4E8
  8
0
  6
CONTINUOUS
 62
     7
 10
127.0286180877
 20
-38.2789437593
 30
0.0
  0
SEQEND
  5
6C2
  8
0
  6
CONTINUOUS
 62
     7
  0
POLYLINE
  5
237
  8
0
  6
CONTINUOUS
 62
     7
 66
     1
 10
0.0
 20
0.0
 30
0.0
  0
VERTEX
  5
4E9
  8
0
  6
CONTINUOUS
 62
     7
 10
127.0286180877
 20
-38.2789433868
 30
0.0
  0
VERTEX
  5
4EA
  8
0
  6
CONTINUOUS
 62
     7
 10
126.9572057627
 20
-38.4891995163
 30
0.0
  0
VERTEX
  5
4EB
  8
0
  6
CONTINUOUS
 62
     7
 10
126.7096199893
 20
-38.7868688376
 30
0.0
  0
VERTEX
  5
4EC
  8
0
  6
CONTINUOUS
 62
     7
 10
126.3133087062
 20
-39.1533949347
 30
0.0
  0
VERTEX
  5
4ED
  8
0
  6
CONTINUOUS
 62
     7
 10
125.7637956046
 20
-39.590485108
 30
0.0
  0
VERTEX
  5
4EE
  8
0
  6
CONTINUOUS
 62
     7
 10
125.0433065795
 20
-40.0795564921
 30
0.0
  0
VERTEX
  5
4EF
  8
0
  6
CONTINUOUS
 62
     7
 10
124.1602995299
 20
-40.5719418944
 30
0.0
  0
VERTEX
  5
4F0
  8
0
  6
CONTINUOUS
 62
     7
 10
123.2816674613
 20
-40.9579495834
 30
0.0
  0
VERTEX
  5
4F1
  8
0
  6
CONTINUOUS
 62
     7
 10
122.2828962706
 20
-41.2813656898
 30
0.0
  0
VERTEX
  5
4F2
  8
0
  6
CONTINUOUS
 62
     7
 10
121.6270663642
 20
-41.4308284344
 30
0.0
  0
VERTEX
  5
4F3
  8
0
  6
CONTINUOUS
 62
     7
 10
120.9399738215
 20
-41.5360682578
 30
0.0
  0
SEQEND
  5
6C1
  8
0
  6
CONTINUOUS
 62
     7
  0
POLYLINE
  5
238
  8
0
  6
CONTINUOUS
 62
     7
 66
     1
 10
0.0
 20
0.0
 30
0.0
  0
VERTEX
  5
4F4
  8
0
  6
CONTINUOUS
 62
     7
 10
120.9399738215
 20
-41.5360714243
 30
0.0
  0
VERTEX
  5
4F5
  8
0
  6
CONTINUOUS
 62
     7
 10
115.875367155
 20
-42.085851443
 30
0.0
  0
VERTEX
  5
4F6
  8
0
  6
CONTINUOUS
 62
     7
 10
110.8972647094
 20
-42.5497054057
 30
0.0
  0
VERTEX
  5
4F7
  8
0
  6
CONTINUOUS
 62
     7
 10
105.904946556
 20
-42.9289266402
 30
0.0
  0
VERTEX
  5
4F8
  8
0
  6
CONTINUOUS
 62
     7
 10
100.8584716224
 20
-43.2165495171
 30
0.0
  0
VERTEX
  5
4F9
  8
0
  6
CONTINUOUS
 62
     7
 10
95.8390929602
 20
-43.4014126651
 30
0.0
  0
VERTEX
  5
4FA
  8
0
  6
CONTINUOUS
 62
     7
 10
90.796742668
 20
-43.4817265654
 30
0.0
  0
VERTEX
  5
4FB
  8
0
  6
CONTINUOUS
 62
     7
 10
85.7671596907
 20
-43.4550743368
 30
0.0
  0
VERTEX
  5
4FC
  8
0
  6
CONTINUOUS
 62
     7
 10
81.1451055907
 20
-43.3370383824
 30
0.0
  0
VERTEX
  5
4FD
  8
0
  6
CONTINUOUS
 62
     7
 10
76.5435316466
 20
-43.1323335906
 30
0.0
  0
VERTEX
  5
4FE
  8
0
  6
CONTINUOUS
 62
     7
 10
71.9439723395
 20
-42.8443177538
 30
0.0
  0
VERTEX
  5
4FF
  8
0
  6
CONTINUOUS
 62
     7
 10
67.3336126708
 20
-42.4769694851
 30
0.0
  0
VERTEX
  5
500
  8
0
  6
CONTINUOUS
 62
     7
 10
62.7875783347
 20
-42.0440502399
 30
0.0
  0
VERTEX
  5
501
  8
0
  6
CONTINUOUS
 62
     7
 10
58.1336476706
 20
-41.5360714243
 30
0.0
  0
SEQEND
  5
6C0
  8
0
  6
CONTINUOUS
 62
     7
  0
POLYLINE
  5
239
  8
0
  6
CONTINUOUS
 62
     7
 66
     1
 10
0.0
 20
0.0
 30
0.0
  0
VERTEX
  5
502
  8
0
  6
CONTINUOUS
 62
     7
 10
58.1336476706
 20
-41.5360714243
 30
0.0
  0
VERTEX
  5
503
  8
0
  6
CONTINUOUS
 62
     7
 10
57.7020504378
 20
-41.4759525032
 30
0.0
  0
VERTEX
  5
504
  8
0
  6
CONTINUOUS
 62
     7
 10
57.2685577773
 20
-41.3949846224
 30
0.0
  0
VERTEX
  5
505
  8
0
  6
CONTINUOUS
 62
     7
 10
56.8357088469
 20
-41.2931752326
 30
0.0
  0
VERTEX
  5
506
  8
0
  6
CONTINUOUS
 62
     7
 10
56.4438559912
 20
-41.1823416994
 30
0.0
  0
VERTEX
  5
507
  8
0
  6
CONTINUOUS
 62
     7
 10
56.0483910941
 20
-41.0522709535
 30
0.0
  0
VERTEX
  5
508
  8
0
  6
CONTINUOUS
 62
     7
 10
55.6520321273
 20
-40.9030365692
 30
0.0
  0
VERTEX
  5
509
  8
0
  6
CONTINUOUS
 62
     7
 10
55.3446628951
 20
-40.7737865047
 30
0.0
  0
VERTEX
  5
50A
  8
0
  6
CONTINUOUS
 62
     7
 10
55.0409295462
 20
-40.6341970833
 30
0.0
  0
VERTEX
  5
50B
  8
0
  6
CONTINUOUS
 62
     7
 10
54.7533490561
 20
-40.4907994838
 30
0.0
  0
VERTEX
  5
50C
  8
0
  6
CONTINUOUS
 62
     7
 10
54.4804313086
 20
-40.3443015115
 30
0.0
  0
VERTEX
  5
50D
  8
0
  6
CONTINUOUS
 62
     7
 10
54.2142965697
 20
-40.1913509639
 30
0.0
  0
VERTEX
  5
50E
  8
0
  6
CONTINUOUS
 62
     7
 10
53.9881327056
 20
-40.05315834
 30
0.0
  0
VERTEX
  5
50F
  8
0
  6
CONTINUOUS
 62
     7
 10
53.7250735663
 20
-39.8826942714
 30
0.0
  0
VERTEX
  5
510
  8
0
  6
CONTINUOUS
 62
     7
 10
53.4293391608
 20
-39.6776941539
 30
0.0
  0
VERTEX
  5
511
  8
0
  6
CONTINUOUS
 62
     7
 10
53.2179930114
 20
-39.5217605801
 30
0.0
  0
VERTEX
  5
512
  8
0
  6
CONTINUOUS
 62
     7
 10
53.0077197455
 20
-39.3581640841
 30
0.0
  0
VERTEX
  5
513
  8
0
  6
CONTINUOUS
 62
     7
 10
52.7964928054
 20
-39.1844686986
 30
0.0
  0
VERTEX
  5
514
  8
0
  6
CONTINUOUS
 62
     7
 10
52.6204087638
 20
-39.0308451773
 30
0.0
  0
VERTEX
  5
515
  8
0
  6
CONTINUOUS
 62
     7
 10
52.4759151839
 20
-38.8971009226
 30
0.0
  0
VERTEX
  5
516
  8
0
  6
CONTINUOUS
 62
     7
 10
52.1463014983
 20
-38.5338769229
 30
0.0
  0
VERTEX
  5
517
  8
0
  6
CONTINUOUS
 62
     7
 10
52.045009365
 20
-38.2789437593
 30
0.0
  0
SEQEND
  5
6BF
  8
0
  6
CONTINUOUS
 62
     7
  0
ARC
  5
23A
  8
0
  6
CONTINUOUS
 62
     7
 10
329.5368103785
 20
-121.5736862268
 30
0.0
 40
73.90416181334622
 50
89.9999946319
 51
115.0850157941
  0
LINE
  5
23B
  8
0
  6
CONTINUOUS
 62
     7
 10
297.8074111842
 20
-54.8273728164
 30
0.0
 11
298.2042112254
 21
-54.6401866646
 31
0.0
  0
LINE
  5
23C
  8
0
  6
CONTINUOUS
 62
     7
 10
361.2662174605
 20
-54.8273728164
 30
0.0
 11
360.8694174193
 21
-54.6401866646
 31
0.0
  0
ARC
  5
23D
  8
0
  6
CONTINUOUS
 62
     7
 10
329.5368092248
 20
-121.5737268675
 30
0.0
 40
73.90420245397894
 50
64.9149912154
 51
89.9999937375
  0
ARC
  5
23E
  8
0
  6
CONTINUOUS
 62
     7
 10
358.0476580996
 20
-61.4080362042
 30
0.0
 40
7.325588384423622
 50
15.5163675505
 51
63.9370433426
  0
ARC
  5
23F
  8
0
  6
CONTINUOUS
 62
     7
 10
357.6772254554
 20
-61.2410433877
 30
0.0
 40
7.332216514346436
 50
15.4883465363
 51
64.1914651291
  0
ARC
  5
240
  8
0
  6
CONTINUOUS
 62
     7
 10
301.3666362067
 20
-61.2162073282
 30
0.0
 40
7.296915754605898
 50
115.6830189983
 51
164.6371693363
  0
ARC
  5
241
  8
0
  6
CONTINUOUS
 62
     7
 10
301.0082433609
 20
-61.3933048493
 30
0.0
 40
7.304572561105263
 50
115.9888152977
 51
164.5577738092
  0
POLYLINE
  5
242
  8
0
  6
CONTINUOUS
 62
     7
 66
     1
 10
0.0
 20
0.0
 30
0.0
  0
VERTEX
  5
518
  8
0
  6
CONTINUOUS
 62
     7
 10
291.936741104
 20
-114.13152003
 30
0.0
  0
VERTEX
  5
519
  8
0
  6
CONTINUOUS
 62
     7
 10
291.9367768668
 20
-112.9272141428
 30
0.0
  0
VERTEX
  5
51A
  8
0
  6
CONTINUOUS
 62
     7
 10
291.936907997
 20
-111.7136337729
 30
0.0
  0
VERTEX
  5
51B
  8
0
  6
CONTINUOUS
 62
     7
 10
291.9373550319
 20
-109.4085075827
 30
0.0
  0
VERTEX
  5
51C
  8
0
  6
CONTINUOUS
 62
     7
 10
291.9377484225
 20
-107.1005740137
 30
0.0
  0
VERTEX
  5
51D
  8
0
  6
CONTINUOUS
 62
     7
 10
291.9368126296
 20
-102.4703183146
 30
0.0
  0
SEQEND
  5
6BE
  8
0
  6
CONTINUOUS
 62
     7
  0
LINE
  5
243
  8
0
  6
CONTINUOUS
 62
     7
 10
291.9368126296
 20
-102.4703183146
 30
0.0
 11
291.9368126296
 21
-92.4709507199
 31
0.0
  0
LINE
  5
244
  8
0
  6
CONTINUOUS
 62
     7
 10
291.9368126296
 20
-92.4709507199
 30
0.0
 11
291.9399061106
 21
-91.4315172406
 31
0.0
  0
LINE
  5
245
  8
0
  6
CONTINUOUS
 62
     7
 10
291.9368126296
 20
-82.4695327254
 30
0.0
 11
291.9368126296
 21
-74.3547269078
 31
0.0
  0
POLYLINE
  5
246
  8
0
  6
CONTINUOUS
 62
     7
 66
     1
 10
0.0
 20
0.0
 30
0.0
  0
VERTEX
  5
51E
  8
0
  6
CONTINUOUS
 62
     7
 10
293.4680917167
 20
-61.248452303
 30
0.0
  0
VERTEX
  5
51F
  8
0
  6
CONTINUOUS
 62
     7
 10
293.7725522422
 20
-60.1252936693
 30
0.0
  0
VERTEX
  5
520
  8
0
  6
CONTINUOUS
 62
     7
 10
293.9673700236
 20
-59.4483413668
 30
0.0
  0
SEQEND
  5
6BD
  8
0
  6
CONTINUOUS
 62
     7
  0
POLYLINE
  5
247
  8
0
  6
CONTINUOUS
 62
     7
 66
     1
 10
0.0
 20
0.0
 30
0.0
  0
VERTEX
  5
521
  8
0
  6
CONTINUOUS
 62
     7
 10
294.3304636382
 20
-59.283033845
 30
0.0
  0
VERTEX
  5
522
  8
0
  6
CONTINUOUS
 62
     7
 10
293.5560800933
 20
-62.009606597
 30
0.0
  0
VERTEX
  5
523
  8
0
  6
CONTINUOUS
 62
     7
 10
292.9824151896
 20
-64.7167303534
 30
0.0
  0
VERTEX
  5
524
  8
0
  6
CONTINUOUS
 62
     7
 10
292.6209726237
 20
-67.4356275173
 30
0.0
  0
VERTEX
  5
525
  8
0
  6
CONTINUOUS
 62
     7
 10
292.3733391665
 20
-70.1608964176
 30
0.0
  0
VERTEX
  5
526
  8
0
  6
CONTINUOUS
 62
     7
 10
292.221406927
 20
-72.8870638581
 30
0.0
  0
VERTEX
  5
527
  8
0
  6
CONTINUOUS
 62
     7
 10
292.1530642413
 20
-77.4359890194
 30
0.0
  0
VERTEX
  5
528
  8
0
  6
CONTINUOUS
 62
     7
 10
292.1863415145
 20
-81.9866665573
 30
0.0
  0
VERTEX
  5
529
  8
0
  6
CONTINUOUS
 62
     7
 10
292.1864964865
 20
-86.5329095097
 30
0.0
  0
VERTEX
  5
52A
  8
0
  6
CONTINUOUS
 62
     7
 10
292.1510078811
 20
-91.0838701697
 30
0.0
  0
VERTEX
  5
52B
  8
0
  6
CONTINUOUS
 62
     7
 10
292.1199061774
 20
-95.6441857786
 30
0.0
  0
VERTEX
  5
52C
  8
0
  6
CONTINUOUS
 62
     7
 10
292.1049811744
 20
-100.177083251
 30
0.0
  0
VERTEX
  5
52D
  8
0
  6
CONTINUOUS
 62
     7
 10
292.101935377
 20
-102.4238147707
 30
0.0
  0
VERTEX
  5
52E
  8
0
  6
CONTINUOUS
 62
     7
 10
292.1005048655
 20
-104.6719350786
 30
0.0
  0
VERTEX
  5
52F
  8
0
  6
CONTINUOUS
 62
     7
 10
292.0977809333
 20
-106.9473245116
 30
0.0
  0
VERTEX
  5
530
  8
0
  6
CONTINUOUS
 62
     7
 10
292.0900621318
 20
-109.2606105776
 30
0.0
  0
VERTEX
  5
531
  8
0
  6
CONTINUOUS
 62
     7
 10
292.0735158824
 20
-111.6216816874
 30
0.0
  0
VERTEX
  5
532
  8
0
  6
CONTINUOUS
 62
     7
 10
292.0450069808
 20
-114.0438713999
 30
0.0
  0
SEQEND
  5
6BC
  8
0
  6
CONTINUOUS
 62
     7
  0
LINE
  5
248
  8
0
  6
CONTINUOUS
 62
     7
 10
291.9368126296
 20
-74.3547269078
 30
0.0
 11
291.9397451781
 21
-73.9636340113
 31
0.0
  0
POLYLINE
  5
249
  8
0
  6
CONTINUOUS
 62
     7
 66
     1
 10
0.0
 20
0.0
 30
0.0
  0
VERTEX
  5
533
  8
0
  6
CONTINUOUS
 62
     7
 10
364.743170967
 20
-59.2830323549
 30
0.0
  0
VERTEX
  5
534
  8
0
  6
CONTINUOUS
 62
     7
 10
365.60094141
 20
-62.3343967767
 30
0.0
  0
VERTEX
  5
535
  8
0
  6
CONTINUOUS
 62
     7
 10
366.1929228209
 20
-65.3681420656
 30
0.0
  0
VERTEX
  5
536
  8
0
  6
CONTINUOUS
 62
     7
 10
366.5527441405
 20
-68.4165873499
 30
0.0
  0
VERTEX
  5
537
  8
0
  6
CONTINUOUS
 62
     7
 10
366.7853810691
 20
-71.4692869158
 30
0.0
  0
VERTEX
  5
538
  8
0
  6
CONTINUOUS
 62
     7
 10
366.8982484244
 20
-74.5240428419
 30
0.0
  0
VERTEX
  5
539
  8
0
  6
CONTINUOUS
 62
     7
 10
366.9158556365
 20
-78.5283067198
 30
0.0
  0
VERTEX
  5
53A
  8
0
  6
CONTINUOUS
 62
     7
 10
366.8841102027
 20
-82.5324484082
 30
0.0
  0
VERTEX
  5
53B
  8
0
  6
CONTINUOUS
 62
     7
 10
366.8871261977
 20
-86.5329095097
 30
0.0
  0
VERTEX
  5
53C
  8
0
  6
CONTINUOUS
 62
     7
 10
366.9272401236
 20
-91.6311331959
 30
0.0
  0
VERTEX
  5
53D
  8
0
  6
CONTINUOUS
 62
     7
 10
366.9585921668
 20
-96.7357733221
 30
0.0
  0
VERTEX
  5
53E
  8
0
  6
CONTINUOUS
 62
     7
 10
366.9710733794
 20
-101.7963983984
 30
0.0
  0
VERTEX
  5
53F
  8
0
  6
CONTINUOUS
 62
     7
 10
366.9725873374
 20
-103.7702598543
 30
0.0
  0
VERTEX
  5
540
  8
0
  6
CONTINUOUS
 62
     7
 10
366.9740416907
 20
-105.7600476713
 30
0.0
  0
VERTEX
  5
541
  8
0
  6
CONTINUOUS
 62
     7
 10
366.977844467
 20
-107.7752091856
 30
0.0
  0
VERTEX
  5
542
  8
0
  6
CONTINUOUS
 62
     7
 10
366.986582508
 20
-109.822569129
 30
0.0
  0
VERTEX
  5
543
  8
0
  6
CONTINUOUS
 62
     7
 10
367.0028664969
 20
-111.9086184473
 30
0.0
  0
VERTEX
  5
544
  8
0
  6
CONTINUOUS
 62
     7
 10
367.0286157035
 20
-114.0438713999
 30
0.0
  0
SEQEND
  5
6BB
  8
0
  6
CONTINUOUS
 62
     7
  0
ARC
  5
24A
  8
0
  6
CONTINUOUS
 62
     7
 10
360.2702379964
 20
-114.2597558586
 30
0.0
 40
6.761824852140993
 50
275.6843031171
 51
1.8295905284
  0
ARC
  5
24B
  8
0
  6
CONTINUOUS
 62
     7
 10
329.5368143224
 20
211.1641524499
 30
0.0
 40
333.6336778024231
 50
264.5990580919
 51
275.4009419081
  0
POLYLINE
  5
24C
  8
0
  6
CONTINUOUS
 62
     7
 66
     1
 10
0.0
 20
0.0
 30
0.0
  0
VERTEX
  5
545
  8
0
  6
CONTINUOUS
 62
     7
 10
298.1336512469
 20
-120.9883310766
 30
0.0
  0
VERTEX
  5
546
  8
0
  6
CONTINUOUS
 62
     7
 10
297.7020480536
 20
-120.933733222
 30
0.0
  0
VERTEX
  5
547
  8
0
  6
CONTINUOUS
 62
     7
 10
297.2685553931
 20
-120.8504297705
 30
0.0
  0
VERTEX
  5
548
  8
0
  6
CONTINUOUS
 62
     7
 10
296.8357124232
 20
-120.7373895617
 30
0.0
  0
VERTEX
  5
549
  8
0
  6
CONTINUOUS
 62
     7
 10
296.4438595675
 20
-120.6077375384
 30
0.0
  0
VERTEX
  5
54A
  8
0
  6
CONTINUOUS
 62
     7
 10
296.0483946704
 20
-120.4486169787
 30
0.0
  0
VERTEX
  5
54B
  8
0
  6
CONTINUOUS
 62
     7
 10
295.6520297431
 20
-120.258108613
 30
0.0
  0
VERTEX
  5
54C
  8
0
  6
CONTINUOUS
 62
     7
 10
295.3446545504
 20
-120.0868942709
 30
0.0
  0
VERTEX
  5
54D
  8
0
  6
CONTINUOUS
 62
     7
 10
295.0409271621
 20
-119.8954501124
 30
0.0
  0
VERTEX
  5
54E
  8
0
  6
CONTINUOUS
 62
     7
 10
294.7533466719
 20
-119.6915366621
 30
0.0
  0
VERTEX
  5
54F
  8
0
  6
CONTINUOUS
 62
     7
 10
294.4804289244
 20
-119.4751777621
 30
0.0
  0
VERTEX
  5
550
  8
0
  6
CONTINUOUS
 62
     7
 10
294.2142941855
 20
-119.2398824663
 30
0.0
  0
VERTEX
  5
551
  8
0
  6
CONTINUOUS
 62
     7
 10
293.9881303214
 20
-119.0183320017
 30
0.0
  0
VERTEX
  5
552
  8
0
  6
CONTINUOUS
 62
     7
 10
293.7250711821
 20
-118.7315442534
 30
0.0
  0
VERTEX
  5
553
  8
0
  6
CONTINUOUS
 62
     7
 10
293.4293308162
 20
-118.3639445277
 30
0.0
  0
VERTEX
  5
554
  8
0
  6
CONTINUOUS
 62
     7
 10
293.2179906272
 20
-118.06471729
 30
0.0
  0
VERTEX
  5
555
  8
0
  6
CONTINUOUS
 62
     7
 10
293.0077173613
 20
-117.7282669516
 30
0.0
  0
VERTEX
  5
556
  8
0
  6
CONTINUOUS
 62
     7
 10
292.7964963816
 20
-117.3391141863
 30
0.0
  0
VERTEX
  5
557
  8
0
  6
CONTINUOUS
 62
     7
 10
292.6204063796
 20
-116.9602670641
 30
0.0
  0
VERTEX
  5
558
  8
0
  6
CONTINUOUS
 62
     7
 10
292.4759187602
 20
-116.5956237288
 30
0.0
  0
VERTEX
  5
559
  8
0
  6
CONTINUOUS
 62
     7
 10
292.1463050746
 20
-115.3502502413
 30
0.0
  0
VERTEX
  5
55A
  8
0
  6
CONTINUOUS
 62
     7
 10
292.0450069808
 20
-114.0438713999
 30
0.0
  0
SEQEND
  5
6BA
  8
0
  6
CONTINUOUS
 62
     7
  0
LINE
  5
24D
  8
0
  6
CONTINUOUS
 62
     7
 10
367.1368100547
 20
-82.4695327254
 30
0.0
 11
367.1368100547
 21
-74.3547269078
 31
0.0
  0
POLYLINE
  5
24E
  8
0
  6
CONTINUOUS
 62
     7
 66
     1
 10
0.0
 20
0.0
 30
0.0
  0
VERTEX
  5
55B
  8
0
  6
CONTINUOUS
 62
     7
 10
367.1349742316
 20
-91.430894372
 30
0.0
  0
VERTEX
  5
55C
  8
0
  6
CONTINUOUS
 62
     7
 10
367.1368100547
 20
-92.4709507199
 30
0.0
  0
VERTEX
  5
55D
  8
0
  6
CONTINUOUS
 62
     7
 10
367.1403744124
 20
-94.9014821024
 30
0.0
  0
VERTEX
  5
55E
  8
0
  6
CONTINUOUS
 62
     7
 10
367.1389677428
 20
-99.7627654047
 30
0.0
  0
VERTEX
  5
55F
  8
0
  6
CONTINUOUS
 62
     7
 10
367.1363570594
 20
-103.3545353384
 30
0.0
  0
VERTEX
  5
560
  8
0
  6
CONTINUOUS
 62
     7
 10
367.1358683013
 20
-106.9460132094
 30
0.0
  0
VERTEX
  5
561
  8
0
  6
CONTINUOUS
 62
     7
 10
367.1361305617
 20
-108.7409117193
 30
0.0
  0
VERTEX
  5
562
  8
0
  6
CONTINUOUS
 62
     7
 10
367.1365120314
 20
-110.5353095503
 30
0.0
  0
VERTEX
  5
563
  8
0
  6
CONTINUOUS
 62
     7
 10
367.1367862128
 20
-112.3397746058
 30
0.0
  0
VERTEX
  5
564
  8
0
  6
CONTINUOUS
 62
     7
 10
367.1368815802
 20
-114.1324737044
 30
0.0
  0
SEQEND
  5
6B9
  8
0
  6
CONTINUOUS
 62
     7
  0
LINE
  5
24F
  8
0
  6
CONTINUOUS
 62
     7
 10
365.1062586211
 20
-59.4483413668
 30
0.0
 11
365.613017311
 21
-61.24648982
 31
0.0
  0
LINE
  5
250
  8
0
  6
CONTINUOUS
 62
     7
 10
367.1368100547
 20
-74.3547269078
 30
0.0
 11
367.1339490317
 21
-73.9725866289
 31
0.0
  0
LINE
  5
251
  8
0
  6
CONTINUOUS
 62
     7
 10
360.9399773978
 20
-120.9883310766
 30
0.0
 11
361.0493161582
 21
-120.9779717894
 31
0.0
  0
ARC
  5
252
  8
0
  6
CONTINUOUS
 62
     7
 10
360.3841403656
 20
-114.2568962388
 30
0.0
 40
6.753911118137822
 50
275.6520804084
 51
1.0555288193
  0
LINE
  5
253
  8
0
  6
CONTINUOUS
 62
     7
 10
298.0243124865
 20
-120.9779717894
 30
0.0
 11
298.1336512469
 21
-120.9883310766
 31
0.0
  0
LINE
  5
254
  8
0
  6
CONTINUOUS
 62
     7
 10
298.0243124865
 20
-120.9779717894
 30
0.0
 11
297.9570128821
 21
-120.9659852953
 31
0.0
  0
POLYLINE
  5
255
  8
0
  6
CONTINUOUS
 62
     7
 66
     1
 10
0.0
 20
0.0
 30
0.0
  0
VERTEX
  5
565
  8
0
  6
CONTINUOUS
 62
     7
 10
297.1833565139
 20
-120.8281793566
 30
0.0
  0
VERTEX
  5
566
  8
0
  6
CONTINUOUS
 62
     7
 10
296.9215967559
 20
-120.7815566035
 30
0.0
  0
VERTEX
  5
567
  8
0
  6
CONTINUOUS
 62
     7
 10
295.8530344867
 20
-120.3996160002
 30
0.0
  0
VERTEX
  5
568
  8
0
  6
CONTINUOUS
 62
     7
 10
295.0455167197
 20
-119.9602344008
 30
0.0
  0
VERTEX
  5
569
  8
0
  6
CONTINUOUS
 62
     7
 10
294.3078019522
 20
-119.4125869246
 30
0.0
  0
VERTEX
  5
56A
  8
0
  6
CONTINUOUS
 62
     7
 10
293.5498573684
 20
-118.6459162207
 30
0.0
  0
VERTEX
  5
56B
  8
0
  6
CONTINUOUS
 62
     7
 10
292.9117479228
 20
-117.742375371
 30
0.0
  0
VERTEX
  5
56C
  8
0
  6
CONTINUOUS
 62
     7
 10
292.3807539843
 20
-116.6226663561
 30
0.0
  0
VERTEX
  5
56D
  8
0
  6
CONTINUOUS
 62
     7
 10
292.1812214755
 20
-115.9943678351
 30
0.0
  0
VERTEX
  5
56E
  8
0
  6
CONTINUOUS
 62
     7
 10
292.0384743117
 20
-115.3402545424
 30
0.0
  0
VERTEX
  5
56F
  8
0
  6
CONTINUOUS
 62
     7
 10
291.9367172622
 20
-114.13152003
 30
0.0
  0
SEQEND
  5
6B8
  8
0
  6
CONTINUOUS
 62
     7
  0
POLYLINE
  5
256
  8
0
  6
CONTINUOUS
 62
     7
 66
     1
 10
0.0
 20
0.0
 30
0.0
  0
VERTEX
  5
570
  8
0
  6
CONTINUOUS
 62
     7
 10
171.9367422961
 20
-39.5035066576
 30
0.0
  0
VERTEX
  5
571
  8
0
  6
CONTINUOUS
 62
     7
 10
171.9367750787
 20
-39.3365704389
 30
0.0
  0
VERTEX
  5
572
  8
0
  6
CONTINUOUS
 62
     7
 10
171.9369091891
 20
-39.2247901233
 30
0.0
  0
VERTEX
  5
573
  8
0
  6
CONTINUOUS
 62
     7
 10
171.9373562239
 20
-39.1272221626
 30
0.0
  0
VERTEX
  5
574
  8
0
  6
CONTINUOUS
 62
     7
 10
171.9375439786
 20
-39.1331189246
 30
0.0
  0
SEQEND
  5
6B7
  8
0
  6
CONTINUOUS
 62
     7
  0
POLYLINE
  5
257
  8
0
  6
CONTINUOUS
 62
     7
 66
     1
 10
0.0
 20
0.0
 30
0.0
  0
VERTEX
  5
575
  8
0
  6
CONTINUOUS
 62
     7
 10
178.0243106984
 20
-43.0332309967
 30
0.0
  0
VERTEX
  5
576
  8
0
  6
CONTINUOUS
 62
     7
 10
176.921597948
 20
-42.8271500794
 30
0.0
  0
VERTEX
  5
577
  8
0
  6
CONTINUOUS
 62
     7
 10
175.8530326985
 20
-42.4857844533
 30
0.0
  0
VERTEX
  5
578
  8
0
  6
CONTINUOUS
 62
     7
 10
175.0455149316
 20
-42.1274267071
 30
0.0
  0
VERTEX
  5
579
  8
0
  6
CONTINUOUS
 62
     7
 10
174.3078001641
 20
-41.7166807623
 30
0.0
  0
VERTEX
  5
57A
  8
0
  6
CONTINUOUS
 62
     7
 10
173.5498615407
 20
-41.2016569571
 30
0.0
  0
VERTEX
  5
57B
  8
0
  6
CONTINUOUS
 62
     7
 10
172.9117491149
 20
-40.6826390819
 30
0.0
  0
VERTEX
  5
57C
  8
0
  6
CONTINUOUS
 62
     7
 10
172.3807521962
 20
-40.1719913752
 30
0.0
  0
VERTEX
  5
57D
  8
0
  6
CONTINUOUS
 62
     7
 10
172.1812226676
 20
-39.9493147553
 30
0.0
  0
VERTEX
  5
57E
  8
0
  6
CONTINUOUS
 62
     7
 10
172.0384725236
 20
-39.7599168988
 30
0.0
  0
VERTEX
  5
57F
  8
0
  6
CONTINUOUS
 62
     7
 10
171.936715474
 20
-39.5035040499
 30
0.0
  0
SEQEND
  5
6B6
  8
0
  6
CONTINUOUS
 62
     7
  0
POLYLINE
  5
258
  8
0
  6
CONTINUOUS
 62
     7
 66
     1
 10
0.0
 20
0.0
 30
0.0
  0
VERTEX
  5
580
  8
0
  6
CONTINUOUS
 62
     7
 10
241.04931437
 20
-43.0332309967
 30
0.0
  0
VERTEX
  5
581
  8
0
  6
CONTINUOUS
 62
     7
 10
234.0060793661
 20
-43.8192521156
 30
0.0
  0
VERTEX
  5
582
  8
0
  6
CONTINUOUS
 62
     7
 10
226.9354336761
 20
-44.4367952579
 30
0.0
  0
VERTEX
  5
583
  8
0
  6
CONTINUOUS
 62
     7
 10
219.8098406993
 20
-44.8589161904
 30
0.0
  0
VERTEX
  5
584
  8
0
  6
CONTINUOUS
 62
     7
 10
212.6702328079
 20
-45.0673892097
 30
0.0
  0
VERTEX
  5
585
  8
0
  6
CONTINUOUS
 62
     7
 10
206.8963742681
 20
-45.0729976343
 30
0.0
  0
VERTEX
  5
586
  8
0
  6
CONTINUOUS
 62
     7
 10
201.1236117088
 20
-44.9340385319
 30
0.0
  0
VERTEX
  5
587
  8
0
  6
CONTINUOUS
 62
     7
 10
195.3597702884
 20
-44.6537159318
 30
0.0
  0
VERTEX
  5
588
  8
0
  6
CONTINUOUS
 62
     7
 10
189.5645447873
 20
-44.2331323335
 30
0.0
  0
VERTEX
  5
589
  8
0
  6
CONTINUOUS
 62
     7
 10
183.7845154904
 20
-43.6875354899
 30
0.0
  0
VERTEX
  5
58A
  8
0
  6
CONTINUOUS
 62
     7
 10
178.0243106984
 20
-43.0332309967
 30
0.0
  0
SEQEND
  5
6B5
  8
0
  6
CONTINUOUS
 62
     7
  0
POLYLINE
  5
259
  8
0
  6
CONTINUOUS
 62
     7
 66
     1
 10
0.0
 20
0.0
 30
0.0
  0
VERTEX
  5
58B
  8
0
  6
CONTINUOUS
 62
     7
 10
247.1369095944
 20
-39.5036649825
 30
0.0
  0
VERTEX
  5
58C
  8
0
  6
CONTINUOUS
 62
     7
 10
247.0510520839
 20
-39.7349336119
 30
0.0
  0
VERTEX
  5
58D
  8
0
  6
CONTINUOUS
 62
     7
 10
246.7919328116
 20
-40.0648475559
 30
0.0
  0
VERTEX
  5
58E
  8
0
  6
CONTINUOUS
 62
     7
 10
246.397630205
 20
-40.4667808609
 30
0.0
  0
VERTEX
  5
58F
  8
0
  6
CONTINUOUS
 62
     7
 10
245.8609112405
 20
-40.9382800506
 30
0.0
  0
VERTEX
  5
590
  8
0
  6
CONTINUOUS
 62
     7
 10
245.1378234528
 20
-41.4764841022
 30
0.0
  0
VERTEX
  5
591
  8
0
  6
CONTINUOUS
 62
     7
 10
244.2499914073
 20
-42.0126402685
 30
0.0
  0
VERTEX
  5
592
  8
0
  6
CONTINUOUS
 62
     7
 10
243.3846750163
 20
-42.4202568763
 30
0.0
  0
VERTEX
  5
593
  8
0
  6
CONTINUOUS
 62
     7
 10
242.3994161986
 20
-42.760909575
 30
0.0
  0
VERTEX
  5
594
  8
0
  6
CONTINUOUS
 62
     7
 10
241.740927925
 20
-42.9207987552
 30
0.0
  0
VERTEX
  5
595
  8
0
  6
CONTINUOUS
 62
     7
 10
241.04931437
 20
-43.0332309967
 30
0.0
  0
SEQEND
  5
6B4
  8
0
  6
CONTINUOUS
 62
     7
  0
POLYLINE
  5
25A
  8
0
  6
CONTINUOUS
 62
     7
 66
     1
 10
0.0
 20
0.0
 30
0.0
  0
VERTEX
  5
596
  8
0
  6
CONTINUOUS
 62
     7
 10
247.1360632085
 20
-39.1271528722
 30
0.0
  0
VERTEX
  5
597
  8
0
  6
CONTINUOUS
 62
     7
 10
247.136134734
 20
-39.1214379044
 30
0.0
  0
VERTEX
  5
598
  8
0
  6
CONTINUOUS
 62
     7
 10
247.1365072631
 20
-39.157992688
 30
0.0
  0
VERTEX
  5
599
  8
0
  6
CONTINUOUS
 62
     7
 10
247.1367874049
 20
-39.2743823053
 30
0.0
  0
VERTEX
  5
59A
  8
0
  6
CONTINUOUS
 62
     7
 10
247.1368827723
 20
-39.5036672176
 30
0.0
  0
SEQEND
  5
6B3
  8
0
  6
CONTINUOUS
 62
     7
  0
POLYLINE
  5
25B
  8
0
  6
CONTINUOUS
 62
     7
 66
     1
 10
0.0
 20
0.0
 30
0.0
  0
VERTEX
  5
59B
  8
0
  6
CONTINUOUS
 62
     7
 10
174.3304648303
 20
-38.1278765322
 30
0.0
  0
VERTEX
  5
59C
  8
0
  6
CONTINUOUS
 62
     7
 10
173.5560783051
 20
-38.1258741887
 30
0.0
  0
VERTEX
  5
59D
  8
0
  6
CONTINUOUS
 62
     7
 10
173.3599909447
 20
-38.1249953927
 30
0.0
  0
SEQEND
  5
6B2
  8
0
  6
CONTINUOUS
 62
     7
  0
POLYLINE
  5
25C
  8
0
  6
CONTINUOUS
 62
     7
 66
     1
 10
0.0
 20
0.0
 30
0.0
  0
VERTEX
  5
59E
  8
0
  6
CONTINUOUS
 62
     7
 10
172.0833965443
 20
-37.9702501865
 30
0.0
  0
VERTEX
  5
59F
  8
0
  6
CONTINUOUS
 62
     7
 10
172.0735170745
 20
-38.0231131734
 30
0.0
  0
VERTEX
  5
5A0
  8
0
  6
CONTINUOUS
 62
     7
 10
172.0450081729
 20
-38.2789433868
 30
0.0
  0
SEQEND
  5
6B1
  8
0
  6
CONTINUOUS
 62
     7
  0
ARC
  5
25D
  8
0
  6
CONTINUOUS
 62
     7
 10
173.1529630804
 20
-52.690797611
 30
0.0
 40
14.61040980403834
 50
75.6824003137
 51
85.3773633357
  0
ARC
  5
25E
  8
0
  6
CONTINUOUS
 62
     7
 10
245.7607881885
 20
-51.9031663209
 30
0.0
 40
13.81278867107832
 50
94.2249358884
 51
104.975224812
  0
POLYLINE
  5
25F
  8
0
  6
CONTINUOUS
 62
     7
 66
     1
 10
0.0
 20
0.0
 30
0.0
  0
VERTEX
  5
5A1
  8
0
  6
CONTINUOUS
 62
     7
 10
244.7431661986
 20
-38.1279149027
 30
0.0
  0
VERTEX
  5
5A2
  8
0
  6
CONTINUOUS
 62
     7
 10
245.6009396218
 20
-38.1255445005
 30
0.0
  0
VERTEX
  5
5A3
  8
0
  6
CONTINUOUS
 62
     7
 10
245.7211681508
 20
-38.1250088038
 30
0.0
  0
SEQEND
  5
6B0
  8
0
  6
CONTINUOUS
 62
     7
  0
POLYLINE
  5
260
  8
0
  6
CONTINUOUS
 62
     7
 66
     1
 10
0.0
 20
0.0
 30
0.0
  0
VERTEX
  5
5A4
  8
0
  6
CONTINUOUS
 62
     7
 10
246.9490625762
 20
-38.1284930678
 30
0.0
  0
VERTEX
  5
5A5
  8
0
  6
CONTINUOUS
 62
     7
 10
246.9585873984
 20
-38.1401450308
 30
0.0
  0
VERTEX
  5
5A6
  8
0
  6
CONTINUOUS
 62
     7
 10
246.971068611
 20
-38.1159749748
 30
0.0
  0
VERTEX
  5
5A7
  8
0
  6
CONTINUOUS
 62
     7
 10
246.9725855492
 20
-38.0585000785
 30
0.0
  0
VERTEX
  5
5A8
  8
0
  6
CONTINUOUS
 62
     7
 10
246.9740428828
 20
-37.9876156272
 30
0.0
  0
SEQEND
  5
6AF
  8
0
  6
CONTINUOUS
 62
     7
  0
POLYLINE
  5
261
  8
0
  6
CONTINUOUS
 62
     7
 66
     1
 10
0.0
 20
0.0
 30
0.0
  0
VERTEX
  5
5A9
  8
0
  6
CONTINUOUS
 62
     7
 10
246.9758250617
 20
-37.9641917469
 30
0.0
  0
VERTEX
  5
5AA
  8
0
  6
CONTINUOUS
 62
     7
 10
246.9778516196
 20
-37.9375548036
 30
0.0
  0
VERTEX
  5
5AB
  8
0
  6
CONTINUOUS
 62
     7
 10
246.9865807198
 20
-37.9440163197
 30
0.0
  0
VERTEX
  5
5AC
  8
0
  6
CONTINUOUS
 62
     7
 10
247.0028736495
 20
-38.0435273917
 30
0.0
  0
VERTEX
  5
5AD
  8
0
  6
CONTINUOUS
 62
     7
 10
247.0286168956
 20
-38.2789437593
 30
0.0
  0
SEQEND
  5
6AE
  8
0
  6
CONTINUOUS
 62
     7
  0
POLYLINE
  5
262
  8
0
  6
CONTINUOUS
 62
     7
 66
     1
 10
0.0
 20
0.0
 30
0.0
  0
VERTEX
  5
5AE
  8
0
  6
CONTINUOUS
 62
     7
 10
247.0286168956
 20
-38.2789433868
 30
0.0
  0
VERTEX
  5
5AF
  8
0
  6
CONTINUOUS
 62
     7
 10
246.9572045707
 20
-38.4891995163
 30
0.0
  0
VERTEX
  5
5B0
  8
0
  6
CONTINUOUS
 62
     7
 10
246.7096187972
 20
-38.7868688376
 30
0.0
  0
VERTEX
  5
5B1
  8
0
  6
CONTINUOUS
 62
     7
 10
246.3133075141
 20
-39.1533949347
 30
0.0
  0
VERTEX
  5
5B2
  8
0
  6
CONTINUOUS
 62
     7
 10
245.7637973927
 20
-39.590485108
 30
0.0
  0
VERTEX
  5
5B3
  8
0
  6
CONTINUOUS
 62
     7
 10
245.0433083676
 20
-40.0795564921
 30
0.0
  0
VERTEX
  5
5B4
  8
0
  6
CONTINUOUS
 62
     7
 10
244.1603013181
 20
-40.5719418944
 30
0.0
  0
VERTEX
  5
5B5
  8
0
  6
CONTINUOUS
 62
     7
 10
243.2816662692
 20
-40.9579495834
 30
0.0
  0
VERTEX
  5
5B6
  8
0
  6
CONTINUOUS
 62
     7
 10
242.2828920983
 20
-41.2813656898
 30
0.0
  0
VERTEX
  5
5B7
  8
0
  6
CONTINUOUS
 62
     7
 10
241.6270681523
 20
-41.4308284344
 30
0.0
  0
VERTEX
  5
5B8
  8
0
  6
CONTINUOUS
 62
     7
 10
240.9399756097
 20
-41.5360682578
 30
0.0
  0
SEQEND
  5
6AD
  8
0
  6
CONTINUOUS
 62
     7
  0
POLYLINE
  5
263
  8
0
  6
CONTINUOUS
 62
     7
 66
     1
 10
0.0
 20
0.0
 30
0.0
  0
VERTEX
  5
5B9
  8
0
  6
CONTINUOUS
 62
     7
 10
240.9399756097
 20
-41.5360714243
 30
0.0
  0
VERTEX
  5
5BA
  8
0
  6
CONTINUOUS
 62
     7
 10
235.8753659629
 20
-42.085851443
 30
0.0
  0
VERTEX
  5
5BB
  8
0
  6
CONTINUOUS
 62
     7
 10
230.8972650074
 20
-42.5497054057
 30
0.0
  0
VERTEX
  5
5BC
  8
0
  6
CONTINUOUS
 62
     7
 10
225.9049438738
 20
-42.9289266402
 30
0.0
  0
VERTEX
  5
5BD
  8
0
  6
CONTINUOUS
 62
     7
 10
220.8584711753
 20
-43.2165495171
 30
0.0
  0
VERTEX
  5
5BE
  8
0
  6
CONTINUOUS
 62
     7
 10
215.8390940033
 20
-43.4014126651
 30
0.0
  0
VERTEX
  5
5BF
  8
0
  6
CONTINUOUS
 62
     7
 10
210.7967454806
 20
-43.4817265654
 30
0.0
  0
VERTEX
  5
5C0
  8
0
  6
CONTINUOUS
 62
     7
 10
205.7671607338
 20
-43.4550743368
 30
0.0
  0
VERTEX
  5
5C1
  8
0
  6
CONTINUOUS
 62
     7
 10
201.1451058887
 20
-43.3370383824
 30
0.0
  0
VERTEX
  5
5C2
  8
0
  6
CONTINUOUS
 62
     7
 10
196.543536415
 20
-43.1323335906
 30
0.0
  0
VERTEX
  5
5C3
  8
0
  6
CONTINUOUS
 62
     7
 10
191.9439666771
 20
-42.8443177538
 30
0.0
  0
VERTEX
  5
5C4
  8
0
  6
CONTINUOUS
 62
     7
 10
187.3336099886
 20
-42.4769694851
 30
0.0
  0
VERTEX
  5
5C5
  8
0
  6
CONTINUOUS
 62
     7
 10
182.7875801228
 20
-42.0440502399
 30
0.0
  0
VERTEX
  5
5C6
  8
0
  6
CONTINUOUS
 62
     7
 10
178.1336494588
 20
-41.5360714243
 30
0.0
  0
SEQEND
  5
6AC
  8
0
  6
CONTINUOUS
 62
     7
  0
POLYLINE
  5
264
  8
0
  6
CONTINUOUS
 62
     7
 66
     1
 10
0.0
 20
0.0
 30
0.0
  0
VERTEX
  5
5C7
  8
0
  6
CONTINUOUS
 62
     7
 10
178.1336494588
 20
-41.5360714243
 30
0.0
  0
VERTEX
  5
5C8
  8
0
  6
CONTINUOUS
 62
     7
 10
177.7020492457
 20
-41.4759525032
 30
0.0
  0
VERTEX
  5
5C9
  8
0
  6
CONTINUOUS
 62
     7
 10
177.2685595654
 20
-41.3949846224
 30
0.0
  0
VERTEX
  5
5CA
  8
0
  6
CONTINUOUS
 62
     7
 10
176.8357106351
 20
-41.2931752326
 30
0.0
  0
VERTEX
  5
5CB
  8
0
  6
CONTINUOUS
 62
     7
 10
176.4438577794
 20
-41.1823416994
 30
0.0
  0
VERTEX
  5
5CC
  8
0
  6
CONTINUOUS
 62
     7
 10
176.0483928822
 20
-41.0522709535
 30
0.0
  0
VERTEX
  5
5CD
  8
0
  6
CONTINUOUS
 62
     7
 10
175.6520279549
 20
-40.9030365692
 30
0.0
  0
VERTEX
  5
5CE
  8
0
  6
CONTINUOUS
 62
     7
 10
175.3446557425
 20
-40.7737865047
 30
0.0
  0
VERTEX
  5
5CF
  8
0
  6
CONTINUOUS
 62
     7
 10
175.0409283541
 20
-40.6341970833
 30
0.0
  0
VERTEX
  5
5D0
  8
0
  6
CONTINUOUS
 62
     7
 10
174.753347864
 20
-40.4907994838
 30
0.0
  0
VERTEX
  5
5D1
  8
0
  6
CONTINUOUS
 62
     7
 10
174.4804271363
 20
-40.3443015115
 30
0.0
  0
VERTEX
  5
5D2
  8
0
  6
CONTINUOUS
 62
     7
 10
174.2142923974
 20
-40.1913509639
 30
0.0
  0
VERTEX
  5
5D3
  8
0
  6
CONTINUOUS
 62
     7
 10
173.9881285332
 20
-40.05315834
 30
0.0
  0
VERTEX
  5
5D4
  8
0
  6
CONTINUOUS
 62
     7
 10
173.725069394
 20
-39.8826942714
 30
0.0
  0
VERTEX
  5
5D5
  8
0
  6
CONTINUOUS
 62
     7
 10
173.4293349885
 20
-39.6776941539
 30
0.0
  0
VERTEX
  5
5D6
  8
0
  6
CONTINUOUS
 62
     7
 10
173.217988839
 20
-39.5217605801
 30
0.0
  0
VERTEX
  5
5D7
  8
0
  6
CONTINUOUS
 62
     7
 10
173.0077155732
 20
-39.3581640841
 30
0.0
  0
VERTEX
  5
5D8
  8
0
  6
CONTINUOUS
 62
     7
 10
172.7964975737
 20
-39.1844686986
 30
0.0
  0
VERTEX
  5
5D9
  8
0
  6
CONTINUOUS
 62
     7
 10
172.6204045914
 20
-39.0308451773
 30
0.0
  0
VERTEX
  5
5DA
  8
0
  6
CONTINUOUS
 62
     7
 10
172.4759199523
 20
-38.8971009226
 30
0.0
  0
VERTEX
  5
5DB
  8
0
  6
CONTINUOUS
 62
     7
 10
172.1463032864
 20
-38.5338769229
 30
0.0
  0
VERTEX
  5
5DC
  8
0
  6
CONTINUOUS
 62
     7
 10
172.0450081729
 20
-38.2789437593
 30
0.0
  0
SEQEND
  5
6AB
  8
0
  6
CONTINUOUS
 62
     7
  0
LINE
  5
265
  8
0
  6
CONTINUOUS
 62
     7
 10
52.636811962
 20
-40.4182388382
 30
0.0
 11
52.636811962
 21
-41.5362532185
 31
0.0
  0
LINE
  5
266
  8
0
  6
CONTINUOUS
 62
     7
 10
51.8368103408
 20
-41.5362532185
 30
0.0
 11
51.8368103408
 21
-39.8425583662
 31
0.0
  0
LINE
  5
267
  8
0
  6
CONTINUOUS
 62
     7
 10
51.9213535689
 20
-39.3087928118
 30
0.0
 11
51.8368103408
 21
-39.8425583662
 31
0.0
  0
LINE
  5
268
  8
0
  6
CONTINUOUS
 62
     7
 10
51.8368103408
 20
-43.461096513
 30
0.0
 11
51.8368103408
 21
-41.5362532185
 31
0.0
  0
LINE
  5
269
  8
0
  6
CONTINUOUS
 62
     7
 10
52.636811962
 20
-43.461096513
 30
0.0
 11
52.636811962
 21
-41.5362532185
 31
0.0
  0
LINE
  5
26A
  8
0
  6
CONTINUOUS
 62
     7
 10
51.8368103408
 20
-49.4736340763
 30
0.0
 11
51.8368103408
 21
-43.461096513
 31
0.0
  0
LINE
  5
26B
  8
0
  6
CONTINUOUS
 62
     7
 10
52.636811962
 20
-49.4736340763
 30
0.0
 11
52.636811962
 21
-43.461096513
 31
0.0
  0
LINE
  5
26C
  8
0
  6
CONTINUOUS
 62
     7
 10
68.236813774
 20
-39.4039013357
 30
0.0
 11
68.236813774
 21
-37.3425585152
 31
0.0
  0
LINE
  5
26D
  8
0
  6
CONTINUOUS
 62
     7
 10
68.236813774
 20
-49.5425582798
 30
0.0
 11
68.236813774
 21
-44.1112057706
 31
0.0
  0
LINE
  5
26E
  8
0
  6
CONTINUOUS
 62
     7
 10
51.8368103408
 20
-39.8425583662
 30
0.0
 11
51.8368103408
 21
-37.3425585152
 31
0.0
  0
LINE
  5
26F
  8
0
  6
CONTINUOUS
 62
     7
 10
51.8368103408
 20
-49.5425582798
 30
0.0
 11
51.8368103408
 21
-49.4736340763
 31
0.0
  0
LINE
  5
270
  8
0
  6
CONTINUOUS
 62
     7
 10
172.6368137502
 20
-40.4182388382
 30
0.0
 11
172.6368137502
 21
-41.5362532185
 31
0.0
  0
LINE
  5
271
  8
0
  6
CONTINUOUS
 62
     7
 10
171.8368121289
 20
-41.5362532185
 30
0.0
 11
171.8368121289
 21
-39.8425583662
 31
0.0
  0
LINE
  5
272
  8
0
  6
CONTINUOUS
 62
     7
 10
171.9213523768
 20
-39.3087928118
 30
0.0
 11
171.8368121289
 21
-39.8425583662
 31
0.0
  0
LINE
  5
273
  8
0
  6
CONTINUOUS
 62
     7
 10
171.8368121289
 20
-43.461096513
 30
0.0
 11
171.8368121289
 21
-41.5362532185
 31
0.0
  0
LINE
  5
274
  8
0
  6
CONTINUOUS
 62
     7
 10
172.6368137502
 20
-43.461096513
 30
0.0
 11
172.6368137502
 21
-41.5362532185
 31
0.0
  0
LINE
  5
275
  8
0
  6
CONTINUOUS
 62
     7
 10
171.8368121289
 20
-49.4736340763
 30
0.0
 11
171.8368121289
 21
-43.461096513
 31
0.0
  0
LINE
  5
276
  8
0
  6
CONTINUOUS
 62
     7
 10
172.6368137502
 20
-49.4736340763
 30
0.0
 11
172.6368137502
 21
-43.461096513
 31
0.0
  0
LINE
  5
277
  8
0
  6
CONTINUOUS
 62
     7
 10
188.2368125819
 20
-39.4039013357
 30
0.0
 11
188.2368125819
 21
-37.3425585152
 31
0.0
  0
LINE
  5
278
  8
0
  6
CONTINUOUS
 62
     7
 10
188.2368125819
 20
-49.5425582798
 30
0.0
 11
188.2368125819
 21
-44.1112057706
 31
0.0
  0
LINE
  5
279
  8
0
  6
CONTINUOUS
 62
     7
 10
171.8368121289
 20
-39.8425583662
 30
0.0
 11
171.8368121289
 21
-37.3425585152
 31
0.0
  0
LINE
  5
27A
  8
0
  6
CONTINUOUS
 62
     7
 10
171.8368121289
 20
-49.5425582798
 30
0.0
 11
171.8368121289
 21
-49.4736340763
 31
0.0
  0
POLYLINE
  5
27B
  8
0
  6
CONTINUOUS
 62
     7
 66
     1
 10
0.0
 20
0.0
 30
0.0
  0
VERTEX
  5
5DD
  8
0
  6
CONTINUOUS
 62
     7
 10
291.836813917
 20
-48.3669874193
 30
0.0
  0
VERTEX
  5
5DE
  8
0
  6
CONTINUOUS
 62
     7
 10
291.8499090575
 20
-48.3054668577
 30
0.0
  0
VERTEX
  5
5DF
  8
0
  6
CONTINUOUS
 62
     7
 10
291.862837305
 20
-48.242558253
 30
0.0
  0
SEQEND
  5
6AA
  8
0
  6
CONTINUOUS
 62
     7
  0
LINE
  5
27C
  8
0
  6
CONTINUOUS
 62
     7
 10
291.836813917
 20
-48.3669874193
 30
0.0
 11
291.836813917
 21
-37.3425585152
 31
0.0
  0
LINE
  5
27D
  8
0
  6
CONTINUOUS
 62
     7
 10
308.2368113898
 20
-49.5425582798
 30
0.0
 11
308.2368113898
 21
-37.3425585152
 31
0.0
  0
LINE
  5
27E
  8
0
  6
CONTINUOUS
 62
     7
 10
291.9619598292
 20
-91.442559001
 30
0.0
 11
291.9797279738
 21
-91.442559001
 31
0.0
  0
LINE
  5
27F
  8
0
  6
CONTINUOUS
 62
     7
 10
291.9619598292
 20
-48.242558253
 30
0.0
 11
291.9619598292
 21
-91.442559001
 31
0.0
  0
LINE
  5
280
  8
0
  6
CONTINUOUS
 62
     7
 10
291.9619598292
 20
-48.242558253
 30
0.0
 11
292.7619614505
 21
-48.242558253
 31
0.0
  0
LINE
  5
281
  8
0
  6
CONTINUOUS
 62
     7
 10
295.5176391505
 20
-48.6172688128
 30
0.0
 11
295.5176391505
 21
-54.7149830432
 31
0.0
  0
ARC
  5
282
  8
0
  6
CONTINUOUS
 62
     7
 10
296.715483411
 20
-54.7200580572
 30
0.0
 40
1.197855011364875
 50
179.7572512941
 51
249.5365545004
  0
ARC
  5
283
  8
0
  6
CONTINUOUS
 62
     7
 10
308.8588733949
 20
95.2328997993
 30
0.0
 40
144.4675034078752
 50
263.6006838942
 51
264.7013199386
  0
LINE
  5
284
  8
0
  6
CONTINUOUS
 62
     7
 10
291.9619598292
 20
-91.442559001
 30
0.0
 11
291.836813917
 21
-91.442559001
 31
0.0
  0
LINE
  5
285
  8
0
  6
CONTINUOUS
 62
     7
 10
291.862837305
 20
-48.242558253
 30
0.0
 11
291.9619598292
 21
-48.242558253
 31
0.0
  0
LINE
  5
286
  8
0
  6
CONTINUOUS
 62
     7
 10
291.836813917
 20
-91.442559001
 30
0.0
 11
291.836813917
 21
-48.3669874193
 31
0.0
  0
LINE
  5
287
  8
0
  6
CONTINUOUS
 62
     7
 10
127.147773733
 20
-39.2803874733
 30
0.0
 11
127.2368111514
 21
-39.8425583662
 31
0.0
  0
LINE
  5
288
  8
0
  6
CONTINUOUS
 62
     7
 10
127.2368111514
 20
-39.8425583662
 30
0.0
 11
127.2368111514
 21
-41.5362532185
 31
0.0
  0
LINE
  5
289
  8
0
  6
CONTINUOUS
 62
     7
 10
126.4368154906
 20
-41.5362532185
 30
0.0
 11
126.4368154906
 21
-40.4268396021
 31
0.0
  0
LINE
  5
28A
  8
0
  6
CONTINUOUS
 62
     7
 10
127.2368111514
 20
-41.5362532185
 30
0.0
 11
127.2368111514
 21
-43.461096513
 31
0.0
  0
LINE
  5
28B
  8
0
  6
CONTINUOUS
 62
     7
 10
126.4368154906
 20
-41.5362532185
 30
0.0
 11
126.4368154906
 21
-43.461096513
 31
0.0
  0
LINE
  5
28C
  8
0
  6
CONTINUOUS
 62
     7
 10
127.2368111514
 20
-43.461096513
 30
0.0
 11
127.2368111514
 21
-49.4736340763
 31
0.0
  0
LINE
  5
28D
  8
0
  6
CONTINUOUS
 62
     7
 10
126.4368154906
 20
-43.461096513
 30
0.0
 11
126.4368154906
 21
-49.4736340763
 31
0.0
  0
LINE
  5
28E
  8
0
  6
CONTINUOUS
 62
     7
 10
110.8368136786
 20
-37.3425585152
 30
0.0
 11
110.8368136786
 21
-39.4079361977
 31
0.0
  0
LINE
  5
28F
  8
0
  6
CONTINUOUS
 62
     7
 10
110.8368136786
 20
-44.0989760151
 30
0.0
 11
110.8368136786
 21
-49.5425582798
 31
0.0
  0
LINE
  5
290
  8
0
  6
CONTINUOUS
 62
     7
 10
127.2368111514
 20
-49.4736340763
 30
0.0
 11
127.2368111514
 21
-49.5425582798
 31
0.0
  0
LINE
  5
291
  8
0
  6
CONTINUOUS
 62
     7
 10
127.2368111514
 20
-37.3425585152
 30
0.0
 11
127.2368111514
 21
-39.8425583662
 31
0.0
  0
LINE
  5
292
  8
0
  6
CONTINUOUS
 62
     7
 10
247.1477725409
 20
-39.2803874733
 30
0.0
 11
247.2368129395
 21
-39.8425583662
 31
0.0
  0
LINE
  5
293
  8
0
  6
CONTINUOUS
 62
     7
 10
247.2368129395
 20
-39.8425583662
 30
0.0
 11
247.2368129395
 21
-41.5362532185
 31
0.0
  0
LINE
  5
294
  8
0
  6
CONTINUOUS
 62
     7
 10
246.4368113183
 20
-41.5362532185
 30
0.0
 11
246.4368113183
 21
-40.4268396021
 31
0.0
  0
LINE
  5
295
  8
0
  6
CONTINUOUS
 62
     7
 10
247.2368129395
 20
-41.5362532185
 30
0.0
 11
247.2368129395
 21
-43.461096513
 31
0.0
  0
LINE
  5
296
  8
0
  6
CONTINUOUS
 62
     7
 10
246.4368113183
 20
-41.5362532185
 30
0.0
 11
246.4368113183
 21
-43.461096513
 31
0.0
  0
LINE
  5
297
  8
0
  6
CONTINUOUS
 62
     7
 10
247.2368129395
 20
-43.461096513
 30
0.0
 11
247.2368129395
 21
-49.4736340763
 31
0.0
  0
LINE
  5
298
  8
0
  6
CONTINUOUS
 62
     7
 10
246.4368113183
 20
-43.461096513
 30
0.0
 11
246.4368113183
 21
-49.4736340763
 31
0.0
  0
LINE
  5
299
  8
0
  6
CONTINUOUS
 62
     7
 10
230.8368124865
 20
-37.3425585152
 30
0.0
 11
230.8368124865
 21
-39.4079361977
 31
0.0
  0
LINE
  5
29A
  8
0
  6
CONTINUOUS
 62
     7
 10
230.8368124865
 20
-44.0989760151
 30
0.0
 11
230.8368124865
 21
-49.5425582798
 31
0.0
  0
LINE
  5
29B
  8
0
  6
CONTINUOUS
 62
     7
 10
247.2368129395
 20
-49.4736340763
 30
0.0
 11
247.2368129395
 21
-49.5425582798
 31
0.0
  0
LINE
  5
29C
  8
0
  6
CONTINUOUS
 62
     7
 10
247.2368129395
 20
-37.3425585152
 30
0.0
 11
247.2368129395
 21
-39.8425583662
 31
0.0
  0
LINE
  5
29D
  8
0
  6
CONTINUOUS
 62
     7
 10
350.8368112944
 20
-37.3425585152
 30
0.0
 11
350.8368112944
 21
-49.5425582798
 31
0.0
  0
POLYLINE
  5
29E
  8
0
  6
CONTINUOUS
 62
     7
 66
     1
 10
0.0
 20
0.0
 30
0.0
  0
VERTEX
  5
5E0
  8
0
  6
CONTINUOUS
 62
     7
 10
367.2107913398
 20
-48.242558253
 30
0.0
  0
VERTEX
  5
5E1
  8
0
  6
CONTINUOUS
 62
     7
 10
367.2237136267
 20
-48.3054668577
 30
0.0
  0
VERTEX
  5
5E2
  8
0
  6
CONTINUOUS
 62
     7
 10
367.2368147277
 20
-48.3669874193
 30
0.0
  0
SEQEND
  5
6A9
  8
0
  6
CONTINUOUS
 62
     7
  0
LINE
  5
29F
  8
0
  6
CONTINUOUS
 62
     7
 10
367.2368147277
 20
-37.3425585152
 30
0.0
 11
367.2368147277
 21
-48.3669874193
 31
0.0
  0
LINE
  5
2A0
  8
0
  6
CONTINUOUS
 62
     7
 10
367.0938947104
 20
-91.442559001
 30
0.0
 11
367.1116688155
 21
-91.442559001
 31
0.0
  0
ARC
  5
2A1
  8
0
  6
CONTINUOUS
 62
     7
 10
362.3583427381
 20
-54.7201610399
 30
0.0
 40
1.197657949532007
 50
290.0298692717
 51
0.247715368
  0
LINE
  5
2A2
  8
0
  6
CONTINUOUS
 62
     7
 10
363.5559894942
 20
-54.7149830432
 30
0.0
 11
363.5559894942
 21
-48.6172688128
 31
0.0
  0
ARC
  5
2A3
  8
0
  6
CONTINUOUS
 62
     7
 10
350.3530044688
 20
93.8830053981
 30
0.0
 40
143.1106109404653
 50
275.2934758275
 51
276.4045454211
  0
LINE
  5
2A4
  8
0
  6
CONTINUOUS
 62
     7
 10
366.3116671943
 20
-48.242558253
 30
0.0
 11
367.1116688155
 21
-48.242558253
 31
0.0
  0
LINE
  5
2A5
  8
0
  6
CONTINUOUS
 62
     7
 10
367.1116688155
 20
-91.442559001
 30
0.0
 11
367.1116688155
 21
-48.242558253
 31
0.0
  0
LINE
  5
2A6
  8
0
  6
CONTINUOUS
 62
     7
 10
367.1116688155
 20
-91.442559001
 30
0.0
 11
367.2368147277
 21
-91.442559001
 31
0.0
  0
LINE
  5
2A7
  8
0
  6
CONTINUOUS
 62
     7
 10
367.1116688155
 20
-48.242558253
 30
0.0
 11
367.2107913398
 21
-48.242558253
 31
0.0
  0
LINE
  5
2A8
  8
0
  6
CONTINUOUS
 62
     7
 10
367.2368147277
 20
-48.3669874193
 30
0.0
 11
367.2368147277
 21
-91.442559001
 31
0.0
  0
LINE
  5
2A9
  8
0
  6
CONTINUOUS
 62
     7
 10
247.5368120574
 20
-37.8287513675
 30
0.0
 11
247.5368120574
 21
-49.8425581427
 31
0.0
  0
LINE
  5
2AA
  8
0
  6
CONTINUOUS
 62
     7
 10
250.9368129872
 20
-37.8287513675
 30
0.0
 11
250.9368129872
 21
-49.8425581427
 31
0.0
  0
LINE
  5
2AB
  8
0
  6
CONTINUOUS
 62
     7
 10
230.1368125581
 20
-37.4425583453
 30
0.0
 11
230.1368125581
 21
-39.4539170833
 31
0.0
  0
LINE
  5
2AC
  8
0
  6
CONTINUOUS
 62
     7
 10
230.1368125581
 20
-44.1586947934
 30
0.0
 11
230.1368125581
 21
-49.4425584497
 31
0.0
  0
LINE
  5
2AD
  8
0
  6
CONTINUOUS
 62
     7
 10
247.5368120574
 20
-34.8425582917
 30
0.0
 11
247.5368120574
 21
-37.8287513675
 31
0.0
  0
LINE
  5
2AE
  8
0
  6
CONTINUOUS
 62
     7
 10
250.9368129872
 20
-34.8425582917
 30
0.0
 11
250.9368129872
 21
-37.8287513675
 31
0.0
  0
LINE
  5
2AF
  8
0
  6
CONTINUOUS
 62
     7
 10
370.9368088149
 20
-37.8287513675
 30
0.0
 11
370.9368088149
 21
-49.8425581427
 31
0.0
  0
LINE
  5
2B0
  8
0
  6
CONTINUOUS
 62
     7
 10
367.5368168258
 20
-37.8287513675
 30
0.0
 11
367.5368168258
 21
-49.8425581427
 31
0.0
  0
LINE
  5
2B1
  8
0
  6
CONTINUOUS
 62
     7
 10
350.1368143462
 20
-37.4425583453
 30
0.0
 11
350.1368143462
 21
-49.4425584497
 31
0.0
  0
LINE
  5
2B2
  8
0
  6
CONTINUOUS
 62
     7
 10
370.9368088149
 20
-34.8425582917
 30
0.0
 11
370.9368088149
 21
-37.8287513675
 31
0.0
  0
LINE
  5
2B3
  8
0
  6
CONTINUOUS
 62
     7
 10
367.5368168258
 20
-34.8425582917
 30
0.0
 11
367.5368168258
 21
-37.8287513675
 31
0.0
  0
LINE
  5
2B4
  8
0
  6
CONTINUOUS
 62
     7
 10
130.9368111991
 20
-37.8287513675
 30
0.0
 11
130.9368111991
 21
-49.8425581427
 31
0.0
  0
LINE
  5
2B5
  8
0
  6
CONTINUOUS
 62
     7
 10
127.5368132495
 20
-37.8287513675
 30
0.0
 11
127.5368132495
 21
-49.8425581427
 31
0.0
  0
LINE
  5
2B6
  8
0
  6
CONTINUOUS
 62
     7
 10
110.1368107699
 20
-37.4425583453
 30
0.0
 11
110.1368107699
 21
-39.4539170833
 31
0.0
  0
LINE
  5
2B7
  8
0
  6
CONTINUOUS
 62
     7
 10
110.1368107699
 20
-44.1586947934
 30
0.0
 11
110.1368107699
 21
-49.4425584497
 31
0.0
  0
LINE
  5
2B8
  8
0
  6
CONTINUOUS
 62
     7
 10
130.9368111991
 20
-34.8425582917
 30
0.0
 11
130.9368111991
 21
-37.8287513675
 31
0.0
  0
LINE
  5
2B9
  8
0
  6
CONTINUOUS
 62
     7
 10
127.5368132495
 20
-34.8425582917
 30
0.0
 11
127.5368132495
 21
-37.8287513675
 31
0.0
  0
LINE
  5
2BA
  8
0
  6
CONTINUOUS
 62
     7
 10
288.1368138694
 20
-37.8287513675
 30
0.0
 11
288.1368138694
 21
-49.8425581427
 31
0.0
  0
LINE
  5
2BB
  8
0
  6
CONTINUOUS
 62
     7
 10
291.536811819
 20
-37.8287513675
 30
0.0
 11
291.536811819
 21
-49.8425581427
 31
0.0
  0
LINE
  5
2BC
  8
0
  6
CONTINUOUS
 62
     7
 10
308.9368142985
 20
-37.4425583453
 30
0.0
 11
308.9368142985
 21
-49.4425584497
 31
0.0
  0
LINE
  5
2BD
  8
0
  6
CONTINUOUS
 62
     7
 10
288.1368138694
 20
-34.8425582917
 30
0.0
 11
288.1368138694
 21
-37.8287513675
 31
0.0
  0
LINE
  5
2BE
  8
0
  6
CONTINUOUS
 62
     7
 10
291.536811819
 20
-34.8425582917
 30
0.0
 11
291.536811819
 21
-37.8287513675
 31
0.0
  0
LINE
  5
2BF
  8
0
  6
CONTINUOUS
 62
     7
 10
51.5368082427
 20
-37.8287513675
 30
0.0
 11
51.5368082427
 21
-49.8425581427
 31
0.0
  0
LINE
  5
2C0
  8
0
  6
CONTINUOUS
 62
     7
 10
48.1368162535
 20
-37.8287513675
 30
0.0
 11
48.1368162535
 21
-49.8425581427
 31
0.0
  0
LINE
  5
2C1
  8
0
  6
CONTINUOUS
 62
     7
 10
68.9368107222
 20
-37.4425583453
 30
0.0
 11
68.9368107222
 21
-39.454054919
 31
0.0
  0
LINE
  5
2C2
  8
0
  6
CONTINUOUS
 62
     7
 10
68.9368107222
 20
-44.1753143379
 30
0.0
 11
68.9368107222
 21
-49.4425584497
 31
0.0
  0
LINE
  5
2C3
  8
0
  6
CONTINUOUS
 62
     7
 10
51.5368082427
 20
-34.8425582917
 30
0.0
 11
51.5368082427
 21
-37.8287513675
 31
0.0
  0
LINE
  5
2C4
  8
0
  6
CONTINUOUS
 62
     7
 10
48.1368162535
 20
-34.8425582917
 30
0.0
 11
48.1368162535
 21
-37.8287513675
 31
0.0
  0
LINE
  5
2C5
  8
0
  6
CONTINUOUS
 62
     7
 10
171.5368130111
 20
-37.8287513675
 30
0.0
 11
171.5368130111
 21
-49.8425581427
 31
0.0
  0
LINE
  5
2C6
  8
0
  6
CONTINUOUS
 62
     7
 10
168.1368120812
 20
-37.8287513675
 30
0.0
 11
168.1368120812
 21
-49.8425581427
 31
0.0
  0
LINE
  5
2C7
  8
0
  6
CONTINUOUS
 62
     7
 10
188.9368125104
 20
-37.4425583453
 30
0.0
 11
188.9368125104
 21
-39.454054919
 31
0.0
  0
LINE
  5
2C8
  8
0
  6
CONTINUOUS
 62
     7
 10
188.9368125104
 20
-44.1753143379
 30
0.0
 11
188.9368125104
 21
-49.4425584497
 31
0.0
  0
LINE
  5
2C9
  8
0
  6
CONTINUOUS
 62
     7
 10
171.5368130111
 20
-34.8425582917
 30
0.0
 11
171.5368130111
 21
-37.8287513675
 31
0.0
  0
LINE
  5
2CA
  8
0
  6
CONTINUOUS
 62
     7
 10
168.1368120812
 20
-34.8425582917
 30
0.0
 11
168.1368120812
 21
-37.8287513675
 31
0.0
  0
POLYLINE
  5
2CB
  8
0
  6
CONTINUOUS
 62
     7
 66
     1
 10
0.0
 20
0.0
 30
0.0
  0
VERTEX
  5
5E3
  8
0
  6
CONTINUOUS
 62
     7
 10
472.6099849653
 20
193.4811615063
 30
0.0
  0
VERTEX
  5
5E4
  8
0
  6
CONTINUOUS
 62
     7
 10
472.5708169371
 20
193.9409040523
 30
0.0
  0
VERTEX
  5
5E5
  8
0
  6
CONTINUOUS
 62
     7
 10
472.3677645877
 20
196.6291450573
 30
0.0
  0
VERTEX
  5
5E6
  8
0
  6
CONTINUOUS
 62
     7
 10
472.2095018693
 20
199.0721963955
 30
0.0
  0
VERTEX
  5
5E7
  8
0
  6
CONTINUOUS
 62
     7
 10
472.0836271972
 20
201.2657903744
 30
0.0
  0
VERTEX
  5
5E8
  8
0
  6
CONTINUOUS
 62
     7
 10
471.9952276416
 20
202.9368304325
 30
0.0
  0
VERTEX
  5
5E9
  8
0
  6
CONTINUOUS
 62
     7
 10
471.9202275828
 20
204.4248842312
 30
0.0
  0
VERTEX
  5
5EA
  8
0
  6
CONTINUOUS
 62
     7
 10
471.8552865528
 20
205.7475709034
 30
0.0
  0
VERTEX
  5
5EB
  8
0
  6
CONTINUOUS
 62
     7
 10
471.7923837223
 20
207.0272111011
 30
0.0
  0
VERTEX
  5
5EC
  8
0
  6
CONTINUOUS
 62
     7
 10
471.7284266346
 20
208.2892798496
 30
0.0
  0
VERTEX
  5
5ED
  8
0
  6
CONTINUOUS
 62
     7
 10
471.6616379537
 20
209.5356368137
 30
0.0
  0
VERTEX
  5
5EE
  8
0
  6
CONTINUOUS
 62
     7
 10
471.5903953158
 20
210.7680224491
 30
0.0
  0
VERTEX
  5
5EF
  8
0
  6
CONTINUOUS
 62
     7
 10
471.5132251822
 20
211.9880103184
 30
0.0
  0
VERTEX
  5
5F0
  8
0
  6
CONTINUOUS
 62
     7
 10
471.3988321342
 20
213.5977887226
 30
0.0
  0
VERTEX
  5
5F1
  8
0
  6
CONTINUOUS
 62
     7
 10
471.2677108564
 20
215.2072452618
 30
0.0
  0
VERTEX
  5
5F2
  8
0
  6
CONTINUOUS
 62
     7
 10
471.1634986543
 20
216.835989864
 30
0.0
  0
VERTEX
  5
5F3
  8
0
  6
CONTINUOUS
 62
     7
 10
471.1590998315
 20
217.3215650631
 30
0.0
  0
VERTEX
  5
5F4
  8
0
  6
CONTINUOUS
 62
     7
 10
471.1756526001
 20
217.812707336
 30
0.0
  0
VERTEX
  5
5F5
  8
0
  6
CONTINUOUS
 62
     7
 10
471.2317895584
 20
218.4043430401
 30
0.0
  0
VERTEX
  5
5F6
  8
0
  6
CONTINUOUS
 62
     7
 10
471.3663502105
 20
219.1114687038
 30
0.0
  0
VERTEX
  5
5F7
  8
0
  6
CONTINUOUS
 62
     7
 10
471.6245511987
 20
219.9205302311
 30
0.0
  0
VERTEX
  5
5F8
  8
0
  6
CONTINUOUS
 62
     7
 10
472.0402938754
 20
220.8214544369
 30
0.0
  0
VERTEX
  5
5F9
  8
0
  6
CONTINUOUS
 62
     7
 10
472.6380541895
 20
221.8070172382
 30
0.0
  0
VERTEX
  5
5FA
  8
0
  6
CONTINUOUS
 62
     7
 10
473.4276872452
 20
222.8742860866
 30
0.0
  0
VERTEX
  5
5FB
  8
0
  6
CONTINUOUS
 62
     7
 10
474.3976124071
 20
224.0266942097
 30
0.0
  0
VERTEX
  5
5FC
  8
0
  6
CONTINUOUS
 62
     7
 10
475.0873165645
 20
224.802853973
 30
0.0
  0
SEQEND
  5
6A8
  8
0
  6
CONTINUOUS
 62
     7
  0
LINE
  5
2CC
  8
0
  6
CONTINUOUS
 62
     7
 10
475.0823339887
 20
224.8197220875
 30
0.0
 11
473.4869512354
 21
224.8197220875
 31
0.0
  0
POLYLINE
  5
2CD
  8
0
  6
CONTINUOUS
 62
     7
 66
     1
 10
0.0
 20
0.0
 30
0.0
  0
VERTEX
  5
5FD
  8
0
  6
CONTINUOUS
 62
     7
 10
521.1428618499
 20
146.6372274471
 30
0.0
  0
VERTEX
  5
5FE
  8
0
  6
CONTINUOUS
 62
     7
 10
521.6026103564
 20
146.6763996197
 30
0.0
  0
VERTEX
  5
5FF
  8
0
  6
CONTINUOUS
 62
     7
 10
524.2908483811
 20
146.8794488026
 30
0.0
  0
VERTEX
  5
600
  8
0
  6
CONTINUOUS
 62
     7
 10
526.7339056798
 20
147.0377110554
 30
0.0
  0
VERTEX
  5
601
  8
0
  6
CONTINUOUS
 62
     7
 10
528.9274936982
 20
147.1635901047
 30
0.0
  0
VERTEX
  5
602
  8
0
  6
CONTINUOUS
 62
     7
 10
530.5985337563
 20
147.2519897533
 30
0.0
  0
VERTEX
  5
603
  8
0
  6
CONTINUOUS
 62
     7
 10
532.086587555
 20
147.3269843174
 30
0.0
  0
VERTEX
  5
604
  8
0
  6
CONTINUOUS
 62
     7
 10
533.4092682667
 20
147.3919295383
 30
0.0
  0
VERTEX
  5
605
  8
0
  6
CONTINUOUS
 62
     7
 10
534.6889203854
 20
147.45483032
 30
0.0
  0
VERTEX
  5
606
  8
0
  6
CONTINUOUS
 62
     7
 10
535.9509831734
 20
147.5187861038
 30
0.0
  0
VERTEX
  5
607
  8
0
  6
CONTINUOUS
 62
     7
 10
537.197346098
 20
147.5855790687
 30
0.0
  0
VERTEX
  5
608
  8
0
  6
CONTINUOUS
 62
     7
 10
538.4297317334
 20
147.6568185402
 30
0.0
  0
VERTEX
  5
609
  8
0
  6
CONTINUOUS
 62
     7
 10
539.6497136422
 20
147.7339886738
 30
0.0
  0
VERTEX
  5
60A
  8
0
  6
CONTINUOUS
 62
     7
 10
541.2594980069
 20
147.848381908
 30
0.0
  0
VERTEX
  5
60B
  8
0
  6
CONTINUOUS
 62
     7
 10
542.868954546
 20
147.9795061661
 30
0.0
  0
VERTEX
  5
60C
  8
0
  6
CONTINUOUS
 62
     7
 10
544.4976931878
 20
148.0837129665
 30
0.0
  0
VERTEX
  5
60D
  8
0
  6
CONTINUOUS
 62
     7
 10
544.9832743474
 20
148.0881117893
 30
0.0
  0
VERTEX
  5
60E
  8
0
  6
CONTINUOUS
 62
     7
 10
545.4744106599
 20
148.0715595795
 30
0.0
  0
VERTEX
  5
60F
  8
0
  6
CONTINUOUS
 62
     7
 10
546.0660463639
 20
148.015423925
 30
0.0
  0
VERTEX
  5
610
  8
0
  6
CONTINUOUS
 62
     7
 10
546.7731779881
 20
147.8808664394
 30
0.0
  0
VERTEX
  5
611
  8
0
  6
CONTINUOUS
 62
     7
 10
547.5822335549
 20
147.6226650787
 30
0.0
  0
VERTEX
  5
612
  8
0
  6
CONTINUOUS
 62
     7
 10
548.4831637211
 20
147.2069226814
 30
0.0
  0
VERTEX
  5
613
  8
0
  6
CONTINUOUS
 62
     7
 10
549.468720562
 20
146.6091596199
 30
0.0
  0
VERTEX
  5
614
  8
0
  6
CONTINUOUS
 62
     7
 10
550.5359894105
 20
145.8195292068
 30
0.0
  0
VERTEX
  5
615
  8
0
  6
CONTINUOUS
 62
     7
 10
551.6883975335
 20
144.8496007038
 30
0.0
  0
VERTEX
  5
616
  8
0
  6
CONTINUOUS
 62
     7
 10
552.4645572968
 20
144.1598974777
 30
0.0
  0
SEQEND
  5
6A7
  8
0
  6
CONTINUOUS
 62
     7
  0
LINE
  5
2CE
  8
0
  6
CONTINUOUS
 62
     7
 10
552.4814254113
 20
144.164880426
 30
0.0
 11
552.4814254113
 21
145.7602643085
 31
0.0
  0
LINE
  5
2CF
  8
0
  6
CONTINUOUS
 62
     7
 10
477.3544593223
 20
124.3927561356
 30
0.0
 11
469.3544595011
 21
124.3927561356
 31
0.0
  0
LINE
  5
2D0
  8
0
  6
CONTINUOUS
 62
     7
 10
469.3544595011
 20
134.3927525593
 30
0.0
 11
477.3544593223
 21
134.3927525593
 31
0.0
  0
LINE
  5
2D1
  8
0
  6
CONTINUOUS
 62
     7
 10
468.3544593372
 20
125.3927551819
 30
0.0
 11
468.3544593372
 21
133.3927535129
 31
0.0
  0
ARC
  5
2D2
  8
0
  6
CONTINUOUS
 62
     7
 10
469.3544594117
 20
125.3927551342
 30
0.0
 40
1.0
 50
180.0
 51
270.0
  0
ARC
  5
2D3
  8
0
  6
CONTINUOUS
 62
     7
 10
469.3544594117
 20
133.3927551342
 30
0.0
 40
1.0
 50
90.0
 51
180.0
  0
ARC
  5
2D4
  8
0
  6
CONTINUOUS
 62
     7
 10
477.3544594117
 20
125.3927551342
 30
0.0
 40
1.0
 50
270.0
 51
0.0
  0
LINE
  5
2D5
  8
0
  6
CONTINUOUS
 62
     7
 10
478.3544594862
 20
133.3927535129
 30
0.0
 11
478.3544594862
 21
125.3927551819
 31
0.0
  0
ARC
  5
2D6
  8
0
  6
CONTINUOUS
 62
     7
 10
477.3544594117
 20
133.3927551342
 30
0.0
 40
1.0
 50
0.0
 51
90.0
  0
LINE
  5
2D7
  8
0
  6
CONTINUOUS
 62
     7
 10
461.3544596799
 20
59.1927551342
 30
0.0
 11
461.3544596799
 21
60.3927551446
 31
0.0
  0
LINE
  5
2D8
  8
0
  6
CONTINUOUS
 62
     7
 10
465.3544595905
 20
59.1927551342
 30
0.0
 11
461.3544596799
 21
59.1927551342
 31
0.0
  0
LINE
  5
2D9
  8
0
  6
CONTINUOUS
 62
     7
 10
461.3544596799
 20
60.3927551446
 30
0.0
 11
465.3544595905
 21
60.3927551446
 31
0.0
  0
LINE
  5
2DA
  8
0
  6
CONTINUOUS
 62
     7
 10
467.3544595458
 20
59.1927551342
 30
0.0
 11
494.7228810259
 21
59.1927551342
 31
0.0
  0
LINE
  5
2DB
  8
0
  6
CONTINUOUS
 62
     7
 10
494.7228810259
 20
60.3927551446
 30
0.0
 11
467.3544595458
 21
60.3927551446
 31
0.0
  0
LINE
  5
2DC
  8
0
  6
CONTINUOUS
 62
     7
 10
465.3544595905
 20
59.1927551342
 30
0.0
 11
467.3544595458
 21
59.1927551342
 31
0.0
  0
LINE
  5
2DD
  8
0
  6
CONTINUOUS
 62
     7
 10
465.3544595905
 20
60.3927551446
 30
0.0
 11
467.3544595458
 21
60.3927551446
 31
0.0
  0
LINE
  5
2DE
  8
0
  6
CONTINUOUS
 62
     7
 10
497.3544588752
 20
60.3927551446
 30
0.0
 11
497.3544588752
 21
59.1927551342
 31
0.0
  0
LINE
  5
2DF
  8
0
  6
CONTINUOUS
 62
     7
 10
497.3544588752
 20
59.1927551342
 30
0.0
 11
494.7228810259
 21
59.1927551342
 31
0.0
  0
LINE
  5
2E0
  8
0
  6
CONTINUOUS
 62
     7
 10
494.7228810259
 20
60.3927551446
 30
0.0
 11
497.3544588752
 21
60.3927551446
 31
0.0
  0
LINE
  5
2E1
  8
0
  6
CONTINUOUS
 62
     7
 10
468.3544593372
 20
60.3927551446
 30
0.0
 11
468.3544593372
 21
124.19275275
 31
0.0
  0
LINE
  5
2E2
  8
0
  6
CONTINUOUS
 62
     7
 10
478.3544594862
 20
125.3927551819
 30
0.0
 11
478.3544594862
 21
60.3927551446
 31
0.0
  0
POLYLINE
  5
2E3
  8
0
  6
CONTINUOUS
 62
     7
 66
     1
 10
0.0
 20
0.0
 30
0.0
  0
VERTEX
  5
617
  8
0
  6
CONTINUOUS
 62
     7
 10
469.5154076882
 20
216.4817236973
 30
0.0
  0
VERTEX
  5
618
  8
0
  6
CONTINUOUS
 62
     7
 10
469.3484714695
 20
215.2774118496
 30
0.0
  0
VERTEX
  5
619
  8
0
  6
CONTINUOUS
 62
     7
 10
469.2366911538
 20
214.0638374401
 30
0.0
  0
VERTEX
  5
61A
  8
0
  6
CONTINUOUS
 62
     7
 10
469.1391231932
 20
211.758699329
 30
0.0
  0
VERTEX
  5
61B
  8
0
  6
CONTINUOUS
 62
     7
 10
469.1513130881
 20
209.4507717205
 30
0.0
  0
VERTEX
  5
61C
  8
0
  6
CONTINUOUS
 62
     7
 10
469.3007110127
 20
204.8205160213
 30
0.0
  0
SEQEND
  5
6A6
  8
0
  6
CONTINUOUS
 62
     7
  0
POLYLINE
  5
2E4
  8
0
  6
CONTINUOUS
 62
     7
 66
     1
 10
0.0
 20
0.0
 30
0.0
  0
VERTEX
  5
61D
  8
0
  6
CONTINUOUS
 62
     7
 10
469.3007065423
 20
204.8205160213
 30
0.0
  0
VERTEX
  5
61E
  8
0
  6
CONTINUOUS
 62
     7
 10
469.3215785988
 20
203.4575962139
 30
0.0
  0
VERTEX
  5
61F
  8
0
  6
CONTINUOUS
 62
     7
 10
469.3276083537
 20
201.985015781
 30
0.0
  0
VERTEX
  5
620
  8
0
  6
CONTINUOUS
 62
     7
 10
469.3228761174
 20
200.5861662937
 30
0.0
  0
VERTEX
  5
621
  8
0
  6
CONTINUOUS
 62
     7
 10
469.3126457252
 20
199.1067074848
 30
0.0
  0
VERTEX
  5
622
  8
0
  6
CONTINUOUS
 62
     7
 10
469.3025278367
 20
197.6782225681
 30
0.0
  0
VERTEX
  5
623
  8
0
  6
CONTINUOUS
 62
     7
 10
469.2971056767
 20
196.1659931255
 30
0.0
  0
VERTEX
  5
624
  8
0
  6
CONTINUOUS
 62
     7
 10
469.3007445403
 20
194.8211454464
 30
0.0
  0
SEQEND
  5
6A5
  8
0
  6
CONTINUOUS
 62
     7
  0
POLYLINE
  5
2E5
  8
0
  6
CONTINUOUS
 62
     7
 66
     1
 10
0.0
 20
0.0
 30
0.0
  0
VERTEX
  5
625
  8
0
  6
CONTINUOUS
 62
     7
 10
469.3007430502
 20
194.8211454464
 30
0.0
  0
VERTEX
  5
626
  8
0
  6
CONTINUOUS
 62
     7
 10
469.2900555648
 20
192.390551479
 30
0.0
  0
VERTEX
  5
627
  8
0
  6
CONTINUOUS
 62
     7
 10
469.3007106401
 20
184.8197244717
 30
0.0
  0
SEQEND
  5
6A4
  8
0
  6
CONTINUOUS
 62
     7
  0
POLYLINE
  5
2E6
  8
0
  6
CONTINUOUS
 62
     7
 66
     1
 10
0.0
 20
0.0
 30
0.0
  0
VERTEX
  5
628
  8
0
  6
CONTINUOUS
 62
     7
 10
469.3007274039
 20
184.8197244717
 30
0.0
  0
VERTEX
  5
629
  8
0
  6
CONTINUOUS
 62
     7
 10
469.2296041616
 20
183.2975768162
 30
0.0
  0
VERTEX
  5
62A
  8
0
  6
CONTINUOUS
 62
     7
 10
469.1441161998
 20
181.5586113048
 30
0.0
  0
VERTEX
  5
62B
  8
0
  6
CONTINUOUS
 62
     7
 10
469.0908646651
 20
179.9009942127
 30
0.0
  0
VERTEX
  5
62C
  8
0
  6
CONTINUOUS
 62
     7
 10
469.0951900997
 20
178.308751495
 30
0.0
  0
VERTEX
  5
62D
  8
0
  6
CONTINUOUS
 62
     7
 10
469.1840937801
 20
176.7049216343
 30
0.0
  0
SEQEND
  5
6A3
  8
0
  6
CONTINUOUS
 62
     7
  0
POLYLINE
  5
2E7
  8
0
  6
CONTINUOUS
 62
     7
 66
     1
 10
0.0
 20
0.0
 30
0.0
  0
VERTEX
  5
62E
  8
0
  6
CONTINUOUS
 62
     7
 10
469.1840937801
 20
176.7049216343
 30
0.0
  0
VERTEX
  5
62F
  8
0
  6
CONTINUOUS
 62
     7
 10
469.2504613169
 20
175.8164309574
 30
0.0
  0
VERTEX
  5
630
  8
0
  6
CONTINUOUS
 62
     7
 10
469.3008097329
 20
174.8538278652
 30
0.0
  0
SEQEND
  5
6A2
  8
0
  6
CONTINUOUS
 62
     7
  0
POLYLINE
  5
2E8
  8
0
  6
CONTINUOUS
 62
     7
 66
     1
 10
0.0
 20
0.0
 30
0.0
  0
VERTEX
  5
631
  8
0
  6
CONTINUOUS
 62
     7
 10
468.1397775628
 20
161.6332315517
 30
0.0
  0
VERTEX
  5
632
  8
0
  6
CONTINUOUS
 62
     7
 10
468.1377752193
 20
164.3597983433
 30
0.0
  0
VERTEX
  5
633
  8
0
  6
CONTINUOUS
 62
     7
 10
468.1352036514
 20
167.0669220997
 30
0.0
  0
VERTEX
  5
634
  8
0
  6
CONTINUOUS
 62
     7
 10
468.1336304613
 20
169.7858237339
 30
0.0
  0
VERTEX
  5
635
  8
0
  6
CONTINUOUS
 62
     7
 10
468.1322934546
 20
172.5110911442
 30
0.0
  0
VERTEX
  5
636
  8
0
  6
CONTINUOUS
 62
     7
 10
468.131856478
 20
175.2372645451
 30
0.0
  0
VERTEX
  5
637
  8
0
  6
CONTINUOUS
 62
     7
 10
468.1330288269
 20
179.7861837459
 30
0.0
  0
VERTEX
  5
638
  8
0
  6
CONTINUOUS
 62
     7
 10
468.128756664
 20
184.3368672443
 30
0.0
  0
VERTEX
  5
639
  8
0
  6
CONTINUOUS
 62
     7
 10
468.1143144586
 20
188.8831042362
 30
0.0
  0
VERTEX
  5
63A
  8
0
  6
CONTINUOUS
 62
     7
 10
468.111715696
 20
193.434061916
 30
0.0
  0
VERTEX
  5
63B
  8
0
  6
CONTINUOUS
 62
     7
 10
468.1439200856
 20
197.9943775249
 30
0.0
  0
VERTEX
  5
63C
  8
0
  6
CONTINUOUS
 62
     7
 10
468.1516716697
 20
202.5272749973
 30
0.0
  0
VERTEX
  5
63D
  8
0
  6
CONTINUOUS
 62
     7
 10
468.1128973581
 20
204.7740124775
 30
0.0
  0
VERTEX
  5
63E
  8
0
  6
CONTINUOUS
 62
     7
 10
468.0378528752
 20
207.0221327854
 30
0.0
  0
VERTEX
  5
63F
  8
0
  6
CONTINUOUS
 62
     7
 10
467.9651337184
 20
209.2975281788
 30
0.0
  0
VERTEX
  5
640
  8
0
  6
CONTINUOUS
 62
     7
 10
467.9464957185
 20
211.6108082844
 30
0.0
  0
VERTEX
  5
641
  8
0
  6
CONTINUOUS
 62
     7
 10
468.035014204
 20
213.9718793941
 30
0.0
  0
VERTEX
  5
642
  8
0
  6
CONTINUOUS
 62
     7
 10
468.2908444174
 20
216.3940691067
 30
0.0
  0
SEQEND
  5
6A1
  8
0
  6
CONTINUOUS
 62
     7
  0
LINE
  5
2E9
  8
0
  6
CONTINUOUS
 62
     7
 10
469.3007326194
 20
184.8197244717
 30
0.0
 11
469.3079794266
 21
176.7049216343
 31
0.0
  0
POLYLINE
  5
2EA
  8
0
  6
CONTINUOUS
 62
     7
 66
     1
 10
0.0
 20
0.0
 30
0.0
  0
VERTEX
  5
643
  8
0
  6
CONTINUOUS
 62
     7
 10
469.3007113852
 20
204.8205160213
 30
0.0
  0
VERTEX
  5
644
  8
0
  6
CONTINUOUS
 62
     7
 10
469.3431100317
 20
199.8219632221
 30
0.0
  0
VERTEX
  5
645
  8
0
  6
CONTINUOUS
 62
     7
 10
469.3007430502
 20
194.8211454464
 30
0.0
  0
SEQEND
  5
6A0
  8
0
  6
CONTINUOUS
 62
     7
  0
ARC
  5
2EB
  8
0
  6
CONTINUOUS
 62
     7
 10
481.8755676027
 20
214.4424831964
 30
0.0
 40
12.52725506230368
 50
134.821294778
 51
170.6314556836
  0
POLYLINE
  5
2EC
  8
0
  6
CONTINUOUS
 62
     7
 66
     1
 10
0.0
 20
0.0
 30
0.0
  0
VERTEX
  5
646
  8
0
  6
CONTINUOUS
 62
     7
 10
475.0823339887
 20
224.8072766376
 30
0.0
  0
VERTEX
  5
647
  8
0
  6
CONTINUOUS
 62
     7
 10
475.0848986648
 20
224.8091959072
 30
0.0
  0
VERTEX
  5
648
  8
0
  6
CONTINUOUS
 62
     7
 10
474.9459395625
 20
224.7135542942
 30
0.0
  0
VERTEX
  5
649
  8
0
  6
CONTINUOUS
 62
     7
 10
474.6656169623
 20
224.5183729244
 30
0.0
  0
VERTEX
  5
64A
  8
0
  6
CONTINUOUS
 62
     7
 10
474.245033364
 20
224.2213510586
 30
0.0
  0
VERTEX
  5
64B
  8
0
  6
CONTINUOUS
 62
     7
 10
473.6994365204
 20
223.8243245197
 30
0.0
  0
VERTEX
  5
64C
  8
0
  6
CONTINUOUS
 62
     7
 10
473.0451320272
 20
223.3281754566
 30
0.0
  0
SEQEND
  5
69F
  8
0
  6
CONTINUOUS
 62
     7
  0
POLYLINE
  5
2ED
  8
0
  6
CONTINUOUS
 62
     7
 66
     1
 10
0.0
 20
0.0
 30
0.0
  0
VERTEX
  5
64D
  8
0
  6
CONTINUOUS
 62
     7
 10
468.1398148157
 20
161.6332315517
 30
0.0
  0
VERTEX
  5
64E
  8
0
  6
CONTINUOUS
 62
     7
 10
468.152093
 20
160.8862899853
 30
0.0
  0
VERTEX
  5
64F
  8
0
  6
CONTINUOUS
 62
     7
 10
468.1892017343
 20
160.1699852062
 30
0.0
  0
VERTEX
  5
650
  8
0
  6
CONTINUOUS
 62
     7
 10
468.2539882578
 20
159.4738148762
 30
0.0
  0
VERTEX
  5
651
  8
0
  6
CONTINUOUS
 62
     7
 10
468.3371974595
 20
158.8739418102
 30
0.0
  0
VERTEX
  5
652
  8
0
  6
CONTINUOUS
 62
     7
 10
468.4446862407
 20
158.3087824894
 30
0.0
  0
VERTEX
  5
653
  8
0
  6
CONTINUOUS
 62
     7
 10
468.5722081431
 20
157.7993952347
 30
0.0
  0
VERTEX
  5
654
  8
0
  6
CONTINUOUS
 62
     7
 10
468.7154477902
 20
157.3569797588
 30
0.0
  0
VERTEX
  5
655
  8
0
  6
CONTINUOUS
 62
     7
 10
468.8696781613
 20
156.9903813911
 30
0.0
  0
SEQEND
  5
69E
  8
0
  6
CONTINUOUS
 62
     7
  0
LINE
  5
2EE
  8
0
  6
CONTINUOUS
 62
     7
 10
468.8696781613
 20
156.9903813911
 30
0.0
 11
469.0643085607
 21
156.5951012684
 31
0.0
  0
ARC
  5
2EF
  8
0
  6
CONTINUOUS
 62
     7
 10
494.3246087724
 20
195.3908776039
 30
0.0
 40
36.05337758421082
 50
125.3076694524
 51
129.179178497
  0
ARC
  5
2F0
  8
0
  6
CONTINUOUS
 62
     7
 10
480.7784779607
 20
214.7731127422
 30
0.0
 40
12.59239777575894
 50
137.1403469291
 51
172.6040790193
  0
LINE
  5
2F1
  8
0
  6
CONTINUOUS
 62
     7
 10
469.1840937801
 20
176.7049216343
 30
0.0
 11
469.2230841585
 21
176.7049216343
 31
0.0
  0
POLYLINE
  5
2F2
  8
0
  6
CONTINUOUS
 62
     7
 66
     1
 10
0.0
 20
0.0
 30
0.0
  0
VERTEX
  5
656
  8
0
  6
CONTINUOUS
 62
     7
 10
544.1434210606
 20
149.7318052364
 30
0.0
  0
VERTEX
  5
657
  8
0
  6
CONTINUOUS
 62
     7
 10
542.9391151734
 20
149.8987459255
 30
0.0
  0
VERTEX
  5
658
  8
0
  6
CONTINUOUS
 62
     7
 10
541.7255348035
 20
150.0105225159
 30
0.0
  0
VERTEX
  5
659
  8
0
  6
CONTINUOUS
 62
     7
 10
539.4204086133
 20
150.1080893589
 30
0.0
  0
VERTEX
  5
65A
  8
0
  6
CONTINUOUS
 62
     7
 10
537.1124750443
 20
150.095900209
 30
0.0
  0
VERTEX
  5
65B
  8
0
  6
CONTINUOUS
 62
     7
 10
532.4822193452
 20
149.9465011669
 30
0.0
  0
SEQEND
  5
69D
  8
0
  6
CONTINUOUS
 62
     7
  0
POLYLINE
  5
2F3
  8
0
  6
CONTINUOUS
 62
     7
 66
     1
 10
0.0
 20
0.0
 30
0.0
  0
VERTEX
  5
65C
  8
0
  6
CONTINUOUS
 62
     7
 10
532.4822193452
 20
149.9465071274
 30
0.0
  0
VERTEX
  5
65D
  8
0
  6
CONTINUOUS
 62
     7
 10
531.1193054982
 20
149.9256335808
 30
0.0
  0
VERTEX
  5
65E
  8
0
  6
CONTINUOUS
 62
     7
 10
529.6467191048
 20
149.9196075512
 30
0.0
  0
VERTEX
  5
65F
  8
0
  6
CONTINUOUS
 62
     7
 10
528.2478636571
 20
149.92434016
 30
0.0
  0
VERTEX
  5
660
  8
0
  6
CONTINUOUS
 62
     7
 10
526.7684108086
 20
149.934568317
 30
0.0
  0
VERTEX
  5
661
  8
0
  6
CONTINUOUS
 62
     7
 10
525.3399258919
 20
149.9446891857
 30
0.0
  0
VERTEX
  5
662
  8
0
  6
CONTINUOUS
 62
     7
 10
523.8277024098
 20
149.9501072479
 30
0.0
  0
VERTEX
  5
663
  8
0
  6
CONTINUOUS
 62
     7
 10
522.4828517504
 20
149.9464713646
 30
0.0
  0
SEQEND
  5
69C
  8
0
  6
CONTINUOUS
 62
     7
  0
POLYLINE
  5
2F4
  8
0
  6
CONTINUOUS
 62
     7
 66
     1
 10
0.0
 20
0.0
 30
0.0
  0
VERTEX
  5
664
  8
0
  6
CONTINUOUS
 62
     7
 10
522.4828517504
 20
149.9464713646
 30
0.0
  0
VERTEX
  5
665
  8
0
  6
CONTINUOUS
 62
     7
 10
520.0522548028
 20
149.9571584774
 30
0.0
  0
VERTEX
  5
666
  8
0
  6
CONTINUOUS
 62
     7
 10
512.4814337559
 20
149.9465011669
 30
0.0
  0
SEQEND
  5
69B
  8
0
  6
CONTINUOUS
 62
     7
  0
POLYLINE
  5
2F5
  8
0
  6
CONTINUOUS
 62
     7
 66
     1
 10
0.0
 20
0.0
 30
0.0
  0
VERTEX
  5
667
  8
0
  6
CONTINUOUS
 62
     7
 10
512.4814337559
 20
149.946489246
 30
0.0
  0
VERTEX
  5
668
  8
0
  6
CONTINUOUS
 62
     7
 10
510.9592741795
 20
150.0176095081
 30
0.0
  0
VERTEX
  5
669
  8
0
  6
CONTINUOUS
 62
     7
 10
509.2203146287
 20
150.1031004501
 30
0.0
  0
VERTEX
  5
66A
  8
0
  6
CONTINUOUS
 62
     7
 10
507.5627005168
 20
150.1563512398
 30
0.0
  0
VERTEX
  5
66B
  8
0
  6
CONTINUOUS
 62
     7
 10
505.9704548188
 20
150.1520239426
 30
0.0
  0
VERTEX
  5
66C
  8
0
  6
CONTINUOUS
 62
     7
 10
504.3666279383
 20
150.0631236149
 30
0.0
  0
SEQEND
  5
69A
  8
0
  6
CONTINUOUS
 62
     7
  0
POLYLINE
  5
2F6
  8
0
  6
CONTINUOUS
 62
     7
 66
     1
 10
0.0
 20
0.0
 30
0.0
  0
VERTEX
  5
66D
  8
0
  6
CONTINUOUS
 62
     7
 10
489.2949348756
 20
151.1074387146
 30
0.0
  0
VERTEX
  5
66E
  8
0
  6
CONTINUOUS
 62
     7
 10
492.0215076276
 20
151.1094414307
 30
0.0
  0
VERTEX
  5
66F
  8
0
  6
CONTINUOUS
 62
     7
 10
494.728631384
 20
151.1120103908
 30
0.0
  0
VERTEX
  5
670
  8
0
  6
CONTINUOUS
 62
     7
 10
497.4475285478
 20
151.1135839535
 30
0.0
  0
VERTEX
  5
671
  8
0
  6
CONTINUOUS
 62
     7
 10
500.1727974482
 20
151.1149190975
 30
0.0
  0
VERTEX
  5
672
  8
0
  6
CONTINUOUS
 62
     7
 10
502.8989648886
 20
151.1153601719
 30
0.0
  0
VERTEX
  5
673
  8
0
  6
CONTINUOUS
 62
     7
 10
507.44789005
 20
151.1141859604
 30
0.0
  0
VERTEX
  5
674
  8
0
  6
CONTINUOUS
 62
     7
 10
511.9985675879
 20
151.1184596134
 30
0.0
  0
VERTEX
  5
675
  8
0
  6
CONTINUOUS
 62
     7
 10
516.5448105403
 20
151.1329018188
 30
0.0
  0
VERTEX
  5
676
  8
0
  6
CONTINUOUS
 62
     7
 10
521.0957712002
 20
151.1355005814
 30
0.0
  0
VERTEX
  5
677
  8
0
  6
CONTINUOUS
 62
     7
 10
525.6560868092
 20
151.1032961918
 30
0.0
  0
VERTEX
  5
678
  8
0
  6
CONTINUOUS
 62
     7
 10
530.1889842816
 20
151.0955416275
 30
0.0
  0
VERTEX
  5
679
  8
0
  6
CONTINUOUS
 62
     7
 10
532.4357158013
 20
151.1343144489
 30
0.0
  0
VERTEX
  5
67A
  8
0
  6
CONTINUOUS
 62
     7
 10
534.6838361092
 20
151.2093626572
 30
0.0
  0
VERTEX
  5
67B
  8
0
  6
CONTINUOUS
 62
     7
 10
536.9592255421
 20
151.2820803238
 30
0.0
  0
VERTEX
  5
67C
  8
0
  6
CONTINUOUS
 62
     7
 10
539.2725116082
 20
151.3007186962
 30
0.0
  0
VERTEX
  5
67D
  8
0
  6
CONTINUOUS
 62
     7
 10
541.633582718
 20
151.2121998383
 30
0.0
  0
VERTEX
  5
67E
  8
0
  6
CONTINUOUS
 62
     7
 10
544.0557724305
 20
150.9563707424
 30
0.0
  0
SEQEND
  5
699
  8
0
  6
CONTINUOUS
 62
     7
  0
POLYLINE
  5
2F7
  8
0
  6
CONTINUOUS
 62
     7
 66
     1
 10
0.0
 20
0.0
 30
0.0
  0
VERTEX
  5
67F
  8
0
  6
CONTINUOUS
 62
     7
 10
504.3666279383
 20
150.0631236149
 30
0.0
  0
VERTEX
  5
680
  8
0
  6
CONTINUOUS
 62
     7
 10
503.478131301
 20
149.9967538429
 30
0.0
  0
VERTEX
  5
681
  8
0
  6
CONTINUOUS
 62
     7
 10
502.5155282088
 20
149.9464057995
 30
0.0
  0
SEQEND
  5
698
  8
0
  6
CONTINUOUS
 62
     7
  0
LINE
  5
2F8
  8
0
  6
CONTINUOUS
 62
     7
 10
512.4814337559
 20
149.9464832855
 30
0.0
 11
504.3666279383
 21
149.9392353607
 31
0.0
  0
POLYLINE
  5
2F9
  8
0
  6
CONTINUOUS
 62
     7
 66
     1
 10
0.0
 20
0.0
 30
0.0
  0
VERTEX
  5
682
  8
0
  6
CONTINUOUS
 62
     7
 10
532.4822193452
 20
149.9465011669
 30
0.0
  0
VERTEX
  5
683
  8
0
  6
CONTINUOUS
 62
     7
 10
527.4836665459
 20
149.9041043831
 30
0.0
  0
VERTEX
  5
684
  8
0
  6
CONTINUOUS
 62
     7
 10
522.4828517504
 20
149.9464713646
 30
0.0
  0
SEQEND
  5
697
  8
0
  6
CONTINUOUS
 62
     7
  0
ARC
  5
2FA
  8
0
  6
CONTINUOUS
 62
     7
 10
542.1042416816
 20
137.3717685115
 30
0.0
 40
12.52712687431167
 50
44.8211014007
 51
80.6316422878
  0
POLYLINE
  5
2FB
  8
0
  6
CONTINUOUS
 62
     7
 66
     1
 10
0.0
 20
0.0
 30
0.0
  0
VERTEX
  5
685
  8
0
  6
CONTINUOUS
 62
     7
 10
552.4689859219
 20
144.164880426
 30
0.0
  0
VERTEX
  5
686
  8
0
  6
CONTINUOUS
 62
     7
 10
552.470899231
 20
144.1623174263
 30
0.0
  0
VERTEX
  5
687
  8
0
  6
CONTINUOUS
 62
     7
 10
552.375257618
 20
144.3012737347
 30
0.0
  0
VERTEX
  5
688
  8
0
  6
CONTINUOUS
 62
     7
 10
552.1800762482
 20
144.5816003395
 30
0.0
  0
VERTEX
  5
689
  8
0
  6
CONTINUOUS
 62
     7
 10
551.8830484219
 20
145.002182634
 30
0.0
  0
VERTEX
  5
68A
  8
0
  6
CONTINUOUS
 62
     7
 10
551.4860218831
 20
145.5477797104
 30
0.0
  0
VERTEX
  5
68B
  8
0
  6
CONTINUOUS
 62
     7
 10
550.98987282
 20
146.2020837379
 30
0.0
  0
SEQEND
  5
696
  8
0
  6
CONTINUOUS
 62
     7
  0
POLYLINE
  5
2FC
  8
0
  6
CONTINUOUS
 62
     7
 66
     1
 10
0.0
 20
0.0
 30
0.0
  0
VERTEX
  5
68C
  8
0
  6
CONTINUOUS
 62
     7
 10
489.2949318953
 20
151.1073969913
 30
0.0
  0
VERTEX
  5
68D
  8
0
  6
CONTINUOUS
 62
     7
 10
488.5479992696
 20
151.095124395
 30
0.0
  0
VERTEX
  5
68E
  8
0
  6
CONTINUOUS
 62
     7
 10
487.8316840597
 20
151.0580145431
 30
0.0
  0
VERTEX
  5
68F
  8
0
  6
CONTINUOUS
 62
     7
 10
487.1355196901
 20
150.9932242943
 30
0.0
  0
VERTEX
  5
690
  8
0
  6
CONTINUOUS
 62
     7
 10
486.5356436439
 20
150.9100162102
 30
0.0
  0
VERTEX
  5
691
  8
0
  6
CONTINUOUS
 62
     7
 10
485.9704843231
 20
150.8025311542
 30
0.0
  0
VERTEX
  5
692
  8
0
  6
CONTINUOUS
 62
     7
 10
485.4611000486
 20
150.6750070167
 30
0.0
  0
VERTEX
  5
693
  8
0
  6
CONTINUOUS
 62
     7
 10
485.0186830826
 20
150.5317651344
 30
0.0
  0
VERTEX
  5
694
  8
0
  6
CONTINUOUS
 62
     7
 10
484.6520876952
 20
150.3775381161
 30
0.0
  0
SEQEND
  5
695
  8
0
  6
CONTINUOUS
 62
     7
  0
LINE
  5
2FD
  8
0
  6
CONTINUOUS
 62
     7
 10
484.6520876952
 20
150.3775381161
 30
0.0
 11
484.2568031021
 21
150.182905109
 31
0.0
  0
ARC
  5
2FE
  8
0
  6
CONTINUOUS
 62
     7
 10
523.0561463777
 20
124.9254280616
 30
0.0
 40
36.04883730381371
 50
35.3072853006
 51
39.1792790855
  0
ARC
  5
2FF
  8
0
  6
CONTINUOUS
 62
     7
 10
542.4347661892
 20
138.4686097492
 30
0.0
 40
12.59253095524277
 50
47.14056264
 51
82.603928834
  0
LINE
  5
300
  8
0
  6
CONTINUOUS
 62
     7
 10
504.3666279383
 20
150.0631236149
 30
0.0
 11
504.3666279383
 21
150.0241302563
 31
0.0
  0
ARC
  5
301
  8
0
  6
CONTINUOUS
 62
     7
 10
471.5481542586
 20
191.7927551342
 30
0.0
 40
2.000000000000012
 50
15.7570898053
 51
90.0
  0
ARC
  5
302
  8
0
  6
CONTINUOUS
 62
     7
 10
319.4855349928
 20
148.8863474307
 30
0.0
 40
160.0000000000003
 50
359.6618680049
 51
15.7570898053
  0
LINE
  5
303
  8
0
  6
CONTINUOUS
 62
     7
 10
469.8544593968
 20
193.7927507473
 30
0.0
 11
469.8544593968
 21
151.0842584682
 31
0.0
  0
LINE
  5
304
  8
0
  6
CONTINUOUS
 62
     7
 10
471.5481542491
 20
193.7927507473
 30
0.0
 11
469.8544593968
 21
193.7927507473
 31
0.0
  0
LINE
  5
305
  8
0
  6
CONTINUOUS
 62
     7
 10
469.2212572761
 20
150.592752607
 30
0.0
 11
469.0643085607
 21
150.592752607
 31
0.0
  0
LINE
  5
306
  8
0
  6
CONTINUOUS
 62
     7
 10
469.0643085607
 20
150.592752607
 30
0.0
 11
469.0643085607
 21
176.8280290676
 31
0.0
  0
LINE
  5
307
  8
0
  6
CONTINUOUS
 62
     7
 10
469.0643085607
 20
182.2733306004
 30
0.0
 11
469.0643085607
 21
193.7927507473
 31
0.0
  0
LINE
  5
308
  8
0
  6
CONTINUOUS
 62
     7
 10
469.0643085607
 20
193.7927507473
 30
0.0
 11
469.8544593968
 21
193.7927507473
 31
0.0
  0
ARC
  5
309
  8
0
  6
CONTINUOUS
 62
     7
 10
519.4544594117
 20
147.6990602872
 30
0.0
 40
2.000000000000024
 50
285.7570898053
 51
0.0
  0
ARC
  5
30A
  8
0
  6
CONTINUOUS
 62
     7
 10
476.5480517082
 20
299.7616795531
 30
0.0
 40
160.0000000000003
 50
270.6306446184
 51
285.7570898053
  0
LINE
  5
30B
  8
0
  6
CONTINUOUS
 62
     7
 10
521.4544600316
 20
149.3927561356
 30
0.0
 11
479.4847334244
 21
149.3927561356
 31
0.0
  0
LINE
  5
30C
  8
0
  6
CONTINUOUS
 62
     7
 10
521.4544600316
 20
147.6990603519
 30
0.0
 11
521.4544600316
 21
149.3927561356
 31
0.0
  0
LINE
  5
30D
  8
0
  6
CONTINUOUS
 62
     7
 10
479.4802817025
 20
150.182905109
 30
0.0
 11
504.4897294112
 21
150.182905109
 31
0.0
  0
LINE
  5
30E
  8
0
  6
CONTINUOUS
 62
     7
 10
509.9350339242
 20
150.182905109
 30
0.0
 11
521.4544600316
 21
150.182905109
 31
0.0
  0
LINE
  5
30F
  8
0
  6
CONTINUOUS
 62
     7
 10
521.4544600316
 20
150.182905109
 30
0.0
 11
521.4544600316
 21
149.3927561356
 31
0.0
  0
LINE
  5
310
  8
0
  6
CONTINUOUS
 62
     7
 10
468.3544593372
 20
124.19275275
 30
0.0
 11
467.5544595786
 21
124.19275275
 31
0.0
  0
LINE
  5
311
  8
0
  6
CONTINUOUS
 62
     7
 10
467.5544595786
 20
124.19275275
 30
0.0
 11
467.5544595786
 21
126.1927568031
 31
0.0
  0
LINE
  5
312
  8
0
  6
CONTINUOUS
 62
     7
 10
468.3544593372
 20
125.3927551819
 30
0.0
 11
468.3544593372
 21
124.19275275
 31
0.0
  0
LINE
  5
313
  8
0
  6
CONTINUOUS
 62
     7
 10
478.554459519
 20
126.1927568031
 30
0.0
 11
478.554459519
 21
133.9927577091
 31
0.0
  0
ARC
  5
314
  8
0
  6
CONTINUOUS
 62
     7
 10
478.1544594117
 20
133.9927551342
 30
0.0
 40
0.3999999999999773
 50
0.0
 51
90.0
  0
ARC
  5
315
  8
0
  6
CONTINUOUS
 62
     7
 10
488.2544594117
 20
138.7273464411
 30
0.0
 40
10.0
 50
154.4805415091
 51
180.0
  0
LINE
  5
316
  8
0
  6
CONTINUOUS
 62
     7
 10
478.2544592835
 20
138.7273453785
 30
0.0
 11
478.2544592835
 21
135.1927541805
 31
0.0
  0
ARC
  5
317
  8
0
  6
CONTINUOUS
 62
     7
 10
478.3544594117
 20
134.1927551342
 30
0.0
 40
1.0
 50
0.0
 51
90.0
  0
LINE
  5
318
  8
0
  6
CONTINUOUS
 62
     7
 10
479.3544592776
 20
126.1927568031
 30
0.0
 11
479.3544592776
 21
134.1927551342
 31
0.0
  0
LINE
  5
319
  8
0
  6
CONTINUOUS
 62
     7
 10
467.5544595786
 20
131.1927579952
 30
0.0
 11
467.5544595786
 21
126.1927568031
 31
0.0
  0
LINE
  5
31A
  8
0
  6
CONTINUOUS
 62
     7
 10
467.5544595786
 20
131.1927579952
 30
0.0
 11
465.6065574356
 21
131.1927579952
 31
0.0
  0
LINE
  5
31B
  8
0
  6
CONTINUOUS
 62
     7
 10
468.3544593372
 20
133.9927577091
 30
0.0
 11
468.3544593372
 21
133.3927535129
 31
0.0
  0
ARC
  5
31C
  8
0
  6
CONTINUOUS
 62
     7
 10
468.7544594117
 20
133.9927551342
 30
0.0
 40
0.3999999999999773
 50
90.0
 51
180.0
  0
LINE
  5
31D
  8
0
  6
CONTINUOUS
 62
     7
 10
478.1544594534
 20
134.3927525593
 30
0.0
 11
477.3544593223
 21
134.3927525593
 31
0.0
  0
LINE
  5
31E
  8
0
  6
CONTINUOUS
 62
     7
 10
469.3544595011
 20
134.3927525593
 30
0.0
 11
468.7544594027
 21
134.3927525593
 31
0.0
  0
LINE
  5
31F
  8
0
  6
CONTINUOUS
 62
     7
 10
478.3544594862
 20
135.1927541805
 30
0.0
 11
478.2544592835
 21
135.1927541805
 31
0.0
  0
ARC
  5
320
  8
0
  6
CONTINUOUS
 62
     7
 10
473.4544594117
 20
145.7927551342
 30
0.0
 40
6.399999999999985
 50
334.4805415091
 51
151.3013359141
  0
ARC
  5
321
  8
0
  6
CONTINUOUS
 62
     7
 10
489.1635503208
 20
137.1927551342
 30
0.0
 40
24.30909090909085
 50
151.3013359141
 51
194.2894890274
  0
LINE
  5
322
  8
0
  6
CONTINUOUS
 62
     7
 10
479.3544592776
 20
124.19275275
 30
0.0
 11
478.554459519
 21
124.19275275
 31
0.0
  0
LINE
  5
323
  8
0
  6
CONTINUOUS
 62
     7
 10
478.554459519
 20
124.19275275
 30
0.0
 11
478.554459519
 21
126.1927568031
 31
0.0
  0
LINE
  5
324
  8
0
  6
CONTINUOUS
 62
     7
 10
479.3544592776
 20
126.1927568031
 30
0.0
 11
479.3544592776
 21
124.19275275
 31
0.0
  0
ENDSEC
  0
EOF
