  0
SECTION
  2
HEADER
  9
$ACADVER
  1
AC1009
  9
$DWGCODEPAGE
  3
ansi_1252
  9
$INSBASE
 10
0.0
 20
0.0
 30
0.0
  9
$EXTMIN
 10
0.0
 20
0.0
 30
0.0
  9
$EXTMAX
 10
420.0
 20
297.0
 30
0.0
  9
$LIMMIN
 10
0.0
 20
0.0
  9
$LIMMAX
 10
420.0
 20
297.0
  9
$ORTHOMODE
 70
     0
  9
$REGENMODE
 70
     1
  9
$FILLMODE
 70
     1
  9
$QTEXTMODE
 70
     0
  9
$MIRRTEXT
 70
     1
  9
$DRAGMODE
 70
     2
  9
$LTSCALE
 40
1.0
  9
$OSMODE
 70
    37
  9
$ATTMODE
 70
     1
  9
$TEXTSIZE
 40
3.5
  9
$TRACEWID
 40
1.0
  9
$TEXTSTYLE
  7
STANDARD
  9
$CLAYER
  8
0
  9
$CELTYPE
  6
BYLAYER
  9
$CECOLOR
 62
   256
  9
$DIMSCALE
 40
1.0
  9
$DIMASZ
 40
4.0
  9
$DIMEXO
 40
0.0
  9
$DIMDLI
 40
3.75
  9
$DIMRND
 40
0.0
  9
$DIMDLE
 40
0.0
  9
$DIMEXE
 40
2.0
  9
$DIMTP
 40
0.0
  9
$DIMTM
 40
0.0
  9
$DIMTXT
 40
3.5
  9
$DIMCEN
 40
2.5
  9
$DIMTSZ
 40
0.0
  9
$DIMTOL
 70
     0
  9
$DIMLIM
 70
     0
  9
$DIMTIH
 70
     1
  9
$DIMTOH
 70
     1
  9
$DIMSE1
 70
     0
  9
$DIMSE2
 70
     0
  9
$DIMTAD
 70
     1
  9
$DIMZIN
 70
     0
  9
$DIMBLK
  1

  9
$DIMASO
 70
     1
  9
$DIMSHO
 70
     1
  9
$DIMPOST
  1

  9
$DIMAPOST
  1

  9
$DIMALT
 70
     0
  9
$DIMALTD
 70
     3
  9
$DIMALTF
 40
0.0393700787
  9
$DIMLFAC
 40
5.0
  9
$DIMTOFL
 70
     1
  9
$DIMTVP
 40
0.0
  9
$DIMTIX
 70
     0
  9
$DIMSOXD
 70
     0
  9
$DIMSAH
 70
     0
  9
$DIMBLK1
  1

  9
$DIMBLK2
  1

  9
$DIMSTYLE
  2
ISO-25
  9
$DIMCLRD
 70
     0
  9
$DIMCLRE
 70
     0
  9
$DIMCLRT
 70
     0
  9
$DIMTFAC
 40
1.0
  9
$DIMGAP
 40
1.524
  9
$LUNITS
 70
     2
  9
$LUPREC
 70
     2
  9
$SKETCHINC
 40
1.0
  9
$FILLETRAD
 40
10.0
  9
$AUNITS
 70
     0
  9
$AUPREC
 70
     2
  9
$MENU
  1
.
  9
$ELEVATION
 40
0.0
  9
$PELEVATION
 40
0.0
  9
$THICKNESS
 40
0.0
  9
$LIMCHECK
 70
     0
  9
$CHAMFERA
 40
10.0
  9
$CHAMFERB
 40
10.0
  9
$SKPOLY
 70
     0
  9
$TDCREATE
 40
2457802.348018866
  9
$TDUPDATE
 40
2457802.348019155
  9
$TDINDWG
 40
0.0000000116
  9
$TDUSRTIMER
 40
0.0000000116
  9
$USRTIMER
 70
     1
  9
$ANGBASE
 50
0.0
  9
$ANGDIR
 70
     0
  9
$PDMODE
 70
     0
  9
$PDSIZE
 40
-1.0
  9
$PLINEWID
 40
0.0
  9
$COORDS
 70
     1
  9
$SPLFRAME
 70
     0
  9
$SPLINETYPE
 70
     6
  9
$SPLINESEGS
 70
     8
  9
$ATTDIA
 70
     0
  9
$ATTREQ
 70
     1
  9
$HANDLING
 70
     1
  9
$HANDSEED
  5
A7C
  9
$SURFTAB1
 70
     6
  9
$SURFTAB2
 70
     6
  9
$SURFTYPE
 70
     6
  9
$SURFU
 70
     6
  9
$SURFV
 70
     6
  9
$UCSNAME
  2

  9
$UCSORG
 10
0.0
 20
0.0
 30
0.0
  9
$UCSXDIR
 10
1.0
 20
0.0
 30
0.0
  9
$UCSYDIR
 10
0.0
 20
1.0
 30
0.0
  9
$PUCSNAME
  2

  9
$PUCSORG
 10
0.0
 20
0.0
 30
0.0
  9
$PUCSXDIR
 10
1.0
 20
0.0
 30
0.0
  9
$PUCSYDIR
 10
0.0
 20
1.0
 30
0.0
  9
$USERI1
 70
     0
  9
$USERI2
 70
     0
  9
$USERI3
 70
     0
  9
$USERI4
 70
     0
  9
$USERI5
 70
     0
  9
$USERR1
 40
0.0
  9
$USERR2
 40
0.0
  9
$USERR3
 40
0.0
  9
$USERR4
 40
0.0
  9
$USERR5
 40
0.0
  9
$WORLDVIEW
 70
     1
  9
$SHADEDGE
 70
     3
  9
$SHADEDIF
 70
    70
  9
$TILEMODE
 70
     1
  9
$MAXACTVP
 70
    64
  9
$PLIMCHECK
 70
     0
  9
$PEXTMIN
 10
1.0000000000E+20
 20
1.0000000000E+20
 30
1.0000000000E+20
  9
$PEXTMAX
 10
-1.0000000000E+20
 20
-1.0000000000E+20
 30
-1.0000000000E+20
  9
$PLIMMIN
 10
0.0
 20
0.0
  9
$PLIMMAX
 10
420.0
 20
297.0
  9
$UNITMODE
 70
     0
  9
$VISRETAIN
 70
     1
  9
$PLINEGEN
 70
     0
  9
$PSLTSCALE
 70
     1
  0
ENDSEC
  0
SECTION
  2
TABLES
  0
TABLE
  2
VPORT
 70
     1
  0
VPORT
  2
*ACTIVE
 70
     0
 10
0.0
 20
0.0
 11
1.0
 21
1.0
 12
210.0
 22
148.5
 13
0.0
 23
0.0
 14
10.0
 24
10.0
 15
10.0
 25
10.0
 16
0.0
 26
0.0
 36
1.0
 17
0.0
 27
0.0
 37
0.0
 40
297.0
 41
1.4141414141
 42
50.0
 43
0.0
 44
0.0
 50
0.0
 51
0.0
 71
     0
 72
  2000
 73
     1
 74
     3
 75
     0
 76
     0
 77
     0
 78
     0
  0
ENDTAB
  0
TABLE
  2
LTYPE
 70
     6
  0
LTYPE
  2
CONTINUOUS
 70
     0
  3
Solid line
 72
    65
 73
     0
 40
0.0
  0
LTYPE
  2
HIDDEN
 70
     0
  3
Hidden __ __ __ __ __ __ __ __ __ __ __ __ __ __
 72
    65
 73
     2
 40
1.905
 49
1.27
 49
-0.635
  0
LTYPE
  2
PHANTOM
 70
     0
  3
Phantom ______  __  __  ______  __  __  ______
 72
    65
 73
     6
 40
12.7
 49
6.35
 49
-1.27
 49
1.27
 49
-1.27
 49
1.27
 49
-1.27
  0
LTYPE
  2
CENTER
 70
     0
  3
Center ____ _ ____ _ ____ _ ____ _ ____ _ ____
 72
    65
 73
     4
 40
10.16
 49
6.35
 49
-1.27
 49
1.27
 49
-1.27
  0
LTYPE
  2
CENTERX2
 70
     0
  3
Center (2x) ________  __  ________  __  _____
 72
    65
 73
     4
 40
20.32
 49
12.7
 49
-2.54
 49
2.54
 49
-2.54
  0
LTYPE
  2
DOT2
 70
     0
  3
Dot (.5x) ........................................
 72
    65
 73
     2
 40
0.635
 49
0.0
 49
-0.635
  0
ENDTAB
  0
TABLE
  2
LAYER
 70
     2
  0
LAYER
  2
0
 70
     0
 62
     7
  6
CONTINUOUS
  0
LAYER
  2
FORMAT
 70
     0
 62
     7
  6
CONTINUOUS
  0
ENDTAB
  0
TABLE
  2
STYLE
 70
     1
  0
STYLE
  2
STANDARD
 70
     0
 40
0.0
 41
1.0
 50
0.0
 71
     0
 42
3.5
  3
txt
  4

  0
ENDTAB
  0
TABLE
  2
VIEW
 70
     0
  0
ENDTAB
  0
TABLE
  2
UCS
 70
     0
  0
ENDTAB
  0
TABLE
  2
APPID
 70
     1
  0
APPID
  2
ACAD
 70
     0
  0
ENDTAB
  0
TABLE
  2
DIMSTYLE
 70
     1
  0
DIMSTYLE
  2
ISO-25
 70
     0
  3

  4

  5

  6

  7

 40
1.0
 41
2.5
 42
0.625
 43
3.75
 44
1.25
 45
0.0
 46
0.0
 47
0.0
 48
0.0
140
2.5
141
2.5
142
0.0
143
0.0393700787
144
1.0
145
0.0
146
1.0
147
0.625
 71
     0
 72
     0
 73
     0
 74
     0
 75
     0
 76
     0
 77
     1
 78
     8
170
     0
171
     3
172
     1
173
     0
174
     0
175
     0
176
     0
177
     0
178
     0
  0
ENDTAB
  0
ENDSEC
  0
SECTION
  2
BLOCKS
  0
BLOCK
  8
0
  2
$MODEL_SPACE
 70
     0
 10
0.0
 20
0.0
 30
0.0
  3
$MODEL_SPACE
  1

  0
ENDBLK
  5
21
  8
0
  0
BLOCK
 67
     1
  8
0
  2
$PAPER_SPACE
 70
     0
 10
0.0
 20
0.0
 30
0.0
  3
$PAPER_SPACE
  1

  0
ENDBLK
  5
1D
 67
     1
  8
0
  0
ENDSEC
  0
SECTION
  2
ENTITIES
  0
POLYLINE
  5
45
  8
0
  6
CONTINUOUS
 62
     7
 66
     1
 10
0.0
 20
0.0
 30
0.0
  0
VERTEX
  5
458
  8
0
  6
CONTINUOUS
 62
     7
 10
358.1771365929
 20
229.8157511155
 30
0.0
  0
VERTEX
  5
459
  8
0
  6
CONTINUOUS
 62
     7
 10
358.1126205254
 20
229.8451838891
 30
0.0
  0
VERTEX
  5
45A
  8
0
  6
CONTINUOUS
 62
     7
 10
357.5823060799
 20
230.0865111748
 30
0.0
  0
SEQEND
  5
A7B
  8
0
  6
CONTINUOUS
 62
     7
  0
LINE
  5
46
  8
0
  6
CONTINUOUS
 62
     7
 10
294.9121050168
 20
230.0871429841
 30
0.0
 11
294.3151943017
 21
229.81516699
 31
0.0
  0
POLYLINE
  5
47
  8
0
  6
CONTINUOUS
 62
     7
 66
     1
 10
0.0
 20
0.0
 30
0.0
  0
VERTEX
  5
45B
  8
0
  6
CONTINUOUS
 62
     7
 10
238.1771348048
 20
229.8157511155
 30
0.0
  0
VERTEX
  5
45C
  8
0
  6
CONTINUOUS
 62
     7
 10
238.1126217175
 20
229.8451838891
 30
0.0
  0
VERTEX
  5
45D
  8
0
  6
CONTINUOUS
 62
     7
 10
237.582307272
 20
230.0865111748
 30
0.0
  0
SEQEND
  5
A7A
  8
0
  6
CONTINUOUS
 62
     7
  0
LINE
  5
48
  8
0
  6
CONTINUOUS
 62
     7
 10
174.9121062089
 20
230.0871429841
 30
0.0
 11
174.3151925135
 21
229.81516699
 31
0.0
  0
POLYLINE
  5
49
  8
0
  6
CONTINUOUS
 62
     7
 66
     1
 10
0.0
 20
0.0
 30
0.0
  0
VERTEX
  5
45E
  8
0
  6
CONTINUOUS
 62
     7
 10
118.1771330167
 20
229.8157511155
 30
0.0
  0
VERTEX
  5
45F
  8
0
  6
CONTINUOUS
 62
     7
 10
118.1126229096
 20
229.8451838891
 30
0.0
  0
VERTEX
  5
460
  8
0
  6
CONTINUOUS
 62
     7
 10
117.5823084641
 20
230.0865111748
 30
0.0
  0
SEQEND
  5
A79
  8
0
  6
CONTINUOUS
 62
     7
  0
LINE
  5
4A
  8
0
  6
CONTINUOUS
 62
     7
 10
54.9121014405
 20
230.0871429841
 30
0.0
 11
54.3151966859
 21
229.81516699
 31
0.0
  0
POLYLINE
  5
4B
  8
0
  6
CONTINUOUS
 62
     7
 66
     1
 10
0.0
 20
0.0
 30
0.0
  0
VERTEX
  5
461
  8
0
  6
CONTINUOUS
 62
     7
 10
363.6849395562
 20
155.0142941872
 30
0.0
  0
VERTEX
  5
462
  8
0
  6
CONTINUOUS
 62
     7
 10
362.697338276
 20
154.8824248711
 30
0.0
  0
VERTEX
  5
463
  8
0
  6
CONTINUOUS
 62
     7
 10
361.4878169823
 20
154.7265110413
 30
0.0
  0
VERTEX
  5
464
  8
0
  6
CONTINUOUS
 62
     7
 10
360.5037085343
 20
154.6036181847
 30
0.0
  0
VERTEX
  5
465
  8
0
  6
CONTINUOUS
 62
     7
 10
359.7452990342
 20
154.5113263528
 30
0.0
  0
VERTEX
  5
466
  8
0
  6
CONTINUOUS
 62
     7
 10
359.1396085549
 20
154.4400332371
 30
0.0
  0
VERTEX
  5
467
  8
0
  6
CONTINUOUS
 62
     7
 10
358.5434309769
 20
154.3739018838
 30
0.0
  0
VERTEX
  5
468
  8
0
  6
CONTINUOUS
 62
     7
 10
357.6599470902
 20
154.2835472028
 30
0.0
  0
VERTEX
  5
469
  8
0
  6
CONTINUOUS
 62
     7
 10
356.789468937
 20
154.203140537
 30
0.0
  0
VERTEX
  5
46A
  8
0
  6
CONTINUOUS
 62
     7
 10
355.9321634103
 20
154.1312454144
 30
0.0
  0
VERTEX
  5
46B
  8
0
  6
CONTINUOUS
 62
     7
 10
355.0882808495
 20
154.0654418866
 30
0.0
  0
VERTEX
  5
46C
  8
0
  6
CONTINUOUS
 62
     7
 10
354.252921753
 20
154.0012000005
 30
0.0
  0
VERTEX
  5
46D
  8
0
  6
CONTINUOUS
 62
     7
 10
353.3987752724
 20
153.9327083031
 30
0.0
  0
VERTEX
  5
46E
  8
0
  6
CONTINUOUS
 62
     7
 10
352.5215379525
 20
153.8635192315
 30
0.0
  0
VERTEX
  5
46F
  8
0
  6
CONTINUOUS
 62
     7
 10
351.6209356118
 20
153.7969348828
 30
0.0
  0
VERTEX
  5
470
  8
0
  6
CONTINUOUS
 62
     7
 10
350.6968013573
 20
153.7334738175
 30
0.0
  0
VERTEX
  5
471
  8
0
  6
CONTINUOUS
 62
     7
 10
349.7491113473
 20
153.672909538
 30
0.0
  0
VERTEX
  5
472
  8
0
  6
CONTINUOUS
 62
     7
 10
348.8681308556
 20
153.6203143994
 30
0.0
  0
VERTEX
  5
473
  8
0
  6
CONTINUOUS
 62
     7
 10
348.2045881081
 20
153.5826442639
 30
0.0
  0
VERTEX
  5
474
  8
0
  6
CONTINUOUS
 62
     7
 10
347.7047793198
 20
153.5553214947
 30
0.0
  0
VERTEX
  5
475
  8
0
  6
CONTINUOUS
 62
     7
 10
347.088610344
 20
153.5227833192
 30
0.0
  0
VERTEX
  5
476
  8
0
  6
CONTINUOUS
 62
     7
 10
346.3160030175
 20
153.4836767117
 30
0.0
  0
VERTEX
  5
477
  8
0
  6
CONTINUOUS
 62
     7
 10
345.3868738938
 20
153.4390447537
 30
0.0
  0
VERTEX
  5
478
  8
0
  6
CONTINUOUS
 62
     7
 10
344.3011752892
 20
153.3901153008
 30
0.0
  0
VERTEX
  5
479
  8
0
  6
CONTINUOUS
 62
     7
 10
342.64256876
 20
153.3218501012
 30
0.0
  0
VERTEX
  5
47A
  8
0
  6
CONTINUOUS
 62
     7
 10
340.7233945656
 20
153.252321283
 30
0.0
  0
VERTEX
  5
47B
  8
0
  6
CONTINUOUS
 62
     7
 10
338.7214533616
 20
153.190082113
 30
0.0
  0
VERTEX
  5
47C
  8
0
  6
CONTINUOUS
 62
     7
 10
333.309005909
 20
153.0708609025
 30
0.0
  0
VERTEX
  5
47D
  8
0
  6
CONTINUOUS
 62
     7
 10
327.82448452
 20
153.018498222
 30
0.0
  0
VERTEX
  5
47E
  8
0
  6
CONTINUOUS
 62
     7
 10
324.2972723771
 20
153.0199466149
 30
0.0
  0
VERTEX
  5
47F
  8
0
  6
CONTINUOUS
 62
     7
 10
320.7415692139
 20
153.0492244164
 30
0.0
  0
VERTEX
  5
480
  8
0
  6
CONTINUOUS
 62
     7
 10
317.2621957589
 20
153.1055210034
 30
0.0
  0
VERTEX
  5
481
  8
0
  6
CONTINUOUS
 62
     7
 10
314.0339962769
 20
153.1831500928
 30
0.0
  0
VERTEX
  5
482
  8
0
  6
CONTINUOUS
 62
     7
 10
312.4443880845
 20
153.2307145993
 30
0.0
  0
VERTEX
  5
483
  8
0
  6
CONTINUOUS
 62
     7
 10
310.9244815636
 20
153.2822070519
 30
0.0
  0
VERTEX
  5
484
  8
0
  6
CONTINUOUS
 62
     7
 10
309.4742767144
 20
153.3370135228
 30
0.0
  0
VERTEX
  5
485
  8
0
  6
CONTINUOUS
 62
     7
 10
308.0937735367
 20
153.3945737283
 30
0.0
  0
VERTEX
  5
486
  8
0
  6
CONTINUOUS
 62
     7
 10
306.7829839516
 20
153.4543095032
 30
0.0
  0
VERTEX
  5
487
  8
0
  6
CONTINUOUS
 62
     7
 10
305.5923871327
 20
153.5130856435
 30
0.0
  0
VERTEX
  5
488
  8
0
  6
CONTINUOUS
 62
     7
 10
304.7721020508
 20
153.556197683
 30
0.0
  0
VERTEX
  5
489
  8
0
  6
CONTINUOUS
 62
     7
 10
304.1354469586
 20
153.5912034909
 30
0.0
  0
VERTEX
  5
48A
  8
0
  6
CONTINUOUS
 62
     7
 10
303.8859538365
 20
153.6052999894
 30
0.0
  0
VERTEX
  5
48B
  8
0
  6
CONTINUOUS
 62
     7
 10
303.6567739773
 20
153.6185024182
 30
0.0
  0
VERTEX
  5
48C
  8
0
  6
CONTINUOUS
 62
     7
 10
303.3898703385
 20
153.6341784398
 30
0.0
  0
VERTEX
  5
48D
  8
0
  6
CONTINUOUS
 62
     7
 10
303.0830137063
 20
153.6522326867
 30
0.0
  0
VERTEX
  5
48E
  8
0
  6
CONTINUOUS
 62
     7
 10
302.5090030957
 20
153.6854205529
 30
0.0
  0
VERTEX
  5
48F
  8
0
  6
CONTINUOUS
 62
     7
 10
301.8327705193
 20
153.7249443928
 30
0.0
  0
VERTEX
  5
490
  8
0
  6
CONTINUOUS
 62
     7
 10
301.0636739064
 20
153.7722168366
 30
0.0
  0
VERTEX
  5
491
  8
0
  6
CONTINUOUS
 62
     7
 10
300.2539507676
 20
153.825938503
 30
0.0
  0
VERTEX
  5
492
  8
0
  6
CONTINUOUS
 62
     7
 10
299.4117192555
 20
153.8862703244
 30
0.0
  0
VERTEX
  5
493
  8
0
  6
CONTINUOUS
 62
     7
 10
297.9360214997
 20
154.0028331677
 30
0.0
  0
VERTEX
  5
494
  8
0
  6
CONTINUOUS
 62
     7
 10
296.3707260419
 20
154.141557018
 30
0.0
  0
VERTEX
  5
495
  8
0
  6
CONTINUOUS
 62
     7
 10
294.7081736851
 20
154.3057558934
 30
0.0
  0
VERTEX
  5
496
  8
0
  6
CONTINUOUS
 62
     7
 10
293.3274797726
 20
154.4549463193
 30
0.0
  0
VERTEX
  5
497
  8
0
  6
CONTINUOUS
 62
     7
 10
291.8092481423
 20
154.6312866608
 30
0.0
  0
VERTEX
  5
498
  8
0
  6
CONTINUOUS
 62
     7
 10
290.1537946988
 20
154.8370061318
 30
0.0
  0
VERTEX
  5
499
  8
0
  6
CONTINUOUS
 62
     7
 10
288.8082258034
 20
155.0149021546
 30
0.0
  0
SEQEND
  5
A78
  8
0
  6
CONTINUOUS
 62
     7
  0
LINE
  5
4C
  8
0
  6
CONTINUOUS
 62
     7
 10
288.6605850983
 20
153.9533195893
 30
0.0
 11
288.6462263394
 21
153.8900134961
 31
0.0
  0
LINE
  5
4D
  8
0
  6
CONTINUOUS
 62
     7
 10
288.7943081189
 20
155.0177929799
 30
0.0
 11
288.7909821797
 21
154.9907980363
 31
0.0
  0
POLYLINE
  5
4E
  8
0
  6
CONTINUOUS
 62
     7
 66
     1
 10
0.0
 20
0.0
 30
0.0
  0
VERTEX
  5
49A
  8
0
  6
CONTINUOUS
 62
     7
 10
288.7586287785
 20
154.7281263272
 30
0.0
  0
VERTEX
  5
49B
  8
0
  6
CONTINUOUS
 62
     7
 10
288.7231342126
 20
154.4399080674
 30
0.0
  0
VERTEX
  5
49C
  8
0
  6
CONTINUOUS
 62
     7
 10
288.6464289952
 20
153.8431880872
 30
0.0
  0
SEQEND
  5
A77
  8
0
  6
CONTINUOUS
 62
     7
  0
POLYLINE
  5
4F
  8
0
  6
CONTINUOUS
 62
     7
 66
     1
 10
0.0
 20
0.0
 30
0.0
  0
VERTEX
  5
49D
  8
0
  6
CONTINUOUS
 62
     7
 10
363.8470761109
 20
153.8415787617
 30
0.0
  0
VERTEX
  5
49E
  8
0
  6
CONTINUOUS
 62
     7
 10
363.7702695656
 20
154.4391153256
 30
0.0
  0
VERTEX
  5
49F
  8
0
  6
CONTINUOUS
 62
     7
 10
363.7352816392
 20
154.7231374184
 30
0.0
  0
SEQEND
  5
A76
  8
0
  6
CONTINUOUS
 62
     7
  0
LINE
  5
50
  8
0
  6
CONTINUOUS
 62
     7
 10
363.7011997033
 20
154.9998877446
 30
0.0
 11
363.6989943314
 21
155.0177929799
 31
0.0
  0
LINE
  5
51
  8
0
  6
CONTINUOUS
 62
     7
 10
363.8470761109
 20
153.8900134961
 30
0.0
 11
363.8327233124
 21
153.9532778661
 31
0.0
  0
LINE
  5
52
  8
0
  6
CONTINUOUS
 62
     7
 10
48.5466472436
 20
143.4305427472
 30
0.0
 11
64.9466506768
 21
143.4305427472
 31
0.0
  0
LINE
  5
53
  8
0
  6
CONTINUOUS
 62
     7
 10
64.9466506768
 20
155.6305406491
 30
0.0
 11
49.3466488648
 21
155.6305406491
 31
0.0
  0
LINE
  5
54
  8
0
  6
CONTINUOUS
 62
     7
 10
63.4455673028
 20
157.9496918122
 30
0.0
 11
63.5096422959
 21
157.9496918122
 31
0.0
  0
LINE
  5
55
  8
0
  6
CONTINUOUS
 62
     7
 10
288.5466508198
 20
143.4994635979
 30
0.0
 11
289.3466464806
 21
143.4994635979
 31
0.0
  0
LINE
  5
56
  8
0
  6
CONTINUOUS
 62
     7
 10
288.5466508198
 20
143.4305427472
 30
0.0
 11
304.9466482926
 21
143.4305427472
 31
0.0
  0
LINE
  5
57
  8
0
  6
CONTINUOUS
 62
     7
 10
304.9466482926
 20
155.6305406491
 30
0.0
 11
288.5466508198
 21
155.6305406491
 31
0.0
  0
LINE
  5
58
  8
0
  6
CONTINUOUS
 62
     7
 10
168.5466490317
 20
143.4305427472
 30
0.0
 11
184.9466494847
 21
143.4305427472
 31
0.0
  0
LINE
  5
59
  8
0
  6
CONTINUOUS
 62
     7
 10
184.9466494847
 20
155.6305406491
 30
0.0
 11
169.346650653
 21
155.6305406491
 31
0.0
  0
LINE
  5
5A
  8
0
  6
CONTINUOUS
 62
     7
 10
183.4455676008
 20
157.9496918122
 30
0.0
 11
183.5096366335
 21
157.9496918122
 31
0.0
  0
LINE
  5
5B
  8
0
  6
CONTINUOUS
 62
     7
 10
363.1466500092
 20
143.4994635979
 30
0.0
 11
363.9466516305
 21
143.4994635979
 31
0.0
  0
LINE
  5
5C
  8
0
  6
CONTINUOUS
 62
     7
 10
363.9466516305
 20
155.6305406491
 30
0.0
 11
347.5466481972
 21
155.6305406491
 31
0.0
  0
LINE
  5
5D
  8
0
  6
CONTINUOUS
 62
     7
 10
347.5466481972
 20
143.4305427472
 30
0.0
 11
363.9466516305
 21
143.4305427472
 31
0.0
  0
LINE
  5
5E
  8
0
  6
CONTINUOUS
 62
     7
 10
123.1466523934
 20
155.6305406491
 30
0.0
 11
107.5466505814
 21
155.6305406491
 31
0.0
  0
LINE
  5
5F
  8
0
  6
CONTINUOUS
 62
     7
 10
107.5466505814
 20
143.4305427472
 30
0.0
 11
123.9466480542
 21
143.4305427472
 31
0.0
  0
LINE
  5
60
  8
0
  6
CONTINUOUS
 62
     7
 10
108.9836589623
 20
157.9496918122
 30
0.0
 11
109.047727995
 21
157.9496918122
 31
0.0
  0
LINE
  5
61
  8
0
  6
CONTINUOUS
 62
     7
 10
243.1466482211
 20
155.6305406491
 30
0.0
 11
227.5466493893
 21
155.6305406491
 31
0.0
  0
LINE
  5
62
  8
0
  6
CONTINUOUS
 62
     7
 10
227.5466493893
 20
143.4305427472
 30
0.0
 11
243.9466498423
 21
143.4305427472
 31
0.0
  0
LINE
  5
63
  8
0
  6
CONTINUOUS
 62
     7
 10
228.9836622406
 20
157.9496918122
 30
0.0
 11
229.0477312732
 21
157.9496918122
 31
0.0
  0
LINE
  5
64
  8
0
  6
CONTINUOUS
 62
     7
 10
367.6466457177
 20
155.9305427472
 30
0.0
 11
364.2466537286
 21
155.9305427472
 31
0.0
  0
LINE
  5
65
  8
0
  6
CONTINUOUS
 62
     7
 10
364.2466537286
 20
155.5305419366
 30
0.0
 11
363.9466516305
 21
155.5305419366
 31
0.0
  0
LINE
  5
66
  8
0
  6
CONTINUOUS
 62
     7
 10
347.5466481972
 20
155.5305419366
 30
0.0
 11
346.846651249
 21
155.5305419366
 31
0.0
  0
LINE
  5
67
  8
0
  6
CONTINUOUS
 62
     7
 10
346.846651249
 20
143.5305414597
 30
0.0
 11
347.5466481972
 21
143.5305414597
 31
0.0
  0
LINE
  5
68
  8
0
  6
CONTINUOUS
 62
     7
 10
363.9466516305
 20
143.5305414597
 30
0.0
 11
364.2466537286
 21
143.5305414597
 31
0.0
  0
LINE
  5
69
  8
0
  6
CONTINUOUS
 62
     7
 10
127.6466481019
 20
155.9305427472
 30
0.0
 11
124.2466501523
 21
155.9305427472
 31
0.0
  0
LINE
  5
6A
  8
0
  6
CONTINUOUS
 62
     7
 10
124.2466501523
 20
155.5305419366
 30
0.0
 11
123.9466480542
 21
155.5305419366
 31
0.0
  0
LINE
  5
6B
  8
0
  6
CONTINUOUS
 62
     7
 10
107.5466505814
 20
155.5305419366
 30
0.0
 11
106.8466476727
 21
155.5305419366
 31
0.0
  0
LINE
  5
6C
  8
0
  6
CONTINUOUS
 62
     7
 10
106.8466476727
 20
143.5305414597
 30
0.0
 11
107.5466505814
 21
143.5305414597
 31
0.0
  0
LINE
  5
6D
  8
0
  6
CONTINUOUS
 62
     7
 10
123.9466480542
 20
143.5305414597
 30
0.0
 11
124.2466501523
 21
143.5305414597
 31
0.0
  0
LINE
  5
6E
  8
0
  6
CONTINUOUS
 62
     7
 10
247.64664989
 20
155.9305427472
 30
0.0
 11
244.2466489602
 21
155.9305427472
 31
0.0
  0
LINE
  5
6F
  8
0
  6
CONTINUOUS
 62
     7
 10
244.2466489602
 20
155.5305419366
 30
0.0
 11
243.9466498423
 21
155.5305419366
 31
0.0
  0
LINE
  5
70
  8
0
  6
CONTINUOUS
 62
     7
 10
227.5466493893
 20
155.5305419366
 30
0.0
 11
226.8466494609
 21
155.5305419366
 31
0.0
  0
LINE
  5
71
  8
0
  6
CONTINUOUS
 62
     7
 10
226.8466494609
 20
143.5305414597
 30
0.0
 11
227.5466493893
 21
143.5305414597
 31
0.0
  0
LINE
  5
72
  8
0
  6
CONTINUOUS
 62
     7
 10
243.9466498423
 20
143.5305414597
 30
0.0
 11
244.2466489602
 21
143.5305414597
 31
0.0
  0
LINE
  5
73
  8
0
  6
CONTINUOUS
 62
     7
 10
288.2466487218
 20
155.9305427472
 30
0.0
 11
284.8466507722
 21
155.9305427472
 31
0.0
  0
LINE
  5
74
  8
0
  6
CONTINUOUS
 62
     7
 10
288.2466487218
 20
143.5305414597
 30
0.0
 11
288.5466508198
 21
143.5305414597
 31
0.0
  0
LINE
  5
75
  8
0
  6
CONTINUOUS
 62
     7
 10
304.9466482926
 20
143.5305414597
 30
0.0
 11
305.6466512013
 21
143.5305414597
 31
0.0
  0
LINE
  5
76
  8
0
  6
CONTINUOUS
 62
     7
 10
305.6466512013
 20
155.5305419366
 30
0.0
 11
304.9466482926
 21
155.5305419366
 31
0.0
  0
LINE
  5
77
  8
0
  6
CONTINUOUS
 62
     7
 10
288.5466508198
 20
155.5305419366
 30
0.0
 11
288.2466487218
 21
155.5305419366
 31
0.0
  0
LINE
  5
78
  8
0
  6
CONTINUOUS
 62
     7
 10
168.2466499139
 20
155.9305427472
 30
0.0
 11
164.846648984
 21
155.9305427472
 31
0.0
  0
LINE
  5
79
  8
0
  6
CONTINUOUS
 62
     7
 10
168.2466499139
 20
143.5305414597
 30
0.0
 11
168.5466490317
 21
143.5305414597
 31
0.0
  0
LINE
  5
7A
  8
0
  6
CONTINUOUS
 62
     7
 10
184.9466494847
 20
143.5305414597
 30
0.0
 11
185.6466494132
 21
143.5305414597
 31
0.0
  0
LINE
  5
7B
  8
0
  6
CONTINUOUS
 62
     7
 10
185.6466494132
 20
155.5305419366
 30
0.0
 11
184.9466494847
 21
155.5305419366
 31
0.0
  0
LINE
  5
7C
  8
0
  6
CONTINUOUS
 62
     7
 10
168.5466490317
 20
155.5305419366
 30
0.0
 11
168.2466499139
 21
155.5305419366
 31
0.0
  0
LINE
  5
7D
  8
0
  6
CONTINUOUS
 62
     7
 10
48.2466451455
 20
155.9305427472
 30
0.0
 11
44.8466531563
 21
155.9305427472
 31
0.0
  0
LINE
  5
7E
  8
0
  6
CONTINUOUS
 62
     7
 10
48.2466451455
 20
143.5305414597
 30
0.0
 11
48.5466472436
 21
143.5305414597
 31
0.0
  0
LINE
  5
7F
  8
0
  6
CONTINUOUS
 62
     7
 10
64.9466506768
 20
143.5305414597
 30
0.0
 11
65.646647625
 21
143.5305414597
 31
0.0
  0
LINE
  5
80
  8
0
  6
CONTINUOUS
 62
     7
 10
65.646647625
 20
155.5305419366
 30
0.0
 11
64.9466506768
 21
155.5305419366
 31
0.0
  0
LINE
  5
81
  8
0
  6
CONTINUOUS
 62
     7
 10
48.5466472436
 20
155.5305419366
 30
0.0
 11
48.2466451455
 21
155.5305419366
 31
0.0
  0
LINE
  5
82
  8
0
  6
CONTINUOUS
 62
     7
 10
67.8323618699
 20
64.1305420424
 30
0.0
 11
74.6609322358
 21
64.1305420424
 31
0.0
  0
LINE
  5
83
  8
0
  6
CONTINUOUS
 62
     7
 10
67.8323618699
 20
62.9305420319
 30
0.0
 11
74.6609322358
 21
62.9305420319
 31
0.0
  0
LINE
  5
84
  8
0
  6
CONTINUOUS
 62
     7
 10
64.0737168122
 20
64.1305420424
 30
0.0
 11
67.8323618699
 21
64.1305420424
 31
0.0
  0
LINE
  5
85
  8
0
  6
CONTINUOUS
 62
     7
 10
67.8323618699
 20
62.9305420319
 30
0.0
 11
64.0737168122
 21
62.9305420319
 31
0.0
  0
LINE
  5
86
  8
0
  6
CONTINUOUS
 62
     7
 10
78.4195772935
 20
62.9305420319
 30
0.0
 11
74.6609322358
 21
62.9305420319
 31
0.0
  0
LINE
  5
87
  8
0
  6
CONTINUOUS
 62
     7
 10
74.6609322358
 20
64.1305420424
 30
0.0
 11
78.4195772935
 21
64.1305420424
 31
0.0
  0
LINE
  5
88
  8
0
  6
CONTINUOUS
 62
     7
 10
334.0737215806
 20
64.1305420424
 30
0.0
 11
337.8323666382
 21
64.1305420424
 31
0.0
  0
LINE
  5
89
  8
0
  6
CONTINUOUS
 62
     7
 10
337.8323666382
 20
62.9305420319
 30
0.0
 11
334.0737215806
 21
62.9305420319
 31
0.0
  0
LINE
  5
8A
  8
0
  6
CONTINUOUS
 62
     7
 10
344.6609370042
 20
64.1305420424
 30
0.0
 11
348.4195820618
 21
64.1305420424
 31
0.0
  0
LINE
  5
8B
  8
0
  6
CONTINUOUS
 62
     7
 10
348.4195820618
 20
62.9305420319
 30
0.0
 11
344.6609370042
 21
62.9305420319
 31
0.0
  0
LINE
  5
8C
  8
0
  6
CONTINUOUS
 62
     7
 10
337.8323666382
 20
64.1305420424
 30
0.0
 11
344.6609370042
 21
64.1305420424
 31
0.0
  0
LINE
  5
8D
  8
0
  6
CONTINUOUS
 62
     7
 10
337.8323666382
 20
62.9305420319
 30
0.0
 11
344.6609370042
 21
62.9305420319
 31
0.0
  0
LINE
  5
8E
  8
0
  6
CONTINUOUS
 62
     7
 10
83.2466475297
 20
62.9305420319
 30
0.0
 11
83.2466475297
 21
64.1305420424
 31
0.0
  0
LINE
  5
8F
  8
0
  6
CONTINUOUS
 62
     7
 10
78.4195772935
 20
62.9305420319
 30
0.0
 11
83.2466475297
 21
62.9305420319
 31
0.0
  0
LINE
  5
90
  8
0
  6
CONTINUOUS
 62
     7
 10
83.2466475297
 20
64.1305420424
 30
0.0
 11
78.4195772935
 21
64.1305420424
 31
0.0
  0
LINE
  5
91
  8
0
  6
CONTINUOUS
 62
     7
 10
59.246646576
 20
62.9305420319
 30
0.0
 11
59.246646576
 21
64.1305420424
 31
0.0
  0
LINE
  5
92
  8
0
  6
CONTINUOUS
 62
     7
 10
59.246646576
 20
62.9305420319
 30
0.0
 11
64.0737168122
 21
62.9305420319
 31
0.0
  0
LINE
  5
93
  8
0
  6
CONTINUOUS
 62
     7
 10
64.0737168122
 20
64.1305420424
 30
0.0
 11
59.246646576
 21
64.1305420424
 31
0.0
  0
LINE
  5
94
  8
0
  6
CONTINUOUS
 62
     7
 10
329.2466513444
 20
62.9305420319
 30
0.0
 11
329.2466513444
 21
64.1305420424
 31
0.0
  0
LINE
  5
95
  8
0
  6
CONTINUOUS
 62
     7
 10
334.0737215806
 20
64.1305420424
 30
0.0
 11
329.2466513444
 21
64.1305420424
 31
0.0
  0
LINE
  5
96
  8
0
  6
CONTINUOUS
 62
     7
 10
329.2466513444
 20
62.9305420319
 30
0.0
 11
334.0737215806
 21
62.9305420319
 31
0.0
  0
LINE
  5
97
  8
0
  6
CONTINUOUS
 62
     7
 10
353.246652298
 20
62.9305420319
 30
0.0
 11
353.246652298
 21
64.1305420424
 31
0.0
  0
LINE
  5
98
  8
0
  6
CONTINUOUS
 62
     7
 10
353.246652298
 20
64.1305420424
 30
0.0
 11
348.4195820618
 21
64.1305420424
 31
0.0
  0
LINE
  5
99
  8
0
  6
CONTINUOUS
 62
     7
 10
348.4195820618
 20
62.9305420319
 30
0.0
 11
353.246652298
 21
62.9305420319
 31
0.0
  0
POLYLINE
  5
9A
  8
0
  6
CONTINUOUS
 62
     7
 66
     1
 10
0.0
 20
0.0
 30
0.0
  0
VERTEX
  5
4A0
  8
0
  6
CONTINUOUS
 62
     7
 10
336.4466540147
 20
128.3305404584
 30
0.0
  0
VERTEX
  5
4A1
  8
0
  6
CONTINUOUS
 62
     7
 10
336.4151827622
 20
128.2990751664
 30
0.0
  0
VERTEX
  5
4A2
  8
0
  6
CONTINUOUS
 62
     7
 10
336.322771721
 20
128.2066641251
 30
0.0
  0
VERTEX
  5
4A3
  8
0
  6
CONTINUOUS
 62
     7
 10
336.2658612061
 20
128.1497595708
 30
0.0
  0
VERTEX
  5
4A4
  8
0
  6
CONTINUOUS
 62
     7
 10
336.2466446686
 20
128.1305430333
 30
0.0
  0
SEQEND
  5
A75
  8
0
  6
CONTINUOUS
 62
     7
  0
LINE
  5
9B
  8
0
  6
CONTINUOUS
 62
     7
 10
336.2466446686
 20
128.1305430333
 30
0.0
 11
293.5184292126
 21
128.1305430333
 31
0.0
  0
LINE
  5
9C
  8
0
  6
CONTINUOUS
 62
     7
 10
285.9748713303
 20
128.1305430333
 30
0.0
 11
246.5184293318
 21
128.1305430333
 31
0.0
  0
LINE
  5
9D
  8
0
  6
CONTINUOUS
 62
     7
 10
238.9748684693
 20
128.1305430333
 30
0.0
 11
173.5184304047
 21
128.1305430333
 31
0.0
  0
LINE
  5
9E
  8
0
  6
CONTINUOUS
 62
     7
 10
165.9748695422
 20
128.1305430333
 30
0.0
 11
126.5184275437
 21
128.1305430333
 31
0.0
  0
LINE
  5
9F
  8
0
  6
CONTINUOUS
 62
     7
 10
118.9748696614
 20
128.1305430333
 30
0.0
 11
76.2466542054
 21
128.1305430333
 31
0.0
  0
POLYLINE
  5
A0
  8
0
  6
CONTINUOUS
 62
     7
 66
     1
 10
0.0
 20
0.0
 30
0.0
  0
VERTEX
  5
4A5
  8
0
  6
CONTINUOUS
 62
     7
 10
76.0466448594
 20
128.3305404584
 30
0.0
  0
VERTEX
  5
4A6
  8
0
  6
CONTINUOUS
 62
     7
 10
76.0781161118
 20
128.2990751664
 30
0.0
  0
VERTEX
  5
4A7
  8
0
  6
CONTINUOUS
 62
     7
 10
76.1705271531
 20
128.2066641251
 30
0.0
  0
VERTEX
  5
4A8
  8
0
  6
CONTINUOUS
 62
     7
 10
76.2274376679
 20
128.1497595708
 30
0.0
  0
VERTEX
  5
4A9
  8
0
  6
CONTINUOUS
 62
     7
 10
76.2466542054
 20
128.1305430333
 30
0.0
  0
SEQEND
  5
A74
  8
0
  6
CONTINUOUS
 62
     7
  0
LINE
  5
A1
  8
0
  6
CONTINUOUS
 62
     7
 10
43.0466524888
 20
138.130539457
 30
0.0
 11
44.8466531563
 21
138.130539457
 31
0.0
  0
LINE
  5
A2
  8
0
  6
CONTINUOUS
 62
     7
 10
54.6466461945
 20
138.130539457
 30
0.0
 11
68.2466499139
 21
138.130539457
 31
0.0
  0
LINE
  5
A3
  8
0
  6
CONTINUOUS
 62
     7
 10
104.2466513444
 20
138.130539457
 30
0.0
 11
117.8466491032
 21
138.130539457
 31
0.0
  0
LINE
  5
A4
  8
0
  6
CONTINUOUS
 62
     7
 10
127.6466481019
 20
138.130539457
 30
0.0
 11
164.846648984
 21
138.130539457
 31
0.0
  0
LINE
  5
A5
  8
0
  6
CONTINUOUS
 62
     7
 10
174.6466479827
 20
138.130539457
 30
0.0
 11
188.2466487218
 21
138.130539457
 31
0.0
  0
LINE
  5
A6
  8
0
  6
CONTINUOUS
 62
     7
 10
224.2466501523
 20
138.130539457
 30
0.0
 11
237.8466508914
 21
138.130539457
 31
0.0
  0
LINE
  5
A7
  8
0
  6
CONTINUOUS
 62
     7
 10
247.64664989
 20
138.130539457
 30
0.0
 11
284.8466507722
 21
138.130539457
 31
0.0
  0
LINE
  5
A8
  8
0
  6
CONTINUOUS
 62
     7
 10
294.6466497708
 20
138.130539457
 30
0.0
 11
308.2466475297
 21
138.130539457
 31
0.0
  0
LINE
  5
A9
  8
0
  6
CONTINUOUS
 62
     7
 10
344.2466489602
 20
138.130539457
 30
0.0
 11
357.8466526795
 21
138.130539457
 31
0.0
  0
LINE
  5
AA
  8
0
  6
CONTINUOUS
 62
     7
 10
367.6466457177
 20
138.130539457
 30
0.0
 11
369.4466463853
 21
138.130539457
 31
0.0
  0
POLYLINE
  5
AB
  8
0
  6
CONTINUOUS
 62
     7
 66
     1
 10
0.0
 20
0.0
 30
0.0
  0
VERTEX
  5
4AA
  8
0
  6
CONTINUOUS
 62
     7
 10
66.2466518212
 20
128.1305430333
 30
0.0
  0
VERTEX
  5
4AB
  8
0
  6
CONTINUOUS
 62
     7
 10
66.2658683587
 20
128.1497595708
 30
0.0
  0
VERTEX
  5
4AC
  8
0
  6
CONTINUOUS
 62
     7
 10
66.3227669526
 20
128.2066641251
 30
0.0
  0
VERTEX
  5
4AD
  8
0
  6
CONTINUOUS
 62
     7
 10
66.4151779938
 20
128.2990751664
 30
0.0
  0
VERTEX
  5
4AE
  8
0
  6
CONTINUOUS
 62
     7
 10
66.5395371247
 20
128.4234342973
 30
0.0
  0
VERTEX
  5
4AF
  8
0
  6
CONTINUOUS
 62
     7
 10
66.6910759736
 20
128.5749731461
 30
0.0
  0
VERTEX
  5
4B0
  8
0
  6
CONTINUOUS
 62
     7
 10
66.8639652062
 20
128.7478564183
 30
0.0
  0
VERTEX
  5
4B1
  8
0
  6
CONTINUOUS
 62
     7
 10
67.0515648652
 20
128.9354501168
 30
0.0
  0
VERTEX
  5
4B2
  8
0
  6
CONTINUOUS
 62
     7
 10
67.2466508675
 20
129.1305420796
 30
0.0
  0
SEQEND
  5
A73
  8
0
  6
CONTINUOUS
 62
     7
  0
LINE
  5
AC
  8
0
  6
CONTINUOUS
 62
     7
 10
66.2466518212
 20
128.1305430333
 30
0.0
 11
53.5184256364
 21
128.1305430333
 31
0.0
  0
LINE
  5
AD
  8
0
  6
CONTINUOUS
 62
     7
 10
45.9748737145
 20
128.1305430333
 30
0.0
 11
43.0466524888
 21
128.1305430333
 31
0.0
  0
LINE
  5
AE
  8
0
  6
CONTINUOUS
 62
     7
 10
76.2466542054
 20
128.1305430333
 30
0.0
 11
76.2466542054
 21
64.1305420424
 31
0.0
  0
POLYLINE
  5
AF
  8
0
  6
CONTINUOUS
 62
     7
 66
     1
 10
0.0
 20
0.0
 30
0.0
  0
VERTEX
  5
4B3
  8
0
  6
CONTINUOUS
 62
     7
 10
346.2466470528
 20
128.1305430333
 30
0.0
  0
VERTEX
  5
4B4
  8
0
  6
CONTINUOUS
 62
     7
 10
346.2274305154
 20
128.1497595708
 30
0.0
  0
VERTEX
  5
4B5
  8
0
  6
CONTINUOUS
 62
     7
 10
346.1705319215
 20
128.2066641251
 30
0.0
  0
VERTEX
  5
4B6
  8
0
  6
CONTINUOUS
 62
     7
 10
346.0781208802
 20
128.2990751664
 30
0.0
  0
VERTEX
  5
4B7
  8
0
  6
CONTINUOUS
 62
     7
 10
345.9537617493
 20
128.4234342973
 30
0.0
  0
VERTEX
  5
4B8
  8
0
  6
CONTINUOUS
 62
     7
 10
345.8022229005
 20
128.5749731461
 30
0.0
  0
VERTEX
  5
4B9
  8
0
  6
CONTINUOUS
 62
     7
 10
345.6293336678
 20
128.7478564183
 30
0.0
  0
VERTEX
  5
4BA
  8
0
  6
CONTINUOUS
 62
     7
 10
345.4417340089
 20
128.9354501168
 30
0.0
  0
VERTEX
  5
4BB
  8
0
  6
CONTINUOUS
 62
     7
 10
345.2466480065
 20
129.1305420796
 30
0.0
  0
SEQEND
  5
A72
  8
0
  6
CONTINUOUS
 62
     7
  0
LINE
  5
B0
  8
0
  6
CONTINUOUS
 62
     7
 10
369.4466463853
 20
128.1305430333
 30
0.0
 11
366.5184251595
 21
128.1305430333
 31
0.0
  0
LINE
  5
B1
  8
0
  6
CONTINUOUS
 62
     7
 10
358.9748732377
 20
128.1305430333
 30
0.0
 11
346.2466470528
 21
128.1305430333
 31
0.0
  0
LINE
  5
B2
  8
0
  6
CONTINUOUS
 62
     7
 10
346.2466470528
 20
128.1305430333
 30
0.0
 11
346.2466470528
 21
64.1305420424
 31
0.0
  0
LINE
  5
B3
  8
0
  6
CONTINUOUS
 62
     7
 10
42.6466457177
 20
129.1305420796
 30
0.0
 11
42.6466457177
 21
137.1305404107
 31
0.0
  0
LINE
  5
B4
  8
0
  6
CONTINUOUS
 62
     7
 10
369.8466531563
 20
129.1305420796
 30
0.0
 11
369.8466531563
 21
128.5305438439
 31
0.0
  0
ARC
  5
B5
  8
0
  6
CONTINUOUS
 62
     7
 10
369.446649437
 20
128.5305420319
 30
0.0
 40
0.4000000000000341
 50
270.0
 51
0.0
  0
LINE
  5
B6
  8
0
  6
CONTINUOUS
 62
     7
 10
369.8466531563
 20
137.1305404107
 30
0.0
 11
369.8466531563
 21
129.1305420796
 31
0.0
  0
LINE
  5
B7
  8
0
  6
CONTINUOUS
 62
     7
 10
42.6466457177
 20
128.5305438439
 30
0.0
 11
42.6466457177
 21
129.1305420796
 31
0.0
  0
ARC
  5
B8
  8
0
  6
CONTINUOUS
 62
     7
 10
43.046649437
 20
128.5305420319
 30
0.0
 40
0.3999999999999844
 50
180.0
 51
270.0
  0
ARC
  5
B9
  8
0
  6
CONTINUOUS
 62
     7
 10
369.446649437
 20
137.7305420319
 30
0.0
 40
0.4000000000000341
 50
0.0
 51
90.0
  0
LINE
  5
BA
  8
0
  6
CONTINUOUS
 62
     7
 10
369.8466531563
 20
137.7305446069
 30
0.0
 11
369.8466531563
 21
137.1305404107
 31
0.0
  0
CIRCLE
  5
BB
  8
0
  6
CONTINUOUS
 62
     7
 10
243.746649437
 20
132.3305420319
 30
0.0
 40
1.050000000000011
  0
CIRCLE
  5
BC
  8
0
  6
CONTINUOUS
 62
     7
 10
288.746649437
 20
132.3305420319
 30
0.0
 40
1.050000000000011
  0
CIRCLE
  5
BD
  8
0
  6
CONTINUOUS
 62
     7
 10
123.746649437
 20
132.3305420319
 30
0.0
 40
1.050000000000011
  0
CIRCLE
  5
BE
  8
0
  6
CONTINUOUS
 62
     7
 10
48.746649437
 20
132.3305420319
 30
0.0
 40
1.04999999999999
  0
CIRCLE
  5
BF
  8
0
  6
CONTINUOUS
 62
     7
 10
363.746649437
 20
132.3305420319
 30
0.0
 40
1.050000000000011
  0
CIRCLE
  5
C0
  8
0
  6
CONTINUOUS
 62
     7
 10
168.746649437
 20
132.3305420319
 30
0.0
 40
1.049999999999983
  0
LINE
  5
C1
  8
0
  6
CONTINUOUS
 62
     7
 10
66.2466518212
 20
64.1305420424
 30
0.0
 11
66.2466518212
 21
128.1305430333
 31
0.0
  0
LINE
  5
C2
  8
0
  6
CONTINUOUS
 62
     7
 10
336.2466446686
 20
64.1305420424
 30
0.0
 11
336.2466446686
 21
128.1305430333
 31
0.0
  0
LINE
  5
C3
  8
0
  6
CONTINUOUS
 62
     7
 10
42.6466457177
 20
137.1305404107
 30
0.0
 11
42.6466457177
 21
137.7305446069
 31
0.0
  0
ARC
  5
C4
  8
0
  6
CONTINUOUS
 62
     7
 10
43.046649437
 20
137.7305420319
 30
0.0
 40
0.3999999999999844
 50
90.0
 51
180.0
  0
POLYLINE
  5
C5
  8
0
  6
CONTINUOUS
 62
     7
 66
     1
 10
0.0
 20
0.0
 30
0.0
  0
VERTEX
  5
4BC
  8
0
  6
CONTINUOUS
 62
     7
 10
361.2719766427
 20
222.8586016099
 30
0.0
  0
VERTEX
  5
4BD
  8
0
  6
CONTINUOUS
 62
     7
 10
361.2993828583
 20
224.1700706879
 30
0.0
  0
VERTEX
  5
4BE
  8
0
  6
CONTINUOUS
 62
     7
 10
361.1375443268
 20
225.4393992821
 30
0.0
  0
VERTEX
  5
4BF
  8
0
  6
CONTINUOUS
 62
     7
 10
360.7854120064
 20
226.630931894
 30
0.0
  0
VERTEX
  5
4C0
  8
0
  6
CONTINUOUS
 62
     7
 10
360.2506987382
 20
227.7144489686
 30
0.0
  0
VERTEX
  5
4C1
  8
0
  6
CONTINUOUS
 62
     7
 10
359.5403544236
 20
228.660565416
 30
0.0
  0
VERTEX
  5
4C2
  8
0
  6
CONTINUOUS
 62
     7
 10
358.6731545258
 20
229.4453678529
 30
0.0
  0
VERTEX
  5
4C3
  8
0
  6
CONTINUOUS
 62
     7
 10
357.6722494889
 20
230.0440011422
 30
0.0
  0
VERTEX
  5
4C4
  8
0
  6
CONTINUOUS
 62
     7
 10
356.5632097054
 20
230.4468093316
 30
0.0
  0
VERTEX
  5
4C5
  8
0
  6
CONTINUOUS
 62
     7
 10
355.5348269273
 20
230.6278286378
 30
0.0
  0
VERTEX
  5
4C6
  8
0
  6
CONTINUOUS
 62
     7
 10
354.4693104554
 20
230.6505260865
 30
0.0
  0
SEQEND
  5
A71
  8
0
  6
CONTINUOUS
 62
     7
  0
POLYLINE
  5
C6
  8
0
  6
CONTINUOUS
 62
     7
 66
     1
 10
0.0
 20
0.0
 30
0.0
  0
VERTEX
  5
4C7
  8
0
  6
CONTINUOUS
 62
     7
 10
359.9303833771
 20
208.2850156228
 30
0.0
  0
VERTEX
  5
4C8
  8
0
  6
CONTINUOUS
 62
     7
 10
360.2642766762
 20
211.9330106179
 30
0.0
  0
VERTEX
  5
4C9
  8
0
  6
CONTINUOUS
 62
     7
 10
360.600244217
 20
215.5782161156
 30
0.0
  0
VERTEX
  5
4CA
  8
0
  6
CONTINUOUS
 62
     7
 10
360.9369866181
 20
219.2305860917
 30
0.0
  0
VERTEX
  5
4CB
  8
0
  6
CONTINUOUS
 62
     7
 10
361.2719766427
 20
222.8586016099
 30
0.0
  0
SEQEND
  5
A70
  8
0
  6
CONTINUOUS
 62
     7
  0
POLYLINE
  5
C7
  8
0
  6
CONTINUOUS
 62
     7
 66
     1
 10
0.0
 20
0.0
 30
0.0
  0
VERTEX
  5
4CC
  8
0
  6
CONTINUOUS
 62
     7
 10
351.8065683175
 20
199.7809825341
 30
0.0
  0
VERTEX
  5
4CD
  8
0
  6
CONTINUOUS
 62
     7
 10
353.2078735161
 20
199.9761639039
 30
0.0
  0
VERTEX
  5
4CE
  8
0
  6
CONTINUOUS
 62
     7
 10
354.5572392274
 20
200.4187522332
 30
0.0
  0
VERTEX
  5
4CF
  8
0
  6
CONTINUOUS
 62
     7
 10
355.8169714738
 20
201.1009273927
 30
0.0
  0
VERTEX
  5
4D0
  8
0
  6
CONTINUOUS
 62
     7
 10
356.9547526169
 20
202.0000157754
 30
0.0
  0
VERTEX
  5
4D1
  8
0
  6
CONTINUOUS
 62
     7
 10
357.9360238839
 20
203.0884681145
 30
0.0
  0
VERTEX
  5
4D2
  8
0
  6
CONTINUOUS
 62
     7
 10
358.7438694764
 20
204.3351469437
 30
0.0
  0
VERTEX
  5
4D3
  8
0
  6
CONTINUOUS
 62
     7
 10
359.3582383919
 20
205.7089863221
 30
0.0
  0
VERTEX
  5
4D4
  8
0
  6
CONTINUOUS
 62
     7
 10
359.7665063668
 20
207.1662722031
 30
0.0
  0
VERTEX
  5
4D5
  8
0
  6
CONTINUOUS
 62
     7
 10
359.9303833771
 20
208.2850156228
 30
0.0
  0
SEQEND
  5
A6F
  8
0
  6
CONTINUOUS
 62
     7
  0
POLYLINE
  5
C8
  8
0
  6
CONTINUOUS
 62
     7
 66
     1
 10
0.0
 20
0.0
 30
0.0
  0
VERTEX
  5
4D6
  8
0
  6
CONTINUOUS
 62
     7
 10
300.6867341328
 20
199.7809825341
 30
0.0
  0
VERTEX
  5
4D7
  8
0
  6
CONTINUOUS
 62
     7
 10
303.5111717511
 20
199.6541557709
 30
0.0
  0
VERTEX
  5
4D8
  8
0
  6
CONTINUOUS
 62
     7
 10
306.3769332696
 20
199.5422659318
 30
0.0
  0
VERTEX
  5
4D9
  8
0
  6
CONTINUOUS
 62
     7
 10
309.2787257958
 20
199.4455275933
 30
0.0
  0
VERTEX
  5
4DA
  8
0
  6
CONTINUOUS
 62
     7
 10
313.4656898308
 20
199.3341861169
 30
0.0
  0
VERTEX
  5
4DB
  8
0
  6
CONTINUOUS
 62
     7
 10
317.6997415353
 20
199.2543516557
 30
0.0
  0
VERTEX
  5
4DC
  8
0
  6
CONTINUOUS
 62
     7
 10
321.9653002549
 20
199.2063460748
 30
0.0
  0
VERTEX
  5
4DD
  8
0
  6
CONTINUOUS
 62
     7
 10
326.2466542054
 20
199.1903243462
 30
0.0
  0
VERTEX
  5
4DE
  8
0
  6
CONTINUOUS
 62
     7
 10
330.527996235
 20
199.2063460748
 30
0.0
  0
VERTEX
  5
4DF
  8
0
  6
CONTINUOUS
 62
     7
 10
334.7935668755
 20
199.2543516557
 30
0.0
  0
VERTEX
  5
4E0
  8
0
  6
CONTINUOUS
 62
     7
 10
339.027606659
 20
199.3341861169
 30
0.0
  0
VERTEX
  5
4E1
  8
0
  6
CONTINUOUS
 62
     7
 10
343.214570694
 20
199.4455275933
 30
0.0
  0
VERTEX
  5
4E2
  8
0
  6
CONTINUOUS
 62
     7
 10
346.1163632203
 20
199.5422659318
 30
0.0
  0
VERTEX
  5
4E3
  8
0
  6
CONTINUOUS
 62
     7
 10
348.9821306992
 20
199.6541557709
 30
0.0
  0
VERTEX
  5
4E4
  8
0
  6
CONTINUOUS
 62
     7
 10
351.8065683175
 20
199.7809825341
 30
0.0
  0
SEQEND
  5
A6E
  8
0
  6
CONTINUOUS
 62
     7
  0
POLYLINE
  5
C9
  8
0
  6
CONTINUOUS
 62
     7
 66
     1
 10
0.0
 20
0.0
 30
0.0
  0
VERTEX
  5
4E5
  8
0
  6
CONTINUOUS
 62
     7
 10
292.5629190732
 20
208.2850156228
 30
0.0
  0
VERTEX
  5
4E6
  8
0
  6
CONTINUOUS
 62
     7
 10
292.8110293675
 20
206.7896066109
 30
0.0
  0
VERTEX
  5
4E7
  8
0
  6
CONTINUOUS
 62
     7
 10
293.2727031041
 20
205.3469119469
 30
0.0
  0
VERTEX
  5
4E8
  8
0
  6
CONTINUOUS
 62
     7
 10
293.941038065
 20
203.9996443192
 30
0.0
  0
VERTEX
  5
4E9
  8
0
  6
CONTINUOUS
 62
     7
 10
294.7984508801
 20
202.7854261796
 30
0.0
  0
VERTEX
  5
4EA
  8
0
  6
CONTINUOUS
 62
     7
 10
295.8266667653
 20
201.7424521844
 30
0.0
  0
VERTEX
  5
4EB
  8
0
  6
CONTINUOUS
 62
     7
 10
296.9984404374
 20
200.8977709214
 30
0.0
  0
VERTEX
  5
4EC
  8
0
  6
CONTINUOUS
 62
     7
 10
298.281633072
 20
200.2802548806
 30
0.0
  0
VERTEX
  5
4ED
  8
0
  6
CONTINUOUS
 62
     7
 10
299.643611126
 20
199.9009428422
 30
0.0
  0
VERTEX
  5
4EE
  8
0
  6
CONTINUOUS
 62
     7
 10
300.6867341328
 20
199.7809825341
 30
0.0
  0
SEQEND
  5
A6D
  8
0
  6
CONTINUOUS
 62
     7
  0
POLYLINE
  5
CA
  8
0
  6
CONTINUOUS
 62
     7
 66
     1
 10
0.0
 20
0.0
 30
0.0
  0
VERTEX
  5
4EF
  8
0
  6
CONTINUOUS
 62
     7
 10
291.2213198472
 20
222.8586373727
 30
0.0
  0
VERTEX
  5
4F0
  8
0
  6
CONTINUOUS
 62
     7
 10
291.5563158322
 20
219.2306337754
 30
0.0
  0
VERTEX
  5
4F1
  8
0
  6
CONTINUOUS
 62
     7
 10
291.8930522729
 20
215.5782399575
 30
0.0
  0
VERTEX
  5
4F2
  8
0
  6
CONTINUOUS
 62
     7
 10
292.2290198136
 20
211.9330225388
 30
0.0
  0
VERTEX
  5
4F3
  8
0
  6
CONTINUOUS
 62
     7
 10
292.5629190732
 20
208.2850156228
 30
0.0
  0
SEQEND
  5
A6C
  8
0
  6
CONTINUOUS
 62
     7
  0
POLYLINE
  5
CB
  8
0
  6
CONTINUOUS
 62
     7
 66
     1
 10
0.0
 20
0.0
 30
0.0
  0
VERTEX
  5
4F4
  8
0
  6
CONTINUOUS
 62
     7
 10
298.0240337182
 20
230.6505260865
 30
0.0
  0
VERTEX
  5
4F5
  8
0
  6
CONTINUOUS
 62
     7
 10
296.796654873
 20
230.6098161141
 30
0.0
  0
VERTEX
  5
4F6
  8
0
  6
CONTINUOUS
 62
     7
 10
295.6231943894
 20
230.3588686387
 30
0.0
  0
VERTEX
  5
4F7
  8
0
  6
CONTINUOUS
 62
     7
 10
294.5374421406
 20
229.9001870553
 30
0.0
  0
VERTEX
  5
4F8
  8
0
  6
CONTINUOUS
 62
     7
 10
293.5681156445
 20
229.2481599252
 30
0.0
  0
VERTEX
  5
4F9
  8
0
  6
CONTINUOUS
 62
     7
 10
292.7464417744
 20
228.4217892091
 30
0.0
  0
VERTEX
  5
4FA
  8
0
  6
CONTINUOUS
 62
     7
 10
292.0846394826
 20
227.4420676629
 30
0.0
  0
VERTEX
  5
4FB
  8
0
  6
CONTINUOUS
 62
     7
 10
291.5983549882
 20
226.3297853867
 30
0.0
  0
VERTEX
  5
4FC
  8
0
  6
CONTINUOUS
 62
     7
 10
291.2956110764
 20
225.1178679864
 30
0.0
  0
VERTEX
  5
4FD
  8
0
  6
CONTINUOUS
 62
     7
 10
291.1865822602
 20
224.0025220315
 30
0.0
  0
VERTEX
  5
4FE
  8
0
  6
CONTINUOUS
 62
     7
 10
291.2213198472
 20
222.8586373727
 30
0.0
  0
SEQEND
  5
A6B
  8
0
  6
CONTINUOUS
 62
     7
  0
POLYLINE
  5
CC
  8
0
  6
CONTINUOUS
 62
     7
 66
     1
 10
0.0
 20
0.0
 30
0.0
  0
VERTEX
  5
4FF
  8
0
  6
CONTINUOUS
 62
     7
 10
354.4693104554
 20
230.6505260865
 30
0.0
  0
VERTEX
  5
500
  8
0
  6
CONTINUOUS
 62
     7
 10
351.2858025361
 20
230.4917869965
 30
0.0
  0
VERTEX
  5
501
  8
0
  6
CONTINUOUS
 62
     7
 10
348.0472080041
 20
230.3521690766
 30
0.0
  0
VERTEX
  5
502
  8
0
  6
CONTINUOUS
 62
     7
 10
344.7607628632
 20
230.2319822709
 30
0.0
  0
VERTEX
  5
503
  8
0
  6
CONTINUOUS
 62
     7
 10
341.1167971421
 20
230.1230369012
 30
0.0
  0
VERTEX
  5
504
  8
0
  6
CONTINUOUS
 62
     7
 10
337.4336473275
 20
230.037992994
 30
0.0
  0
VERTEX
  5
505
  8
0
  6
CONTINUOUS
 62
     7
 10
333.7211005021
 20
229.977088968
 30
0.0
  0
VERTEX
  5
506
  8
0
  6
CONTINUOUS
 62
     7
 10
329.9887887765
 20
229.9404797951
 30
0.0
  0
VERTEX
  5
507
  8
0
  6
CONTINUOUS
 62
     7
 10
326.2466542054
 20
229.9282727639
 30
0.0
  0
VERTEX
  5
508
  8
0
  6
CONTINUOUS
 62
     7
 10
322.5045196343
 20
229.9404797951
 30
0.0
  0
VERTEX
  5
509
  8
0
  6
CONTINUOUS
 62
     7
 10
318.7721959878
 20
229.977088968
 30
0.0
  0
VERTEX
  5
50A
  8
0
  6
CONTINUOUS
 62
     7
 10
315.0596610833
 20
230.037992994
 30
0.0
  0
VERTEX
  5
50B
  8
0
  6
CONTINUOUS
 62
     7
 10
311.3764993478
 20
230.1230369012
 30
0.0
  0
VERTEX
  5
50C
  8
0
  6
CONTINUOUS
 62
     7
 10
307.7325336266
 20
230.2319822709
 30
0.0
  0
VERTEX
  5
50D
  8
0
  6
CONTINUOUS
 62
     7
 10
304.4461063672
 20
230.3521690766
 30
0.0
  0
VERTEX
  5
50E
  8
0
  6
CONTINUOUS
 62
     7
 10
301.2075237561
 20
230.4917869965
 30
0.0
  0
VERTEX
  5
50F
  8
0
  6
CONTINUOUS
 62
     7
 10
298.0240337182
 20
230.6505260865
 30
0.0
  0
SEQEND
  5
A6A
  8
0
  6
CONTINUOUS
 62
     7
  0
POLYLINE
  5
CD
  8
0
  6
CONTINUOUS
 62
     7
 66
     1
 10
0.0
 20
0.0
 30
0.0
  0
VERTEX
  5
510
  8
0
  6
CONTINUOUS
 62
     7
 10
360.5019442368
 20
208.1540284554
 30
0.0
  0
VERTEX
  5
511
  8
0
  6
CONTINUOUS
 62
     7
 10
360.2504722405
 20
206.6591201226
 30
0.0
  0
VERTEX
  5
512
  8
0
  6
CONTINUOUS
 62
     7
 10
359.785603695
 20
205.2175579469
 30
0.0
  0
VERTEX
  5
513
  8
0
  6
CONTINUOUS
 62
     7
 10
359.1143600274
 20
203.8720307748
 30
0.0
  0
VERTEX
  5
514
  8
0
  6
CONTINUOUS
 62
     7
 10
358.2544199753
 20
202.6600895325
 30
0.0
  0
VERTEX
  5
515
  8
0
  6
CONTINUOUS
 62
     7
 10
357.2241656113
 20
201.6198335091
 30
0.0
  0
VERTEX
  5
516
  8
0
  6
CONTINUOUS
 62
     7
 10
356.0509673882
 20
200.7782397668
 30
0.0
  0
VERTEX
  5
517
  8
0
  6
CONTINUOUS
 62
     7
 10
354.7669522095
 20
200.1640377442
 30
0.0
  0
VERTEX
  5
518
  8
0
  6
CONTINUOUS
 62
     7
 10
353.4048787881
 20
199.7882662217
 30
0.0
  0
VERTEX
  5
519
  8
0
  6
CONTINUOUS
 62
     7
 10
352.3808829117
 20
199.6719179551
 30
0.0
  0
SEQEND
  5
A69
  8
0
  6
CONTINUOUS
 62
     7
  0
POLYLINE
  5
CE
  8
0
  6
CONTINUOUS
 62
     7
 66
     1
 10
0.0
 20
0.0
 30
0.0
  0
VERTEX
  5
51A
  8
0
  6
CONTINUOUS
 62
     7
 10
300.1124195386
 20
199.6719179551
 30
0.0
  0
VERTEX
  5
51B
  8
0
  6
CONTINUOUS
 62
     7
 10
298.7121097375
 20
199.866741697
 30
0.0
  0
VERTEX
  5
51C
  8
0
  6
CONTINUOUS
 62
     7
 10
297.3634831238
 20
200.3090081612
 30
0.0
  0
VERTEX
  5
51D
  8
0
  6
CONTINUOUS
 62
     7
 10
296.1042217541
 20
200.9908614556
 30
0.0
  0
VERTEX
  5
51E
  8
0
  6
CONTINUOUS
 62
     7
 10
294.9666492272
 20
201.8896398942
 30
0.0
  0
VERTEX
  5
51F
  8
0
  6
CONTINUOUS
 62
     7
 10
293.9852408696
 20
202.9779253403
 30
0.0
  0
VERTEX
  5
520
  8
0
  6
CONTINUOUS
 62
     7
 10
293.1771091748
 20
204.2245088021
 30
0.0
  0
VERTEX
  5
521
  8
0
  6
CONTINUOUS
 62
     7
 10
292.5623826314
 20
205.5982408921
 30
0.0
  0
VERTEX
  5
522
  8
0
  6
CONTINUOUS
 62
     7
 10
292.153697424
 20
207.0554910104
 30
0.0
  0
VERTEX
  5
523
  8
0
  6
CONTINUOUS
 62
     7
 10
291.9913582135
 20
208.1540284554
 30
0.0
  0
SEQEND
  5
A68
  8
0
  6
CONTINUOUS
 62
     7
  0
POLYLINE
  5
CF
  8
0
  6
CONTINUOUS
 62
     7
 66
     1
 10
0.0
 20
0.0
 30
0.0
  0
VERTEX
  5
524
  8
0
  6
CONTINUOUS
 62
     7
 10
360.5019442368
 20
208.1540284554
 30
0.0
  0
VERTEX
  5
525
  8
0
  6
CONTINUOUS
 62
     7
 10
360.8416549493
 20
211.7763815324
 30
0.0
  0
VERTEX
  5
526
  8
0
  6
CONTINUOUS
 62
     7
 10
361.1815206338
 20
215.39476494
 30
0.0
  0
VERTEX
  5
527
  8
0
  6
CONTINUOUS
 62
     7
 10
361.5209452439
 20
218.9982710282
 30
0.0
  0
VERTEX
  5
528
  8
0
  6
CONTINUOUS
 62
     7
 10
361.8592254449
 20
222.57115225
 30
0.0
  0
SEQEND
  5
A67
  8
0
  6
CONTINUOUS
 62
     7
  0
POLYLINE
  5
D0
  8
0
  6
CONTINUOUS
 62
     7
 66
     1
 10
0.0
 20
0.0
 30
0.0
  0
VERTEX
  5
529
  8
0
  6
CONTINUOUS
 62
     7
 10
290.634071045
 20
222.5711880128
 30
0.0
  0
VERTEX
  5
52A
  8
0
  6
CONTINUOUS
 62
     7
 10
290.9723512459
 20
218.998306791
 30
0.0
  0
VERTEX
  5
52B
  8
0
  6
CONTINUOUS
 62
     7
 10
291.3117818165
 20
215.3947887818
 30
0.0
  0
VERTEX
  5
52C
  8
0
  6
CONTINUOUS
 62
     7
 10
291.6516415406
 20
211.7763934533
 30
0.0
  0
VERTEX
  5
52D
  8
0
  6
CONTINUOUS
 62
     7
 10
291.9913582135
 20
208.1540284554
 30
0.0
  0
SEQEND
  5
A66
  8
0
  6
CONTINUOUS
 62
     7
  0
POLYLINE
  5
D1
  8
0
  6
CONTINUOUS
 62
     7
 66
     1
 10
0.0
 20
0.0
 30
0.0
  0
VERTEX
  5
52E
  8
0
  6
CONTINUOUS
 62
     7
 10
358.1665150452
 20
229.7912655274
 30
0.0
  0
VERTEX
  5
52F
  8
0
  6
CONTINUOUS
 62
     7
 10
358.5602871705
 20
229.6236691872
 30
0.0
  0
VERTEX
  5
530
  8
0
  6
CONTINUOUS
 62
     7
 10
359.5272533227
 20
228.9692578713
 30
0.0
  0
VERTEX
  5
531
  8
0
  6
CONTINUOUS
 62
     7
 10
360.3466026116
 20
228.1405387322
 30
0.0
  0
VERTEX
  5
532
  8
0
  6
CONTINUOUS
 62
     7
 10
361.0059134293
 20
227.1586833398
 30
0.0
  0
VERTEX
  5
533
  8
0
  6
CONTINUOUS
 62
     7
 10
361.4895693589
 20
226.0445890824
 30
0.0
  0
VERTEX
  5
534
  8
0
  6
CONTINUOUS
 62
     7
 10
361.7896072198
 20
224.8312292496
 30
0.0
  0
VERTEX
  5
535
  8
0
  6
CONTINUOUS
 62
     7
 10
361.8962399293
 20
223.7152753274
 30
0.0
  0
VERTEX
  5
536
  8
0
  6
CONTINUOUS
 62
     7
 10
361.8592254449
 20
222.57115225
 30
0.0
  0
SEQEND
  5
A65
  8
0
  6
CONTINUOUS
 62
     7
  0
POLYLINE
  5
D2
  8
0
  6
CONTINUOUS
 62
     7
 66
     1
 10
0.0
 20
0.0
 30
0.0
  0
VERTEX
  5
537
  8
0
  6
CONTINUOUS
 62
     7
 10
290.634071045
 20
222.5711880128
 30
0.0
  0
VERTEX
  5
538
  8
0
  6
CONTINUOUS
 62
     7
 10
290.6040362645
 20
223.8830027978
 30
0.0
  0
VERTEX
  5
539
  8
0
  6
CONTINUOUS
 62
     7
 10
290.7631568242
 20
225.1531777779
 30
0.0
  0
VERTEX
  5
53A
  8
0
  6
CONTINUOUS
 62
     7
 10
291.1125413705
 20
226.3459978501
 30
0.0
  0
VERTEX
  5
53B
  8
0
  6
CONTINUOUS
 62
     7
 10
291.6445068646
 20
227.4312315385
 30
0.0
  0
VERTEX
  5
53C
  8
0
  6
CONTINUOUS
 62
     7
 10
292.3521987725
 20
228.3794460694
 30
0.0
  0
VERTEX
  5
53D
  8
0
  6
CONTINUOUS
 62
     7
 10
293.2168654729
 20
229.166632692
 30
0.0
  0
VERTEX
  5
53E
  8
0
  6
CONTINUOUS
 62
     7
 10
294.2156366635
 20
229.7679124276
 30
0.0
  0
VERTEX
  5
53F
  8
0
  6
CONTINUOUS
 62
     7
 10
294.3188659478
 20
229.8057256142
 30
0.0
  0
SEQEND
  5
A64
  8
0
  6
CONTINUOUS
 62
     7
  0
POLYLINE
  5
D3
  8
0
  6
CONTINUOUS
 62
     7
 66
     1
 10
0.0
 20
0.0
 30
0.0
  0
VERTEX
  5
540
  8
0
  6
CONTINUOUS
 62
     7
 10
300.1124195386
 20
199.6719179551
 30
0.0
  0
VERTEX
  5
541
  8
0
  6
CONTINUOUS
 62
     7
 10
303.0300013352
 20
199.5416698853
 30
0.0
  0
VERTEX
  5
542
  8
0
  6
CONTINUOUS
 62
     7
 10
305.9911183644
 20
199.4269428651
 30
0.0
  0
VERTEX
  5
543
  8
0
  6
CONTINUOUS
 62
     7
 10
308.9901916314
 20
199.3279395501
 30
0.0
  0
VERTEX
  5
544
  8
0
  6
CONTINUOUS
 62
     7
 10
313.2483593751
 20
199.2159662644
 30
0.0
  0
VERTEX
  5
545
  8
0
  6
CONTINUOUS
 62
     7
 10
317.5544134904
 20
199.1356907288
 30
0.0
  0
VERTEX
  5
546
  8
0
  6
CONTINUOUS
 62
     7
 10
321.8925110627
 20
199.0874109666
 30
0.0
  0
VERTEX
  5
547
  8
0
  6
CONTINUOUS
 62
     7
 10
326.2466542054
 20
199.0712938706
 30
0.0
  0
VERTEX
  5
548
  8
0
  6
CONTINUOUS
 62
     7
 10
330.6007854272
 20
199.0874109666
 30
0.0
  0
VERTEX
  5
549
  8
0
  6
CONTINUOUS
 62
     7
 10
334.9388829995
 20
199.1356907288
 30
0.0
  0
VERTEX
  5
54A
  8
0
  6
CONTINUOUS
 62
     7
 10
339.2449371148
 20
199.2159662644
 30
0.0
  0
VERTEX
  5
54B
  8
0
  6
CONTINUOUS
 62
     7
 10
343.5031048585
 20
199.3279395501
 30
0.0
  0
VERTEX
  5
54C
  8
0
  6
CONTINUOUS
 62
     7
 10
346.5021840859
 20
199.4269428651
 30
0.0
  0
VERTEX
  5
54D
  8
0
  6
CONTINUOUS
 62
     7
 10
349.4632951546
 20
199.5416698853
 30
0.0
  0
VERTEX
  5
54E
  8
0
  6
CONTINUOUS
 62
     7
 10
352.3808829117
 20
199.6719179551
 30
0.0
  0
SEQEND
  5
A63
  8
0
  6
CONTINUOUS
 62
     7
  0
ARC
  5
D4
  8
0
  6
CONTINUOUS
 62
     7
 10
234.9496791299
 20
224.4414118017
 30
0.0
 40
6.227668123549305
 50
13.1088160823
 51
94.4238426402
  0
ARC
  5
D5
  8
0
  6
CONTINUOUS
 62
     7
 10
177.5386856468
 20
224.4493982582
 30
0.0
 40
6.220092230680314
 50
85.5247304017
 51
167.0678867635
  0
POLYLINE
  5
D6
  8
0
  6
CONTINUOUS
 62
     7
 66
     1
 10
0.0
 20
0.0
 30
0.0
  0
VERTEX
  5
54F
  8
0
  6
CONTINUOUS
 62
     7
 10
234.4693146277
 20
230.6505260865
 30
0.0
  0
VERTEX
  5
550
  8
0
  6
CONTINUOUS
 62
     7
 10
231.2858096886
 20
230.4917869965
 30
0.0
  0
VERTEX
  5
551
  8
0
  6
CONTINUOUS
 62
     7
 10
228.0472106863
 20
230.3521690766
 30
0.0
  0
VERTEX
  5
552
  8
0
  6
CONTINUOUS
 62
     7
 10
224.7607655454
 20
230.2319822709
 30
0.0
  0
VERTEX
  5
553
  8
0
  6
CONTINUOUS
 62
     7
 10
221.116795354
 20
230.1230369012
 30
0.0
  0
VERTEX
  5
554
  8
0
  6
CONTINUOUS
 62
     7
 10
217.4336433042
 20
230.037992994
 30
0.0
  0
VERTEX
  5
555
  8
0
  6
CONTINUOUS
 62
     7
 10
213.7211009491
 20
229.977088968
 30
0.0
  0
VERTEX
  5
556
  8
0
  6
CONTINUOUS
 62
     7
 10
209.9887840081
 20
229.9404797951
 30
0.0
  0
VERTEX
  5
557
  8
0
  6
CONTINUOUS
 62
     7
 10
206.246649437
 20
229.9282727639
 30
0.0
  0
VERTEX
  5
558
  8
0
  6
CONTINUOUS
 62
     7
 10
202.5045148659
 20
229.9404797951
 30
0.0
  0
VERTEX
  5
559
  8
0
  6
CONTINUOUS
 62
     7
 10
198.7721979249
 20
229.977088968
 30
0.0
  0
VERTEX
  5
55A
  8
0
  6
CONTINUOUS
 62
     7
 10
195.0596555699
 20
230.037992994
 30
0.0
  0
VERTEX
  5
55B
  8
0
  6
CONTINUOUS
 62
     7
 10
191.3765035201
 20
230.1230369012
 30
0.0
  0
VERTEX
  5
55C
  8
0
  6
CONTINUOUS
 62
     7
 10
187.7325333286
 20
230.2319822709
 30
0.0
  0
VERTEX
  5
55D
  8
0
  6
CONTINUOUS
 62
     7
 10
184.446104579
 20
230.3521690766
 30
0.0
  0
VERTEX
  5
55E
  8
0
  6
CONTINUOUS
 62
     7
 10
181.2075249482
 20
230.4917869965
 30
0.0
  0
VERTEX
  5
55F
  8
0
  6
CONTINUOUS
 62
     7
 10
178.02403193
 20
230.6505260865
 30
0.0
  0
SEQEND
  5
A62
  8
0
  6
CONTINUOUS
 62
     7
  0
POLYLINE
  5
D7
  8
0
  6
CONTINUOUS
 62
     7
 66
     1
 10
0.0
 20
0.0
 30
0.0
  0
VERTEX
  5
560
  8
0
  6
CONTINUOUS
 62
     7
 10
238.1665162373
 20
229.7912655274
 30
0.0
  0
VERTEX
  5
561
  8
0
  6
CONTINUOUS
 62
     7
 10
238.5602824021
 20
229.6236691872
 30
0.0
  0
VERTEX
  5
562
  8
0
  6
CONTINUOUS
 62
     7
 10
239.5272485543
 20
228.9692578713
 30
0.0
  0
VERTEX
  5
563
  8
0
  6
CONTINUOUS
 62
     7
 10
240.3465978432
 20
228.1405387322
 30
0.0
  0
VERTEX
  5
564
  8
0
  6
CONTINUOUS
 62
     7
 10
241.0059116412
 20
227.1586833398
 30
0.0
  0
VERTEX
  5
565
  8
0
  6
CONTINUOUS
 62
     7
 10
241.4895645905
 20
226.0445890824
 30
0.0
  0
VERTEX
  5
566
  8
0
  6
CONTINUOUS
 62
     7
 10
241.6728578139
 20
225.3033576409
 30
0.0
  0
SEQEND
  5
A61
  8
0
  6
CONTINUOUS
 62
     7
  0
POLYLINE
  5
D8
  8
0
  6
CONTINUOUS
 62
     7
 66
     1
 10
0.0
 20
0.0
 30
0.0
  0
VERTEX
  5
567
  8
0
  6
CONTINUOUS
 62
     7
 10
170.8004138995
 20
225.2803860108
 30
0.0
  0
VERTEX
  5
568
  8
0
  6
CONTINUOUS
 62
     7
 10
171.1125395823
 20
226.3459978501
 30
0.0
  0
VERTEX
  5
569
  8
0
  6
CONTINUOUS
 62
     7
 10
171.6445080567
 20
227.4312315385
 30
0.0
  0
VERTEX
  5
56A
  8
0
  6
CONTINUOUS
 62
     7
 10
172.3521969844
 20
228.3794460694
 30
0.0
  0
VERTEX
  5
56B
  8
0
  6
CONTINUOUS
 62
     7
 10
173.2168696452
 20
229.166632692
 30
0.0
  0
VERTEX
  5
56C
  8
0
  6
CONTINUOUS
 62
     7
 10
174.2156348754
 20
229.7679124276
 30
0.0
  0
VERTEX
  5
56D
  8
0
  6
CONTINUOUS
 62
     7
 10
174.3188641596
 20
229.8057256142
 30
0.0
  0
SEQEND
  5
A60
  8
0
  6
CONTINUOUS
 62
     7
  0
ARC
  5
D9
  8
0
  6
CONTINUOUS
 62
     7
 10
114.9496782418
 20
224.44141303
 30
0.0
 40
6.227666968306065
 50
13.1088069541
 51
94.4238517684
  0
ARC
  5
DA
  8
0
  6
CONTINUOUS
 62
     7
 10
57.5386841943
 20
224.4493984027
 30
0.0
 40
6.220092525462235
 50
85.5246786433
 51
167.0678887532
  0
POLYLINE
  5
DB
  8
0
  6
CONTINUOUS
 62
     7
 66
     1
 10
0.0
 20
0.0
 30
0.0
  0
VERTEX
  5
56E
  8
0
  6
CONTINUOUS
 62
     7
 10
114.4693128396
 20
230.6505260865
 30
0.0
  0
VERTEX
  5
56F
  8
0
  6
CONTINUOUS
 62
     7
 10
111.2858108807
 20
230.4917869965
 30
0.0
  0
VERTEX
  5
570
  8
0
  6
CONTINUOUS
 62
     7
 10
108.0472103882
 20
230.3521690766
 30
0.0
  0
VERTEX
  5
571
  8
0
  6
CONTINUOUS
 62
     7
 10
104.7607652474
 20
230.2319822709
 30
0.0
  0
VERTEX
  5
572
  8
0
  6
CONTINUOUS
 62
     7
 10
101.1167995263
 20
230.1230369012
 30
0.0
  0
VERTEX
  5
573
  8
0
  6
CONTINUOUS
 62
     7
 10
97.4336377907
 20
230.037992994
 30
0.0
  0
VERTEX
  5
574
  8
0
  6
CONTINUOUS
 62
     7
 10
93.7211028863
 20
229.977088968
 30
0.0
  0
VERTEX
  5
575
  8
0
  6
CONTINUOUS
 62
     7
 10
89.9887792397
 20
229.9404797951
 30
0.0
  0
VERTEX
  5
576
  8
0
  6
CONTINUOUS
 62
     7
 10
86.2466446686
 20
229.9282727639
 30
0.0
  0
VERTEX
  5
577
  8
0
  6
CONTINUOUS
 62
     7
 10
82.5045100976
 20
229.9404797951
 30
0.0
  0
VERTEX
  5
578
  8
0
  6
CONTINUOUS
 62
     7
 10
78.772198372
 20
229.977088968
 30
0.0
  0
VERTEX
  5
579
  8
0
  6
CONTINUOUS
 62
     7
 10
75.0596515465
 20
230.037992994
 30
0.0
  0
VERTEX
  5
57A
  8
0
  6
CONTINUOUS
 62
     7
 10
71.3765017319
 20
230.1230369012
 30
0.0
  0
VERTEX
  5
57B
  8
0
  6
CONTINUOUS
 62
     7
 10
67.7325360108
 20
230.2319822709
 30
0.0
  0
VERTEX
  5
57C
  8
0
  6
CONTINUOUS
 62
     7
 10
64.4461027909
 20
230.3521690766
 30
0.0
  0
VERTEX
  5
57D
  8
0
  6
CONTINUOUS
 62
     7
 10
61.2075201798
 20
230.4917869965
 30
0.0
  0
VERTEX
  5
57E
  8
0
  6
CONTINUOUS
 62
     7
 10
58.0240361024
 20
230.6505260865
 30
0.0
  0
SEQEND
  5
A5F
  8
0
  6
CONTINUOUS
 62
     7
  0
POLYLINE
  5
DC
  8
0
  6
CONTINUOUS
 62
     7
 66
     1
 10
0.0
 20
0.0
 30
0.0
  0
VERTEX
  5
57F
  8
0
  6
CONTINUOUS
 62
     7
 10
118.1665174294
 20
229.7912655274
 30
0.0
  0
VERTEX
  5
580
  8
0
  6
CONTINUOUS
 62
     7
 10
118.5602835942
 20
229.6236691872
 30
0.0
  0
VERTEX
  5
581
  8
0
  6
CONTINUOUS
 62
     7
 10
119.5272497464
 20
228.9692578713
 30
0.0
  0
VERTEX
  5
582
  8
0
  6
CONTINUOUS
 62
     7
 10
120.3465990353
 20
228.1405387322
 30
0.0
  0
VERTEX
  5
583
  8
0
  6
CONTINUOUS
 62
     7
 10
121.005909853
 20
227.1586833398
 30
0.0
  0
VERTEX
  5
584
  8
0
  6
CONTINUOUS
 62
     7
 10
121.4895657826
 20
226.0445890824
 30
0.0
  0
VERTEX
  5
585
  8
0
  6
CONTINUOUS
 62
     7
 10
121.6728560258
 20
225.3033576409
 30
0.0
  0
SEQEND
  5
A5E
  8
0
  6
CONTINUOUS
 62
     7
  0
POLYLINE
  5
DD
  8
0
  6
CONTINUOUS
 62
     7
 66
     1
 10
0.0
 20
0.0
 30
0.0
  0
VERTEX
  5
586
  8
0
  6
CONTINUOUS
 62
     7
 10
50.8004180718
 20
225.2803860108
 30
0.0
  0
VERTEX
  5
587
  8
0
  6
CONTINUOUS
 62
     7
 10
51.1125437546
 20
226.3459978501
 30
0.0
  0
VERTEX
  5
588
  8
0
  6
CONTINUOUS
 62
     7
 10
51.6445032883
 20
227.4312315385
 30
0.0
  0
VERTEX
  5
589
  8
0
  6
CONTINUOUS
 62
     7
 10
52.3522011567
 20
228.3794460694
 30
0.0
  0
VERTEX
  5
58A
  8
0
  6
CONTINUOUS
 62
     7
 10
53.2168738175
 20
229.166632692
 30
0.0
  0
VERTEX
  5
58B
  8
0
  6
CONTINUOUS
 62
     7
 10
54.2156330872
 20
229.7679124276
 30
0.0
  0
VERTEX
  5
58C
  8
0
  6
CONTINUOUS
 62
     7
 10
54.318868332
 20
229.8057256142
 30
0.0
  0
SEQEND
  5
A5D
  8
0
  6
CONTINUOUS
 62
     7
  0
LINE
  5
DE
  8
0
  6
CONTINUOUS
 62
     7
 10
224.2466501523
 20
131.3305435578
 30
0.0
 11
224.2466501523
 21
137.7305446069
 31
0.0
  0
LINE
  5
DF
  8
0
  6
CONTINUOUS
 62
     7
 10
188.2466487218
 20
131.3305435578
 30
0.0
 11
188.2466487218
 21
137.7305446069
 31
0.0
  0
LINE
  5
E0
  8
0
  6
CONTINUOUS
 62
     7
 10
221.2466500331
 20
128.3305404584
 30
0.0
 11
191.246648841
 21
128.3305404584
 31
0.0
  0
ARC
  5
E1
  8
0
  6
CONTINUOUS
 62
     7
 10
191.246649437
 20
131.3305420319
 30
0.0
 40
3.0
 50
180.0
 51
270.0
  0
ARC
  5
E2
  8
0
  6
CONTINUOUS
 62
     7
 10
221.246649437
 20
131.3305420319
 30
0.0
 40
3.0
 50
270.0
 51
0.0
  0
LINE
  5
E3
  8
0
  6
CONTINUOUS
 62
     7
 10
188.2466487218
 20
138.7305436532
 30
0.0
 11
224.2466501523
 21
138.7305436532
 31
0.0
  0
LINE
  5
E4
  8
0
  6
CONTINUOUS
 62
     7
 10
224.2466501523
 20
138.7305436532
 30
0.0
 11
224.2466501523
 21
137.7305446069
 31
0.0
  0
LINE
  5
E5
  8
0
  6
CONTINUOUS
 62
     7
 10
188.2466487218
 20
137.7305446069
 30
0.0
 11
188.2466487218
 21
138.7305436532
 31
0.0
  0
LINE
  5
E6
  8
0
  6
CONTINUOUS
 62
     7
 10
203.2466495041
 20
148.4518287579
 30
0.0
 11
203.2466495041
 21
152.7258990208
 31
0.0
  0
LINE
  5
E7
  8
0
  6
CONTINUOUS
 62
     7
 10
209.24664937
 20
152.7258990208
 30
0.0
 11
209.24664937
 21
148.4518287579
 31
0.0
  0
LINE
  5
E8
  8
0
  6
CONTINUOUS
 62
     7
 10
209.24664937
 20
148.4518287579
 30
0.0
 11
209.24664937
 21
138.7305436532
 31
0.0
  0
LINE
  5
E9
  8
0
  6
CONTINUOUS
 62
     7
 10
203.2466495041
 20
138.7305436532
 30
0.0
 11
203.2466495041
 21
148.4518287579
 31
0.0
  0
LINE
  5
EA
  8
0
  6
CONTINUOUS
 62
     7
 10
203.2466495041
 20
152.7258990208
 30
0.0
 11
203.2466495041
 21
153.8187621037
 31
0.0
  0
LINE
  5
EB
  8
0
  6
CONTINUOUS
 62
     7
 10
209.24664937
 20
153.8339732091
 30
0.0
 11
209.24664937
 21
152.7258990208
 31
0.0
  0
LINE
  5
EC
  8
0
  6
CONTINUOUS
 62
     7
 10
68.2466499139
 20
137.7305446069
 30
0.0
 11
68.2466499139
 21
138.7305436532
 31
0.0
  0
LINE
  5
ED
  8
0
  6
CONTINUOUS
 62
     7
 10
68.2466499139
 20
138.7305436532
 30
0.0
 11
104.2466513444
 21
138.7305436532
 31
0.0
  0
LINE
  5
EE
  8
0
  6
CONTINUOUS
 62
     7
 10
104.2466513444
 20
138.7305436532
 30
0.0
 11
104.2466513444
 21
137.7305446069
 31
0.0
  0
LINE
  5
EF
  8
0
  6
CONTINUOUS
 62
     7
 10
101.2466542054
 20
128.3305404584
 30
0.0
 11
71.2466470528
 21
128.3305404584
 31
0.0
  0
ARC
  5
F0
  8
0
  6
CONTINUOUS
 62
     7
 10
71.246649437
 20
131.3305420319
 30
0.0
 40
3.000000000000014
 50
180.0
 51
270.0
  0
LINE
  5
F1
  8
0
  6
CONTINUOUS
 62
     7
 10
68.2466499139
 20
131.3305435578
 30
0.0
 11
68.2466499139
 21
137.7305446069
 31
0.0
  0
ARC
  5
F2
  8
0
  6
CONTINUOUS
 62
     7
 10
101.246649437
 20
131.3305420319
 30
0.0
 40
3.0
 50
270.0
 51
0.0
  0
LINE
  5
F3
  8
0
  6
CONTINUOUS
 62
     7
 10
104.2466513444
 20
131.3305435578
 30
0.0
 11
104.2466513444
 21
137.7305446069
 31
0.0
  0
LINE
  5
F4
  8
0
  6
CONTINUOUS
 62
     7
 10
83.2466475297
 20
148.4518287579
 30
0.0
 11
83.2466475297
 21
152.7258990208
 31
0.0
  0
LINE
  5
F5
  8
0
  6
CONTINUOUS
 62
     7
 10
89.2466537286
 20
152.7258990208
 30
0.0
 11
89.2466537286
 21
148.4518287579
 31
0.0
  0
LINE
  5
F6
  8
0
  6
CONTINUOUS
 62
     7
 10
83.2466475297
 20
138.7305436532
 30
0.0
 11
83.2466475297
 21
148.4518287579
 31
0.0
  0
LINE
  5
F7
  8
0
  6
CONTINUOUS
 62
     7
 10
89.2466537286
 20
148.4518287579
 30
0.0
 11
89.2466537286
 21
138.7305436532
 31
0.0
  0
LINE
  5
F8
  8
0
  6
CONTINUOUS
 62
     7
 10
83.2466475297
 20
152.7258990208
 30
0.0
 11
83.2466475297
 21
153.8187621037
 31
0.0
  0
LINE
  5
F9
  8
0
  6
CONTINUOUS
 62
     7
 10
89.2466537286
 20
153.8339732091
 30
0.0
 11
89.2466537286
 21
152.7258990208
 31
0.0
  0
ARC
  5
FA
  8
0
  6
CONTINUOUS
 62
     7
 10
341.246649437
 20
131.3305420319
 30
0.0
 40
3.0
 50
270.0
 51
0.0
  0
LINE
  5
FB
  8
0
  6
CONTINUOUS
 62
     7
 10
341.2466518212
 20
128.3305404584
 30
0.0
 11
311.2466446686
 21
128.3305404584
 31
0.0
  0
ARC
  5
FC
  8
0
  6
CONTINUOUS
 62
     7
 10
311.246649437
 20
131.3305420319
 30
0.0
 40
3.0
 50
180.0
 51
270.0
  0
LINE
  5
FD
  8
0
  6
CONTINUOUS
 62
     7
 10
308.2466475297
 20
131.3305435578
 30
0.0
 11
308.2466475297
 21
137.7305446069
 31
0.0
  0
LINE
  5
FE
  8
0
  6
CONTINUOUS
 62
     7
 10
344.2466489602
 20
131.3305435578
 30
0.0
 11
344.2466489602
 21
137.7305446069
 31
0.0
  0
LINE
  5
FF
  8
0
  6
CONTINUOUS
 62
     7
 10
308.2466475297
 20
138.7305436532
 30
0.0
 11
344.2466489602
 21
138.7305436532
 31
0.0
  0
LINE
  5
100
  8
0
  6
CONTINUOUS
 62
     7
 10
344.2466489602
 20
138.7305436532
 30
0.0
 11
344.2466489602
 21
137.7305446069
 31
0.0
  0
LINE
  5
101
  8
0
  6
CONTINUOUS
 62
     7
 10
308.2466475297
 20
137.7305446069
 30
0.0
 11
308.2466475297
 21
138.7305436532
 31
0.0
  0
LINE
  5
102
  8
0
  6
CONTINUOUS
 62
     7
 10
329.2466513444
 20
147.9055819909
 30
0.0
 11
329.2466513444
 21
138.7305436532
 31
0.0
  0
LINE
  5
103
  8
0
  6
CONTINUOUS
 62
     7
 10
323.2466451455
 20
138.7305436532
 30
0.0
 11
323.2466451455
 21
147.9087589185
 31
0.0
  0
LINE
  5
104
  8
0
  6
CONTINUOUS
 62
     7
 10
323.2466451455
 20
153.0285952489
 30
0.0
 11
323.2466451455
 21
193.8322124879
 31
0.0
  0
LINE
  5
105
  8
0
  6
CONTINUOUS
 62
     7
 10
329.2466513444
 20
193.8322124879
 30
0.0
 11
329.2466513444
 21
153.0320761601
 31
0.0
  0
LINE
  5
106
  8
0
  6
CONTINUOUS
 62
     7
 10
323.2466451455
 20
193.8322124879
 30
0.0
 11
323.2466451455
 21
195.3784404198
 31
0.0
  0
LINE
  5
107
  8
0
  6
CONTINUOUS
 62
     7
 10
329.2466513444
 20
195.3784404198
 30
0.0
 11
329.2466513444
 21
193.8322124879
 31
0.0
  0
LINE
  5
108
  8
0
  6
CONTINUOUS
 62
     7
 10
323.2466451455
 20
195.3784404198
 30
0.0
 11
323.2466451455
 21
199.0824041764
 31
0.0
  0
LINE
  5
109
  8
0
  6
CONTINUOUS
 62
     7
 10
329.2466513444
 20
199.0824041764
 30
0.0
 11
329.2466513444
 21
195.3784404198
 31
0.0
  0
ARC
  5
10A
  8
0
  6
CONTINUOUS
 62
     7
 10
86.2466476489
 20
227.6987650614
 30
0.0
 40
73.93766739022541
 50
244.5871832169
 51
295.4128167831
  0
LINE
  5
10B
  8
0
  6
CONTINUOUS
 62
     7
 10
54.7341458131
 20
227.0659623544
 30
0.0
 11
54.8434845734
 21
227.0763097207
 31
0.0
  0
LINE
  5
10C
  8
0
  6
CONTINUOUS
 62
     7
 10
117.6498107243
 20
227.0763097207
 30
0.0
 11
117.7591494847
 21
227.0659623544
 31
0.0
  0
ARC
  5
10D
  8
0
  6
CONTINUOUS
 62
     7
 10
86.2466476489
 20
-105.0878860644
 30
0.0
 40
333.645345826027
 50
84.5803871394
 51
95.4196128606
  0
POLYLINE
  5
10E
  8
0
  6
CONTINUOUS
 62
     7
 66
     1
 10
0.0
 20
0.0
 30
0.0
  0
VERTEX
  5
58D
  8
0
  6
CONTINUOUS
 62
     7
 10
117.976050787
 20
160.9153566758
 30
0.0
  0
VERTEX
  5
58E
  8
0
  6
CONTINUOUS
 62
     7
 10
118.9769081402
 20
161.4991484086
 30
0.0
  0
VERTEX
  5
58F
  8
0
  6
CONTINUOUS
 62
     7
 10
119.4701902199
 20
161.9120238225
 30
0.0
  0
SEQEND
  5
A5C
  8
0
  6
CONTINUOUS
 62
     7
  0
POLYLINE
  5
10F
  8
0
  6
CONTINUOUS
 62
     7
 66
     1
 10
0.0
 20
0.0
 30
0.0
  0
VERTEX
  5
590
  8
0
  6
CONTINUOUS
 62
     7
 10
53.0075303841
 20
161.9260905186
 30
0.0
  0
VERTEX
  5
591
  8
0
  6
CONTINUOUS
 62
     7
 10
53.3841125298
 20
161.5942714612
 30
0.0
  0
VERTEX
  5
592
  8
0
  6
CONTINUOUS
 62
     7
 10
54.5172445107
 20
160.9153566758
 30
0.0
  0
SEQEND
  5
A5B
  8
0
  6
CONTINUOUS
 62
     7
  0
LINE
  5
110
  8
0
  6
CONTINUOUS
 62
     7
 10
48.6466519166
 20
198.5589323441
 30
0.0
 11
48.6497155953
 21
197.530537645
 31
0.0
  0
LINE
  5
111
  8
0
  6
CONTINUOUS
 62
     7
 10
48.6466519166
 20
208.5583029191
 30
0.0
 11
48.6466519166
 21
198.5589323441
 31
0.0
  0
POLYLINE
  5
112
  8
0
  6
CONTINUOUS
 62
     7
 66
     1
 10
0.0
 20
0.0
 30
0.0
  0
VERTEX
  5
593
  8
0
  6
CONTINUOUS
 62
     7
 10
48.646580391
 20
220.219510595
 30
0.0
  0
VERTEX
  5
594
  8
0
  6
CONTINUOUS
 62
     7
 10
48.6466161538
 20
219.0151987473
 30
0.0
  0
VERTEX
  5
595
  8
0
  6
CONTINUOUS
 62
     7
 10
48.646747284
 20
217.8016243378
 30
0.0
  0
VERTEX
  5
596
  8
0
  6
CONTINUOUS
 62
     7
 10
48.6471883584
 20
215.4964862267
 30
0.0
  0
VERTEX
  5
597
  8
0
  6
CONTINUOUS
 62
     7
 10
48.647581749
 20
213.1885586182
 30
0.0
  0
VERTEX
  5
598
  8
0
  6
CONTINUOUS
 62
     7
 10
48.6466519166
 20
208.5583029191
 30
0.0
  0
SEQEND
  5
A5A
  8
0
  6
CONTINUOUS
 62
     7
  0
ARC
  5
113
  8
0
  6
CONTINUOUS
 62
     7
 10
55.4054180054
 20
220.3394486244
 30
0.0
 40
6.759925540703434
 50
95.6989614911
 51
181.0166241387
  0
ARC
  5
114
  8
0
  6
CONTINUOUS
 62
     7
 10
117.0938650879
 20
220.3447842356
 30
0.0
 40
6.754023884491093
 50
358.9453084878
 51
84.3470884531
  0
POLYLINE
  5
115
  8
0
  6
CONTINUOUS
 62
     7
 66
     1
 10
0.0
 20
0.0
 30
0.0
  0
VERTEX
  5
599
  8
0
  6
CONTINUOUS
 62
     7
 10
123.8448314
 20
197.530537645
 30
0.0
  0
VERTEX
  5
59A
  8
0
  6
CONTINUOUS
 62
     7
 10
123.8466493416
 20
198.5589323441
 30
0.0
  0
VERTEX
  5
59B
  8
0
  6
CONTINUOUS
 62
     7
 10
123.8502136994
 20
200.9894667069
 30
0.0
  0
VERTEX
  5
59C
  8
0
  6
CONTINUOUS
 62
     7
 10
123.8488010693
 20
205.8507500092
 30
0.0
  0
VERTEX
  5
59D
  8
0
  6
CONTINUOUS
 62
     7
 10
123.8464109231
 20
209.4426093499
 30
0.0
  0
VERTEX
  5
59E
  8
0
  6
CONTINUOUS
 62
     7
 10
123.8457016278
 20
213.0339918534
 30
0.0
  0
VERTEX
  5
59F
  8
0
  6
CONTINUOUS
 62
     7
 10
123.8460592557
 20
215.4372392098
 30
0.0
  0
VERTEX
  5
5A0
  8
0
  6
CONTINUOUS
 62
     7
 10
123.8465062905
 20
217.8389249245
 30
0.0
  0
VERTEX
  5
5A1
  8
0
  6
CONTINUOUS
 62
     7
 10
123.8467208672
 20
220.2204642693
 30
0.0
  0
SEQEND
  5
A59
  8
0
  6
CONTINUOUS
 62
     7
  0
LINE
  5
116
  8
0
  6
CONTINUOUS
 62
     7
 10
54.7938339043
 20
160.7929466168
 30
0.0
 11
54.9140445519
 21
160.7281682889
 31
0.0
  0
LINE
  5
117
  8
0
  6
CONTINUOUS
 62
     7
 10
117.5792507458
 20
160.7281682889
 30
0.0
 11
117.6888934899
 21
160.7872603337
 31
0.0
  0
LINE
  5
118
  8
0
  6
CONTINUOUS
 62
     7
 10
117.9932407666
 20
227.0263014237
 30
0.0
 11
117.6498107243
 21
227.0763097207
 31
0.0
  0
POLYLINE
  5
119
  8
0
  6
CONTINUOUS
 62
     7
 66
     1
 10
0.0
 20
0.0
 30
0.0
  0
VERTEX
  5
5A2
  8
0
  6
CONTINUOUS
 62
     7
 10
288.6465780068
 20
153.4695921342
 30
0.0
  0
VERTEX
  5
5A3
  8
0
  6
CONTINUOUS
 62
     7
 10
288.6466137696
 20
153.6365328233
 30
0.0
  0
VERTEX
  5
5A4
  8
0
  6
CONTINUOUS
 62
     7
 10
288.6467448998
 20
153.7483094136
 30
0.0
  0
VERTEX
  5
5A5
  8
0
  6
CONTINUOUS
 62
     7
 10
288.6471919347
 20
153.8458762566
 30
0.0
  0
VERTEX
  5
5A6
  8
0
  6
CONTINUOUS
 62
     7
 10
288.6473826695
 20
153.8399813573
 30
0.0
  0
SEQEND
  5
A58
  8
0
  6
CONTINUOUS
 62
     7
  0
POLYLINE
  5
11A
  8
0
  6
CONTINUOUS
 62
     7
 66
     1
 10
0.0
 20
0.0
 30
0.0
  0
VERTEX
  5
5A7
  8
0
  6
CONTINUOUS
 62
     7
 10
294.7341493893
 20
149.9398706357
 30
0.0
  0
VERTEX
  5
5A8
  8
0
  6
CONTINUOUS
 62
     7
 10
293.6107568074
 20
150.1522539059
 30
0.0
  0
VERTEX
  5
5A9
  8
0
  6
CONTINUOUS
 62
     7
 10
292.5628713895
 20
150.4873154561
 30
0.0
  0
VERTEX
  5
5AA
  8
0
  6
CONTINUOUS
 62
     7
 10
291.7480639744
 20
150.8495567242
 30
0.0
  0
VERTEX
  5
5AB
  8
0
  6
CONTINUOUS
 62
     7
 10
291.017638855
 20
151.2564180295
 30
0.0
  0
VERTEX
  5
5AC
  8
0
  6
CONTINUOUS
 62
     7
 10
290.2519575883
 20
151.777338783
 30
0.0
  0
VERTEX
  5
5AD
  8
0
  6
CONTINUOUS
 62
     7
 10
289.6215848256
 20
152.2904632489
 30
0.0
  0
VERTEX
  5
5AE
  8
0
  6
CONTINUOUS
 62
     7
 10
289.241295271
 20
152.6447592179
 30
0.0
  0
VERTEX
  5
5AF
  8
0
  6
CONTINUOUS
 62
     7
 10
288.9467171956
 20
152.956592838
 30
0.0
  0
VERTEX
  5
5B0
  8
0
  6
CONTINUOUS
 62
     7
 10
288.7483112145
 20
153.2131848733
 30
0.0
  0
VERTEX
  5
5B1
  8
0
  6
CONTINUOUS
 62
     7
 10
288.646554165
 20
153.4695980946
 30
0.0
  0
SEQEND
  5
A57
  8
0
  6
CONTINUOUS
 62
     7
  0
POLYLINE
  5
11B
  8
0
  6
CONTINUOUS
 62
     7
 66
     1
 10
0.0
 20
0.0
 30
0.0
  0
VERTEX
  5
5B2
  8
0
  6
CONTINUOUS
 62
     7
 10
357.759153061
 20
149.9398706357
 30
0.0
  0
VERTEX
  5
5B3
  8
0
  6
CONTINUOUS
 62
     7
 10
350.7159106064
 20
149.1538463036
 30
0.0
  0
VERTEX
  5
5B4
  8
0
  6
CONTINUOUS
 62
     7
 10
343.6452738572
 20
148.536306421
 30
0.0
  0
VERTEX
  5
5B5
  8
0
  6
CONTINUOUS
 62
     7
 10
336.5196816254
 20
148.1141863267
 30
0.0
  0
VERTEX
  5
5B6
  8
0
  6
CONTINUOUS
 62
     7
 10
329.3800703812
 20
147.9057131211
 30
0.0
  0
VERTEX
  5
5B7
  8
0
  6
CONTINUOUS
 62
     7
 10
323.6062161256
 20
147.900104324
 30
0.0
  0
VERTEX
  5
5B8
  8
0
  6
CONTINUOUS
 62
     7
 10
317.8334466744
 20
148.0390606324
 30
0.0
  0
VERTEX
  5
5B9
  8
0
  6
CONTINUOUS
 62
     7
 10
312.0696059991
 20
148.3193872372
 30
0.0
  0
VERTEX
  5
5BA
  8
0
  6
CONTINUOUS
 62
     7
 10
306.2743775178
 20
148.7399695317
 30
0.0
  0
VERTEX
  5
5BB
  8
0
  6
CONTINUOUS
 62
     7
 10
300.4943541814
 20
149.2855666081
 30
0.0
  0
VERTEX
  5
5BC
  8
0
  6
CONTINUOUS
 62
     7
 10
294.7341493893
 20
149.9398706357
 30
0.0
  0
SEQEND
  5
A56
  8
0
  6
CONTINUOUS
 62
     7
  0
POLYLINE
  5
11C
  8
0
  6
CONTINUOUS
 62
     7
 66
     1
 10
0.0
 20
0.0
 30
0.0
  0
VERTEX
  5
5BD
  8
0
  6
CONTINUOUS
 62
     7
 10
363.8467423249
 20
153.4694371621
 30
0.0
  0
VERTEX
  5
5BE
  8
0
  6
CONTINUOUS
 62
     7
 10
363.7575856972
 20
153.2336829106
 30
0.0
  0
VERTEX
  5
5BF
  8
0
  6
CONTINUOUS
 62
     7
 10
363.5017744828
 20
152.9082534711
 30
0.0
  0
VERTEX
  5
5C0
  8
0
  6
CONTINUOUS
 62
     7
 10
363.1019584466
 20
152.5009689729
 30
0.0
  0
VERTEX
  5
5C1
  8
0
  6
CONTINUOUS
 62
     7
 10
362.5707499314
 20
152.0348189275
 30
0.0
  0
VERTEX
  5
5C2
  8
0
  6
CONTINUOUS
 62
     7
 10
361.8373743821
 20
151.4898834626
 30
0.0
  0
VERTEX
  5
5C3
  8
0
  6
CONTINUOUS
 62
     7
 10
360.959827118
 20
150.9604630868
 30
0.0
  0
VERTEX
  5
5C4
  8
0
  6
CONTINUOUS
 62
     7
 10
360.0815526772
 20
150.5480466286
 30
0.0
  0
VERTEX
  5
5C5
  8
0
  6
CONTINUOUS
 62
     7
 10
359.1092578698
 20
150.2121923367
 30
0.0
  0
VERTEX
  5
5C6
  8
0
  6
CONTINUOUS
 62
     7
 10
358.4456316758
 20
150.0514207284
 30
0.0
  0
VERTEX
  5
5C7
  8
0
  6
CONTINUOUS
 62
     7
 10
357.759153061
 20
149.9398706357
 30
0.0
  0
SEQEND
  5
A55
  8
0
  6
CONTINUOUS
 62
     7
  0
POLYLINE
  5
11D
  8
0
  6
CONTINUOUS
 62
     7
 66
     1
 10
0.0
 20
0.0
 30
0.0
  0
VERTEX
  5
5C8
  8
0
  6
CONTINUOUS
 62
     7
 10
363.8459078599
 20
153.8415012757
 30
0.0
  0
VERTEX
  5
5C9
  8
0
  6
CONTINUOUS
 62
     7
 10
363.8460628319
 20
153.8504002492
 30
0.0
  0
VERTEX
  5
5CA
  8
0
  6
CONTINUOUS
 62
     7
 10
363.8465039063
 20
153.7524757783
 30
0.0
  0
VERTEX
  5
5CB
  8
0
  6
CONTINUOUS
 62
     7
 10
363.846718483
 20
153.4694312016
 30
0.0
  0
SEQEND
  5
A54
  8
0
  6
CONTINUOUS
 62
     7
  0
POLYLINE
  5
11E
  8
0
  6
CONTINUOUS
 62
     7
 66
     1
 10
0.0
 20
0.0
 30
0.0
  0
VERTEX
  5
5CC
  8
0
  6
CONTINUOUS
 62
     7
 10
291.040300541
 20
154.8452256123
 30
0.0
  0
VERTEX
  5
5CD
  8
0
  6
CONTINUOUS
 62
     7
 10
290.2659169961
 20
154.8472283284
 30
0.0
  0
VERTEX
  5
5CE
  8
0
  6
CONTINUOUS
 62
     7
 10
290.0698296357
 20
154.8481045167
 30
0.0
  0
SEQEND
  5
A53
  8
0
  6
CONTINUOUS
 62
     7
  0
POLYLINE
  5
11F
  8
0
  6
CONTINUOUS
 62
     7
 66
     1
 10
0.0
 20
0.0
 30
0.0
  0
VERTEX
  5
5CF
  8
0
  6
CONTINUOUS
 62
     7
 10
288.7932352353
 20
155.0028500954
 30
0.0
  0
VERTEX
  5
5D0
  8
0
  6
CONTINUOUS
 62
     7
 10
288.7833527852
 20
154.949986736
 30
0.0
  0
VERTEX
  5
5D1
  8
0
  6
CONTINUOUS
 62
     7
 10
288.7548438836
 20
154.6941576401
 30
0.0
  0
SEQEND
  5
A52
  8
0
  6
CONTINUOUS
 62
     7
  0
ARC
  5
120
  8
0
  6
CONTINUOUS
 62
     7
 10
289.8629472966
 20
140.2830037415
 30
0.0
 40
14.60969668670736
 50
75.6822755447
 51
85.3777097861
  0
ARC
  5
121
  8
0
  6
CONTINUOUS
 62
     7
 10
362.470566404
 20
141.0701030063
 30
0.0
 40
13.81261302932086
 50
94.2247381702
 51
104.9751728166
  0
POLYLINE
  5
122
  8
0
  6
CONTINUOUS
 62
     7
 66
     1
 10
0.0
 20
0.0
 30
0.0
  0
VERTEX
  5
5D2
  8
0
  6
CONTINUOUS
 62
     7
 10
361.4530078698
 20
154.8451838891
 30
0.0
  0
VERTEX
  5
5D3
  8
0
  6
CONTINUOUS
 62
     7
 10
362.3107783127
 20
154.8475561539
 30
0.0
  0
VERTEX
  5
5D4
  8
0
  6
CONTINUOUS
 62
     7
 10
362.4310008813
 20
154.8480925957
 30
0.0
  0
SEQEND
  5
A51
  8
0
  6
CONTINUOUS
 62
     7
  0
POLYLINE
  5
123
  8
0
  6
CONTINUOUS
 62
     7
 66
     1
 10
0.0
 20
0.0
 30
0.0
  0
VERTEX
  5
5D5
  8
0
  6
CONTINUOUS
 62
     7
 10
363.6589042473
 20
154.844605724
 30
0.0
  0
VERTEX
  5
5D6
  8
0
  6
CONTINUOUS
 62
     7
 10
363.6684290696
 20
154.832953016
 30
0.0
  0
VERTEX
  5
5D7
  8
0
  6
CONTINUOUS
 62
     7
 10
363.6809102822
 20
154.8571226994
 30
0.0
  0
VERTEX
  5
5D8
  8
0
  6
CONTINUOUS
 62
     7
 10
363.6824242402
 20
154.9145994584
 30
0.0
  0
VERTEX
  5
5D9
  8
0
  6
CONTINUOUS
 62
     7
 10
363.6838785935
 20
154.9854872624
 30
0.0
  0
SEQEND
  5
A50
  8
0
  6
CONTINUOUS
 62
     7
  0
POLYLINE
  5
124
  8
0
  6
CONTINUOUS
 62
     7
 66
     1
 10
0.0
 20
0.0
 30
0.0
  0
VERTEX
  5
5DA
  8
0
  6
CONTINUOUS
 62
     7
 10
363.6856667329
 20
155.0089059274
 30
0.0
  0
VERTEX
  5
5DB
  8
0
  6
CONTINUOUS
 62
     7
 10
363.6876813698
 20
155.0355432431
 30
0.0
  0
VERTEX
  5
5DC
  8
0
  6
CONTINUOUS
 62
     7
 10
363.6964194108
 20
155.0290820996
 30
0.0
  0
VERTEX
  5
5DD
  8
0
  6
CONTINUOUS
 62
     7
 10
363.7127033997
 20
154.9295721452
 30
0.0
  0
VERTEX
  5
5DE
  8
0
  6
CONTINUOUS
 62
     7
 10
363.7384526063
 20
154.6941576401
 30
0.0
  0
SEQEND
  5
A4F
  8
0
  6
CONTINUOUS
 62
     7
  0
POLYLINE
  5
125
  8
0
  6
CONTINUOUS
 62
     7
 66
     1
 10
0.0
 20
0.0
 30
0.0
  0
VERTEX
  5
5DF
  8
0
  6
CONTINUOUS
 62
     7
 10
363.7384526063
 20
154.6941576401
 30
0.0
  0
VERTEX
  5
5E0
  8
0
  6
CONTINUOUS
 62
     7
 10
363.6640660096
 20
154.4798908631
 30
0.0
  0
VERTEX
  5
5E1
  8
0
  6
CONTINUOUS
 62
     7
 10
363.4194604684
 20
154.1862306992
 30
0.0
  0
VERTEX
  5
5E2
  8
0
  6
CONTINUOUS
 62
     7
 10
363.0171887208
 20
153.8137910764
 30
0.0
  0
VERTEX
  5
5E3
  8
0
  6
CONTINUOUS
 62
     7
 10
362.4736301232
 20
153.3826170365
 30
0.0
  0
VERTEX
  5
5E4
  8
0
  6
CONTINUOUS
 62
     7
 10
361.7427102853
 20
152.8872130315
 30
0.0
  0
VERTEX
  5
5E5
  8
0
  6
CONTINUOUS
 62
     7
 10
360.8701340485
 20
152.4011609952
 30
0.0
  0
VERTEX
  5
5E6
  8
0
  6
CONTINUOUS
 62
     7
 10
359.9782101441
 20
152.0105419556
 30
0.0
  0
VERTEX
  5
5E7
  8
0
  6
CONTINUOUS
 62
     7
 10
358.9927307893
 20
151.6917345921
 30
0.0
  0
VERTEX
  5
5E8
  8
0
  6
CONTINUOUS
 62
     7
 10
358.3320252228
 20
151.5414951245
 30
0.0
  0
VERTEX
  5
5E9
  8
0
  6
CONTINUOUS
 62
     7
 10
357.6498143006
 20
151.4370320241
 30
0.0
  0
SEQEND
  5
A4E
  8
0
  6
CONTINUOUS
 62
     7
  0
POLYLINE
  5
126
  8
0
  6
CONTINUOUS
 62
     7
 66
     1
 10
0.0
 20
0.0
 30
0.0
  0
VERTEX
  5
5EA
  8
0
  6
CONTINUOUS
 62
     7
 10
357.6498143006
 20
151.4370320241
 30
0.0
  0
VERTEX
  5
5EB
  8
0
  6
CONTINUOUS
 62
     7
 10
352.585207634
 20
150.8872507016
 30
0.0
  0
VERTEX
  5
5EC
  8
0
  6
CONTINUOUS
 62
     7
 10
347.607099228
 20
150.423395435
 30
0.0
  0
VERTEX
  5
5ED
  8
0
  6
CONTINUOUS
 62
     7
 10
342.6147810746
 20
150.0441728036
 30
0.0
  0
VERTEX
  5
5EE
  8
0
  6
CONTINUOUS
 62
     7
 10
337.568306141
 20
149.7565505902
 30
0.0
  0
VERTEX
  5
5EF
  8
0
  6
CONTINUOUS
 62
     7
 10
332.5489274789
 20
149.5716867844
 30
0.0
  0
VERTEX
  5
5F0
  8
0
  6
CONTINUOUS
 62
     7
 10
327.5065771866
 20
149.4913754861
 30
0.0
  0
VERTEX
  5
5F1
  8
0
  6
CONTINUOUS
 62
     7
 10
322.4769942094
 20
149.5180247227
 30
0.0
  0
VERTEX
  5
5F2
  8
0
  6
CONTINUOUS
 62
     7
 10
317.8549401093
 20
149.6360598008
 30
0.0
  0
VERTEX
  5
5F3
  8
0
  6
CONTINUOUS
 62
     7
 10
313.2533780862
 20
149.8407659928
 30
0.0
  0
VERTEX
  5
5F4
  8
0
  6
CONTINUOUS
 62
     7
 10
308.6538068581
 20
150.1287815968
 30
0.0
  0
VERTEX
  5
5F5
  8
0
  6
CONTINUOUS
 62
     7
 10
304.0434471894
 20
150.496130983
 30
0.0
  0
VERTEX
  5
5F6
  8
0
  6
CONTINUOUS
 62
     7
 10
299.4974188138
 20
150.929051439
 30
0.0
  0
VERTEX
  5
5F7
  8
0
  6
CONTINUOUS
 62
     7
 10
294.8434881497
 20
151.4370320241
 30
0.0
  0
SEQEND
  5
A4D
  8
0
  6
CONTINUOUS
 62
     7
  0
POLYLINE
  5
127
  8
0
  6
CONTINUOUS
 62
     7
 66
     1
 10
0.0
 20
0.0
 30
0.0
  0
VERTEX
  5
5F8
  8
0
  6
CONTINUOUS
 62
     7
 10
294.8434881497
 20
151.4370320241
 30
0.0
  0
VERTEX
  5
5F9
  8
0
  6
CONTINUOUS
 62
     7
 10
294.4118849564
 20
151.4971492688
 30
0.0
  0
VERTEX
  5
5FA
  8
0
  6
CONTINUOUS
 62
     7
 10
293.9783922959
 20
151.5781162183
 30
0.0
  0
VERTEX
  5
5FB
  8
0
  6
CONTINUOUS
 62
     7
 10
293.545549326
 20
151.679926912
 30
0.0
  0
VERTEX
  5
5FC
  8
0
  6
CONTINUOUS
 62
     7
 10
293.1536964703
 20
151.790761749
 30
0.0
  0
VERTEX
  5
5FD
  8
0
  6
CONTINUOUS
 62
     7
 10
292.7582315732
 20
151.9208310048
 30
0.0
  0
VERTEX
  5
5FE
  8
0
  6
CONTINUOUS
 62
     7
 10
292.3618666459
 20
152.0700631539
 30
0.0
  0
VERTEX
  5
5FF
  8
0
  6
CONTINUOUS
 62
     7
 10
292.0544914532
 20
152.1993158261
 30
0.0
  0
VERTEX
  5
600
  8
0
  6
CONTINUOUS
 62
     7
 10
291.7507640649
 20
152.3389039437
 30
0.0
  0
VERTEX
  5
601
  8
0
  6
CONTINUOUS
 62
     7
 10
291.4631835747
 20
152.4823007981
 30
0.0
  0
VERTEX
  5
602
  8
0
  6
CONTINUOUS
 62
     7
 10
291.1902658272
 20
152.628797094
 30
0.0
  0
VERTEX
  5
603
  8
0
  6
CONTINUOUS
 62
     7
 10
290.9241310883
 20
152.781748573
 30
0.0
  0
VERTEX
  5
604
  8
0
  6
CONTINUOUS
 62
     7
 10
290.6979672242
 20
152.9199419419
 30
0.0
  0
VERTEX
  5
605
  8
0
  6
CONTINUOUS
 62
     7
 10
290.4349080849
 20
153.0904052655
 30
0.0
  0
VERTEX
  5
606
  8
0
  6
CONTINUOUS
 62
     7
 10
290.139167719
 20
153.2954035203
 30
0.0
  0
VERTEX
  5
607
  8
0
  6
CONTINUOUS
 62
     7
 10
289.92782753
 20
153.4513411919
 30
0.0
  0
VERTEX
  5
608
  8
0
  6
CONTINUOUS
 62
     7
 10
289.7175542641
 20
153.6149380605
 30
0.0
  0
VERTEX
  5
609
  8
0
  6
CONTINUOUS
 62
     7
 10
289.5063332844
 20
153.7886319558
 30
0.0
  0
VERTEX
  5
60A
  8
0
  6
CONTINUOUS
 62
     7
 10
289.3302432824
 20
153.9422569672
 30
0.0
  0
VERTEX
  5
60B
  8
0
  6
CONTINUOUS
 62
     7
 10
289.185755663
 20
154.0759978692
 30
0.0
  0
VERTEX
  5
60C
  8
0
  6
CONTINUOUS
 62
     7
 10
288.8561419774
 20
154.439222614
 30
0.0
  0
VERTEX
  5
60D
  8
0
  6
CONTINUOUS
 62
     7
 10
288.7548438836
 20
154.6941576401
 30
0.0
  0
SEQEND
  5
A4C
  8
0
  6
CONTINUOUS
 62
     7
  0
ARC
  5
128
  8
0
  6
CONTINUOUS
 62
     7
 10
206.246649437
 20
227.6987569237
 30
0.0
 40
73.93765876098938
 50
244.5871825967
 51
295.4128174033
  0
LINE
  5
129
  8
0
  6
CONTINUOUS
 62
     7
 10
174.7341476012
 20
227.0659623544
 30
0.0
 11
174.8434863616
 21
227.0763097207
 31
0.0
  0
LINE
  5
12A
  8
0
  6
CONTINUOUS
 62
     7
 10
237.6498125125
 20
227.0763097207
 30
0.0
 11
237.7591512728
 21
227.0659623544
 31
0.0
  0
ARC
  5
12B
  8
0
  6
CONTINUOUS
 62
     7
 10
206.246649437
 20
-105.08792937
 30
0.0
 40
333.6453889380319
 50
84.5803878418
 51
95.4196121582
  0
POLYLINE
  5
12C
  8
0
  6
CONTINUOUS
 62
     7
 66
     1
 10
0.0
 20
0.0
 30
0.0
  0
VERTEX
  5
60E
  8
0
  6
CONTINUOUS
 62
     7
 10
237.9760495949
 20
160.9153566758
 30
0.0
  0
VERTEX
  5
60F
  8
0
  6
CONTINUOUS
 62
     7
 10
238.9769099284
 20
161.4991484086
 30
0.0
  0
VERTEX
  5
610
  8
0
  6
CONTINUOUS
 62
     7
 10
239.4701920081
 20
161.9120238225
 30
0.0
  0
SEQEND
  5
A4B
  8
0
  6
CONTINUOUS
 62
     7
  0
POLYLINE
  5
12D
  8
0
  6
CONTINUOUS
 62
     7
 66
     1
 10
0.0
 20
0.0
 30
0.0
  0
VERTEX
  5
611
  8
0
  6
CONTINUOUS
 62
     7
 10
173.0075321723
 20
161.9260905186
 30
0.0
  0
VERTEX
  5
612
  8
0
  6
CONTINUOUS
 62
     7
 10
173.3841083575
 20
161.5942714612
 30
0.0
  0
VERTEX
  5
613
  8
0
  6
CONTINUOUS
 62
     7
 10
174.5172492791
 20
160.9153566758
 30
0.0
  0
SEQEND
  5
A4A
  8
0
  6
CONTINUOUS
 62
     7
  0
LINE
  5
12E
  8
0
  6
CONTINUOUS
 62
     7
 10
168.6466507245
 20
198.5589323441
 30
0.0
 11
168.649711423
 21
197.530537645
 31
0.0
  0
LINE
  5
12F
  8
0
  6
CONTINUOUS
 62
     7
 10
168.6466507245
 20
208.5583029191
 30
0.0
 11
168.6466507245
 21
198.5589323441
 31
0.0
  0
POLYLINE
  5
130
  8
0
  6
CONTINUOUS
 62
     7
 66
     1
 10
0.0
 20
0.0
 30
0.0
  0
VERTEX
  5
614
  8
0
  6
CONTINUOUS
 62
     7
 10
168.6465791989
 20
220.219510595
 30
0.0
  0
VERTEX
  5
615
  8
0
  6
CONTINUOUS
 62
     7
 10
168.6466119815
 20
219.0151987473
 30
0.0
  0
VERTEX
  5
616
  8
0
  6
CONTINUOUS
 62
     7
 10
168.6467460919
 20
217.8016243378
 30
0.0
  0
VERTEX
  5
617
  8
0
  6
CONTINUOUS
 62
     7
 10
168.6471931267
 20
215.4964862267
 30
0.0
  0
VERTEX
  5
618
  8
0
  6
CONTINUOUS
 62
     7
 10
168.6475835372
 20
213.1885586182
 30
0.0
  0
VERTEX
  5
619
  8
0
  6
CONTINUOUS
 62
     7
 10
168.6466477442
 20
208.5583029191
 30
0.0
  0
SEQEND
  5
A49
  8
0
  6
CONTINUOUS
 62
     7
  0
ARC
  5
131
  8
0
  6
CONTINUOUS
 62
     7
 10
175.405424338
 20
220.3394386994
 30
0.0
 40
6.759935867863737
 50
95.6989914649
 51
181.0165384505
  0
ARC
  5
132
  8
0
  6
CONTINUOUS
 62
     7
 10
237.0938611306
 20
220.3447791263
 30
0.0
 40
6.754029534916264
 50
358.9453527211
 51
84.3470442198
  0
POLYLINE
  5
133
  8
0
  6
CONTINUOUS
 62
     7
 66
     1
 10
0.0
 20
0.0
 30
0.0
  0
VERTEX
  5
61A
  8
0
  6
CONTINUOUS
 62
     7
 10
243.8448331881
 20
197.530537645
 30
0.0
  0
VERTEX
  5
61B
  8
0
  6
CONTINUOUS
 62
     7
 10
243.8466481496
 20
198.5589323441
 30
0.0
  0
VERTEX
  5
61C
  8
0
  6
CONTINUOUS
 62
     7
 10
243.8502125073
 20
200.9894667069
 30
0.0
  0
VERTEX
  5
61D
  8
0
  6
CONTINUOUS
 62
     7
 10
243.8488028575
 20
205.8507500092
 30
0.0
  0
VERTEX
  5
61E
  8
0
  6
CONTINUOUS
 62
     7
 10
243.8464127112
 20
209.4426093499
 30
0.0
  0
VERTEX
  5
61F
  8
0
  6
CONTINUOUS
 62
     7
 10
243.8457004357
 20
213.0339918534
 30
0.0
  0
VERTEX
  5
620
  8
0
  6
CONTINUOUS
 62
     7
 10
243.8460610438
 20
215.4372392098
 30
0.0
  0
VERTEX
  5
621
  8
0
  6
CONTINUOUS
 62
     7
 10
243.8465050984
 20
217.8389249245
 30
0.0
  0
VERTEX
  5
622
  8
0
  6
CONTINUOUS
 62
     7
 10
243.8467196751
 20
220.2204642693
 30
0.0
  0
SEQEND
  5
A48
  8
0
  6
CONTINUOUS
 62
     7
  0
LINE
  5
134
  8
0
  6
CONTINUOUS
 62
     7
 10
174.793829732
 20
160.7929466168
 30
0.0
 11
174.9140493203
 21
160.7281682889
 31
0.0
  0
LINE
  5
135
  8
0
  6
CONTINUOUS
 62
     7
 10
237.5792495537
 20
160.7281682889
 30
0.0
 11
237.688895278
 21
160.7872603337
 31
0.0
  0
LINE
  5
136
  8
0
  6
CONTINUOUS
 62
     7
 10
237.9932365943
 20
227.0263014237
 30
0.0
 11
237.6498125125
 21
227.0763097207
 31
0.0
  0
LINE
  5
137
  8
0
  6
CONTINUOUS
 62
     7
 10
48.5466472436
 20
150.5310831467
 30
0.0
 11
49.3466488648
 21
150.5310831467
 31
0.0
  0
LINE
  5
138
  8
0
  6
CONTINUOUS
 62
     7
 10
64.9466506768
 20
143.4305427472
 30
0.0
 11
64.9466506768
 21
155.6305406491
 31
0.0
  0
LINE
  5
139
  8
0
  6
CONTINUOUS
 62
     7
 10
48.5466472436
 20
143.4305427472
 30
0.0
 11
48.5466472436
 21
150.5310831467
 31
0.0
  0
LINE
  5
13A
  8
0
  6
CONTINUOUS
 62
     7
 10
49.3466488648
 20
150.5310831467
 30
0.0
 11
49.3466488648
 21
196.0736570756
 31
0.0
  0
LINE
  5
13B
  8
0
  6
CONTINUOUS
 62
     7
 10
48.5466472436
 20
150.5310831467
 30
0.0
 11
48.5466472436
 21
196.0736570756
 31
0.0
  0
LINE
  5
13C
  8
0
  6
CONTINUOUS
 62
     7
 10
49.3466488648
 20
197.530537645
 30
0.0
 11
48.5466472436
 21
197.530537645
 31
0.0
  0
LINE
  5
13D
  8
0
  6
CONTINUOUS
 62
     7
 10
49.3466488648
 20
196.0736570756
 30
0.0
 11
49.3466488648
 21
197.530537645
 31
0.0
  0
LINE
  5
13E
  8
0
  6
CONTINUOUS
 62
     7
 10
48.5466472436
 20
196.0736570756
 30
0.0
 11
48.5466472436
 21
197.530537645
 31
0.0
  0
ARC
  5
13F
  8
0
  6
CONTINUOUS
 62
     7
 10
51.6948755486
 20
195.5427894846
 30
0.0
 40
1.987786709256505
 50
359.6469068558
 51
89.6431718537
  0
LINE
  5
140
  8
0
  6
CONTINUOUS
 62
     7
 10
53.6826245118
 20
188.3683381478
 30
0.0
 11
53.6826245118
 21
195.5305395524
 31
0.0
  0
ARC
  5
141
  8
0
  6
CONTINUOUS
 62
     7
 10
83.8108902257
 20
188.3196246271
 30
0.0
 40
30.12830509567021
 50
179.9073601933
 51
232.1234621275
  0
ARC
  5
142
  8
0
  6
CONTINUOUS
 62
     7
 10
64.2149946475
 20
163.1301015441
 30
0.0
 40
1.785818548724846
 50
333.9116953809
 51
52.0488141313
  0
POLYLINE
  5
143
  8
0
  6
CONTINUOUS
 62
     7
 66
     1
 10
0.0
 20
0.0
 30
0.0
  0
VERTEX
  5
623
  8
0
  6
CONTINUOUS
 62
     7
 10
64.600955658
 20
158.8821289937
 30
0.0
  0
VERTEX
  5
624
  8
0
  6
CONTINUOUS
 62
     7
 10
65.109550171
 20
160.6496391694
 30
0.0
  0
VERTEX
  5
625
  8
0
  6
CONTINUOUS
 62
     7
 10
65.8188692856
 20
162.3447773854
 30
0.0
  0
SEQEND
  5
A47
  8
0
  6
CONTINUOUS
 62
     7
  0
ARC
  5
144
  8
0
  6
CONTINUOUS
 62
     7
 10
63.4441660504
 20
159.134889695
 30
0.0
 40
1.184081993932901
 50
252.0749405521
 51
347.6744805764
  0
POLYLINE
  5
145
  8
0
  6
CONTINUOUS
 62
     7
 66
     1
 10
0.0
 20
0.0
 30
0.0
  0
VERTEX
  5
626
  8
0
  6
CONTINUOUS
 62
     7
 10
54.9530617524
 20
161.2097618977
 30
0.0
  0
VERTEX
  5
627
  8
0
  6
CONTINUOUS
 62
     7
 10
58.9771024514
 20
159.4889042775
 30
0.0
  0
VERTEX
  5
628
  8
0
  6
CONTINUOUS
 62
     7
 10
63.079737835
 20
158.008283178
 30
0.0
  0
SEQEND
  5
A46
  8
0
  6
CONTINUOUS
 62
     7
  0
LINE
  5
146
  8
0
  6
CONTINUOUS
 62
     7
 10
53.9727560807
 20
161.7821154992
 30
0.0
 11
54.9530617524
 21
161.2097618977
 31
0.0
  0
ARC
  5
147
  8
0
  6
CONTINUOUS
 62
     7
 10
53.2871313265
 20
160.8157591058
 30
0.0
 40
1.184873825628972
 50
54.6445005898
 51
180.6186280469
  0
LINE
  5
148
  8
0
  6
CONTINUOUS
 62
     7
 10
52.1023265649
 20
155.6305406491
 30
0.0
 11
52.1023265649
 21
160.8029661576
 31
0.0
  0
LINE
  5
149
  8
0
  6
CONTINUOUS
 62
     7
 10
51.7072550584
 20
197.530537645
 30
0.0
 11
49.3466488648
 21
197.530537645
 31
0.0
  0
ARC
  5
14A
  8
0
  6
CONTINUOUS
 62
     7
 10
53.418332928
 20
160.8120865412
 30
0.0
 40
1.19089537536526
 50
90.2710617878
 51
180.4387997506
  0
LINE
  5
14B
  8
0
  6
CONTINUOUS
 62
     7
 10
51.7912499238
 20
197.530537645
 30
0.0
 11
51.7072550584
 21
197.530537645
 31
0.0
  0
LINE
  5
14C
  8
0
  6
CONTINUOUS
 62
     7
 10
52.227472477
 20
155.6305406491
 30
0.0
 11
52.227472477
 21
160.8029661576
 31
0.0
  0
LINE
  5
14D
  8
0
  6
CONTINUOUS
 62
     7
 10
289.3466464806
 20
152.5466082494
 30
0.0
 11
289.3466464806
 21
151.4368472497
 31
0.0
  0
LINE
  5
14E
  8
0
  6
CONTINUOUS
 62
     7
 10
288.5466508198
 20
151.4368472497
 30
0.0
 11
288.5466508198
 21
153.1305430333
 31
0.0
  0
LINE
  5
14F
  8
0
  6
CONTINUOUS
 62
     7
 10
288.6038951207
 20
153.4919677178
 30
0.0
 11
288.5466508198
 21
153.1305430333
 31
0.0
  0
LINE
  5
150
  8
0
  6
CONTINUOUS
 62
     7
 10
288.5466508198
 20
149.5120046536
 30
0.0
 11
288.5466508198
 21
151.4368472497
 31
0.0
  0
LINE
  5
151
  8
0
  6
CONTINUOUS
 62
     7
 10
289.3466464806
 20
149.5120046536
 30
0.0
 11
289.3466464806
 21
151.4368472497
 31
0.0
  0
LINE
  5
152
  8
0
  6
CONTINUOUS
 62
     7
 10
288.5466508198
 20
143.4994635979
 30
0.0
 11
288.5466508198
 21
149.5120046536
 31
0.0
  0
LINE
  5
153
  8
0
  6
CONTINUOUS
 62
     7
 10
289.3466464806
 20
143.4994635979
 30
0.0
 11
289.3466464806
 21
149.5120046536
 31
0.0
  0
LINE
  5
154
  8
0
  6
CONTINUOUS
 62
     7
 10
304.9466482926
 20
153.5691974561
 30
0.0
 11
304.9466482926
 21
155.6305406491
 31
0.0
  0
LINE
  5
155
  8
0
  6
CONTINUOUS
 62
     7
 10
304.9466482926
 20
143.4305427472
 30
0.0
 11
304.9466482926
 21
148.8618967931
 31
0.0
  0
LINE
  5
156
  8
0
  6
CONTINUOUS
 62
     7
 10
288.5466508198
 20
153.1305430333
 30
0.0
 11
288.5466508198
 21
155.6305406491
 31
0.0
  0
LINE
  5
157
  8
0
  6
CONTINUOUS
 62
     7
 10
288.5466508198
 20
143.4305427472
 30
0.0
 11
288.5466508198
 21
143.4994635979
 31
0.0
  0
LINE
  5
158
  8
0
  6
CONTINUOUS
 62
     7
 10
168.5466490317
 20
150.5310831467
 30
0.0
 11
169.346650653
 21
150.5310831467
 31
0.0
  0
LINE
  5
159
  8
0
  6
CONTINUOUS
 62
     7
 10
184.9466494847
 20
143.4305427472
 30
0.0
 11
184.9466494847
 21
155.6305406491
 31
0.0
  0
LINE
  5
15A
  8
0
  6
CONTINUOUS
 62
     7
 10
168.5466490317
 20
143.4305427472
 30
0.0
 11
168.5466490317
 21
150.5310831467
 31
0.0
  0
LINE
  5
15B
  8
0
  6
CONTINUOUS
 62
     7
 10
169.346650653
 20
150.5310831467
 30
0.0
 11
169.346650653
 21
196.0736570756
 31
0.0
  0
LINE
  5
15C
  8
0
  6
CONTINUOUS
 62
     7
 10
168.5466490317
 20
150.5310831467
 30
0.0
 11
168.5466490317
 21
196.0736570756
 31
0.0
  0
LINE
  5
15D
  8
0
  6
CONTINUOUS
 62
     7
 10
169.346650653
 20
197.530537645
 30
0.0
 11
168.5466490317
 21
197.530537645
 31
0.0
  0
LINE
  5
15E
  8
0
  6
CONTINUOUS
 62
     7
 10
169.346650653
 20
196.0736570756
 30
0.0
 11
169.346650653
 21
197.530537645
 31
0.0
  0
LINE
  5
15F
  8
0
  6
CONTINUOUS
 62
     7
 10
168.5466490317
 20
196.0736570756
 30
0.0
 11
168.5466490317
 21
197.530537645
 31
0.0
  0
ARC
  5
160
  8
0
  6
CONTINUOUS
 62
     7
 10
171.6948654148
 20
195.5427747106
 30
0.0
 40
1.987801520105215
 50
359.647335336
 51
89.6430026788
  0
LINE
  5
161
  8
0
  6
CONTINUOUS
 62
     7
 10
173.6826292802
 20
188.3683381478
 30
0.0
 11
173.6826292802
 21
195.5305395524
 31
0.0
  0
ARC
  5
162
  8
0
  6
CONTINUOUS
 62
     7
 10
203.8108309587
 20
188.3195910603
 30
0.0
 40
30.12824111466217
 50
179.9072961615
 51
232.1235145853
  0
ARC
  5
163
  8
0
  6
CONTINUOUS
 62
     7
 10
184.2149916372
 20
163.1301015276
 30
0.0
 40
1.785821512733474
 50
333.9117425335
 51
52.0486930605
  0
POLYLINE
  5
164
  8
0
  6
CONTINUOUS
 62
     7
 66
     1
 10
0.0
 20
0.0
 30
0.0
  0
VERTEX
  5
629
  8
0
  6
CONTINUOUS
 62
     7
 10
184.6009574462
 20
158.8821289937
 30
0.0
  0
VERTEX
  5
62A
  8
0
  6
CONTINUOUS
 62
     7
 10
185.1095459986
 20
160.6496391694
 30
0.0
  0
VERTEX
  5
62B
  8
0
  6
CONTINUOUS
 62
     7
 10
185.8188695837
 20
162.3447773854
 30
0.0
  0
SEQEND
  5
A45
  8
0
  6
CONTINUOUS
 62
     7
  0
ARC
  5
165
  8
0
  6
CONTINUOUS
 62
     7
 10
183.444163588
 20
159.1348939875
 30
0.0
 40
1.184087062881057
 50
252.0748571538
 51
347.674321566
  0
POLYLINE
  5
166
  8
0
  6
CONTINUOUS
 62
     7
 66
     1
 10
0.0
 20
0.0
 30
0.0
  0
VERTEX
  5
62C
  8
0
  6
CONTINUOUS
 62
     7
 10
174.9530605603
 20
161.2097618977
 30
0.0
  0
VERTEX
  5
62D
  8
0
  6
CONTINUOUS
 62
     7
 10
178.9771042395
 20
159.4889042775
 30
0.0
  0
VERTEX
  5
62E
  8
0
  6
CONTINUOUS
 62
     7
 10
183.0797321726
 20
158.008283178
 30
0.0
  0
SEQEND
  5
A44
  8
0
  6
CONTINUOUS
 62
     7
  0
LINE
  5
167
  8
0
  6
CONTINUOUS
 62
     7
 10
173.9727519084
 20
161.7821154992
 30
0.0
 11
174.9530605603
 21
161.2097618977
 31
0.0
  0
ARC
  5
168
  8
0
  6
CONTINUOUS
 62
     7
 10
173.2871287399
 20
160.8157632889
 30
0.0
 40
1.184869496387519
 50
54.6444460832
 51
180.6188325968
  0
LINE
  5
169
  8
0
  6
CONTINUOUS
 62
     7
 10
172.102328353
 20
155.6305406491
 30
0.0
 11
172.102328353
 21
160.8029661576
 31
0.0
  0
LINE
  5
16A
  8
0
  6
CONTINUOUS
 62
     7
 10
171.707250886
 20
197.530537645
 30
0.0
 11
169.346650653
 21
197.530537645
 31
0.0
  0
ARC
  5
16B
  8
0
  6
CONTINUOUS
 62
     7
 10
173.4183318018
 20
160.8120894196
 30
0.0
 40
1.190892483190293
 50
90.2709222324
 51
180.438939306
  0
LINE
  5
16C
  8
0
  6
CONTINUOUS
 62
     7
 10
171.7912487317
 20
197.530537645
 30
0.0
 11
171.707250886
 21
197.530537645
 31
0.0
  0
LINE
  5
16D
  8
0
  6
CONTINUOUS
 62
     7
 10
172.2274742652
 20
155.6305406491
 30
0.0
 11
172.2274742652
 21
160.8029661576
 31
0.0
  0
LINE
  5
16E
  8
0
  6
CONTINUOUS
 62
     7
 10
363.8893238831
 20
153.4925160805
 30
0.0
 11
363.9466516305
 21
153.1305430333
 31
0.0
  0
LINE
  5
16F
  8
0
  6
CONTINUOUS
 62
     7
 10
363.9466516305
 20
153.1305430333
 30
0.0
 11
363.9466516305
 21
151.4368472497
 31
0.0
  0
LINE
  5
170
  8
0
  6
CONTINUOUS
 62
     7
 10
363.1466500092
 20
151.4368472497
 30
0.0
 11
363.1466500092
 21
152.546500961
 31
0.0
  0
LINE
  5
171
  8
0
  6
CONTINUOUS
 62
     7
 10
363.9466516305
 20
151.4368472497
 30
0.0
 11
363.9466516305
 21
149.5120046536
 31
0.0
  0
LINE
  5
172
  8
0
  6
CONTINUOUS
 62
     7
 10
363.1466500092
 20
151.4368472497
 30
0.0
 11
363.1466500092
 21
149.5120046536
 31
0.0
  0
LINE
  5
173
  8
0
  6
CONTINUOUS
 62
     7
 10
363.9466516305
 20
149.5120046536
 30
0.0
 11
363.9466516305
 21
143.4994635979
 31
0.0
  0
LINE
  5
174
  8
0
  6
CONTINUOUS
 62
     7
 10
363.1466500092
 20
149.5120046536
 30
0.0
 11
363.1466500092
 21
143.4994635979
 31
0.0
  0
LINE
  5
175
  8
0
  6
CONTINUOUS
 62
     7
 10
347.5466481972
 20
155.6305406491
 30
0.0
 11
347.5466481972
 21
153.5651622216
 31
0.0
  0
LINE
  5
176
  8
0
  6
CONTINUOUS
 62
     7
 10
347.5466481972
 20
148.8741217057
 30
0.0
 11
347.5466481972
 21
143.4305427472
 31
0.0
  0
LINE
  5
177
  8
0
  6
CONTINUOUS
 62
     7
 10
363.9466516305
 20
143.4994635979
 30
0.0
 11
363.9466516305
 21
143.4305427472
 31
0.0
  0
LINE
  5
178
  8
0
  6
CONTINUOUS
 62
     7
 10
363.9466516305
 20
155.6305406491
 30
0.0
 11
363.9466516305
 21
153.1305430333
 31
0.0
  0
LINE
  5
179
  8
0
  6
CONTINUOUS
 62
     7
 10
123.9466480542
 20
150.5310831467
 30
0.0
 11
123.1466523934
 21
150.5310831467
 31
0.0
  0
LINE
  5
17A
  8
0
  6
CONTINUOUS
 62
     7
 10
107.5466505814
 20
155.6305406491
 30
0.0
 11
107.5466505814
 21
143.4305427472
 31
0.0
  0
LINE
  5
17B
  8
0
  6
CONTINUOUS
 62
     7
 10
123.9466480542
 20
150.5310831467
 30
0.0
 11
123.9466480542
 21
143.4305427472
 31
0.0
  0
LINE
  5
17C
  8
0
  6
CONTINUOUS
 62
     7
 10
123.1466523934
 20
196.0736570756
 30
0.0
 11
123.1466523934
 21
150.5310831467
 31
0.0
  0
LINE
  5
17D
  8
0
  6
CONTINUOUS
 62
     7
 10
123.9466480542
 20
196.0736570756
 30
0.0
 11
123.9466480542
 21
150.5310831467
 31
0.0
  0
LINE
  5
17E
  8
0
  6
CONTINUOUS
 62
     7
 10
123.9466480542
 20
197.530537645
 30
0.0
 11
123.1466523934
 21
197.530537645
 31
0.0
  0
LINE
  5
17F
  8
0
  6
CONTINUOUS
 62
     7
 10
123.1466523934
 20
197.530537645
 30
0.0
 11
123.1466523934
 21
196.0736570756
 31
0.0
  0
LINE
  5
180
  8
0
  6
CONTINUOUS
 62
     7
 10
123.9466480542
 20
197.530537645
 30
0.0
 11
123.9466480542
 21
196.0736570756
 31
0.0
  0
ARC
  5
181
  8
0
  6
CONTINUOUS
 62
     7
 10
115.0082560362
 20
166.6721398324
 30
0.0
 40
6.020673798832888
 50
294.8692018605
 51
305.6880228142
  0
ARC
  5
182
  8
0
  6
CONTINUOUS
 62
     7
 10
85.8010735139
 20
229.8617116118
 30
0.0
 40
75.63375474877026
 50
288.1915691329
 51
294.8120425034
  0
ARC
  5
183
  8
0
  6
CONTINUOUS
 62
     7
 10
109.0491335428
 20
159.134894687
 30
0.0
 40
1.184087256000044
 50
192.3257110377
 51
287.9250617609
  0
ARC
  5
184
  8
0
  6
CONTINUOUS
 62
     7
 10
92.4422851247
 20
155.3934342144
 30
0.0
 40
15.83903961038502
 50
12.724259681
 51
26.032061976
  0
ARC
  5
185
  8
0
  6
CONTINUOUS
 62
     7
 10
108.278308665
 20
163.1301040549
 30
0.0
 40
1.785821497921969
 50
127.9514381778
 51
206.0883479828
  0
ARC
  5
186
  8
0
  6
CONTINUOUS
 62
     7
 10
88.6891526473
 20
188.3163313677
 30
0.0
 40
30.12156303515858
 50
307.8702528498
 51
0.0989248294
  0
LINE
  5
187
  8
0
  6
CONTINUOUS
 62
     7
 10
118.810670786
 20
195.5305395524
 30
0.0
 11
118.810670786
 21
188.3683381478
 31
0.0
  0
ARC
  5
188
  8
0
  6
CONTINUOUS
 62
     7
 10
120.7984316574
 20
195.5427776861
 30
0.0
 40
1.987798544622118
 50
90.3569974629
 51
180.3527509572
  0
LINE
  5
189
  8
0
  6
CONTINUOUS
 62
     7
 10
123.1466523934
 20
197.530537645
 30
0.0
 11
120.7860461999
 21
197.530537645
 31
0.0
  0
LINE
  5
18A
  8
0
  6
CONTINUOUS
 62
     7
 10
120.3909687329
 20
160.8029661576
 30
0.0
 11
120.3909687329
 21
155.6305406491
 31
0.0
  0
ARC
  5
18B
  8
0
  6
CONTINUOUS
 62
     7
 10
119.2058471127
 20
160.8151496519
 30
0.0
 40
1.18518424399163
 50
359.4109986692
 51
125.3257226509
  0
ARC
  5
18C
  8
0
  6
CONTINUOUS
 62
     7
 10
119.0719517362
 20
160.8095305885
 30
0.0
 40
1.193889131423295
 50
359.6849656575
 51
86.5801751307
  0
LINE
  5
18D
  8
0
  6
CONTINUOUS
 62
     7
 10
120.7860461999
 20
197.530537645
 30
0.0
 11
120.7020513344
 21
197.530537645
 31
0.0
  0
LINE
  5
18E
  8
0
  6
CONTINUOUS
 62
     7
 10
120.2658228207
 20
160.8029661576
 30
0.0
 11
120.2658228207
 21
155.6305406491
 31
0.0
  0
LINE
  5
18F
  8
0
  6
CONTINUOUS
 62
     7
 10
227.5466493893
 20
155.6305406491
 30
0.0
 11
227.5466493893
 21
143.4305427472
 31
0.0
  0
LINE
  5
190
  8
0
  6
CONTINUOUS
 62
     7
 10
243.9466498423
 20
150.5310831467
 30
0.0
 11
243.1466482211
 21
150.5310831467
 31
0.0
  0
LINE
  5
191
  8
0
  6
CONTINUOUS
 62
     7
 10
243.9466498423
 20
150.5310831467
 30
0.0
 11
243.9466498423
 21
143.4305427472
 31
0.0
  0
LINE
  5
192
  8
0
  6
CONTINUOUS
 62
     7
 10
243.1466482211
 20
196.0736570756
 30
0.0
 11
243.1466482211
 21
150.5310831467
 31
0.0
  0
LINE
  5
193
  8
0
  6
CONTINUOUS
 62
     7
 10
243.9466498423
 20
196.0736570756
 30
0.0
 11
243.9466498423
 21
150.5310831467
 31
0.0
  0
LINE
  5
194
  8
0
  6
CONTINUOUS
 62
     7
 10
243.9466498423
 20
197.530537645
 30
0.0
 11
243.1466482211
 21
197.530537645
 31
0.0
  0
LINE
  5
195
  8
0
  6
CONTINUOUS
 62
     7
 10
243.1466482211
 20
197.530537645
 30
0.0
 11
243.1466482211
 21
196.0736570756
 31
0.0
  0
LINE
  5
196
  8
0
  6
CONTINUOUS
 62
     7
 10
243.9466498423
 20
197.530537645
 30
0.0
 11
243.9466498423
 21
196.0736570756
 31
0.0
  0
ARC
  5
197
  8
0
  6
CONTINUOUS
 62
     7
 10
235.0082520995
 20
166.6721628217
 30
0.0
 40
6.020695810583504
 50
294.8691335512
 51
305.6879394352
  0
ARC
  5
198
  8
0
  6
CONTINUOUS
 62
     7
 10
205.8007789314
 20
229.8624233866
 30
0.0
 40
75.63452393838152
 50
288.1916151611
 51
294.8120179715
  0
ARC
  5
199
  8
0
  6
CONTINUOUS
 62
     7
 10
229.0491352861
 20
159.1348939875
 30
0.0
 40
1.18408706288102
 50
192.325678434
 51
287.9251428462
  0
ARC
  5
19A
  8
0
  6
CONTINUOUS
 62
     7
 10
212.4423726495
 20
155.3934459964
 30
0.0
 40
15.83895338423052
 50
12.7242864194
 51
26.0321668905
  0
ARC
  5
19B
  8
0
  6
CONTINUOUS
 62
     7
 10
228.2783072368
 20
163.1301015276
 30
0.0
 40
1.785821512733509
 50
127.9513069395
 51
206.0882574665
  0
ARC
  5
19C
  8
0
  6
CONTINUOUS
 62
     7
 10
208.6891493835
 20
188.3163300664
 30
0.0
 40
30.12156510914811
 50
307.8702619552
 51
0.098927298
  0
LINE
  5
19D
  8
0
  6
CONTINUOUS
 62
     7
 10
238.8106695939
 20
195.5305395524
 30
0.0
 11
238.8106695939
 21
188.3683381478
 31
0.0
  0
ARC
  5
19E
  8
0
  6
CONTINUOUS
 62
     7
 10
240.7984334592
 20
195.5427747106
 30
0.0
 40
1.987801520105219
 50
90.3569973212
 51
180.352664664
  0
LINE
  5
19F
  8
0
  6
CONTINUOUS
 62
     7
 10
243.1466482211
 20
197.530537645
 30
0.0
 11
240.786047988
 21
197.530537645
 31
0.0
  0
LINE
  5
1A0
  8
0
  6
CONTINUOUS
 62
     7
 10
240.390970521
 20
160.8029661576
 30
0.0
 11
240.390970521
 21
155.6305406491
 31
0.0
  0
ARC
  5
1A1
  8
0
  6
CONTINUOUS
 62
     7
 10
239.2058489008
 20
160.8151496519
 30
0.0
 40
1.185184243991624
 50
359.4109986692
 51
125.3257226509
  0
ARC
  5
1A2
  8
0
  6
CONTINUOUS
 62
     7
 10
239.0719466373
 20
160.8095241363
 30
0.0
 40
1.193895982895912
 50
359.6852771112
 51
86.5798636769
  0
LINE
  5
1A3
  8
0
  6
CONTINUOUS
 62
     7
 10
240.786047988
 20
197.530537645
 30
0.0
 11
240.7020501424
 21
197.530537645
 31
0.0
  0
LINE
  5
1A4
  8
0
  6
CONTINUOUS
 62
     7
 10
240.2658246089
 20
160.8029661576
 30
0.0
 11
240.2658246089
 21
155.6305406491
 31
0.0
  0
LINE
  5
1A5
  8
0
  6
CONTINUOUS
 62
     7
 10
367.6466457177
 20
155.9305427472
 30
0.0
 11
367.6466457177
 21
146.7733083169
 31
0.0
  0
LINE
  5
1A6
  8
0
  6
CONTINUOUS
 62
     7
 10
364.2466537286
 20
155.9305427472
 30
0.0
 11
364.2466537286
 21
146.7733083169
 31
0.0
  0
LINE
  5
1A7
  8
0
  6
CONTINUOUS
 62
     7
 10
346.846651249
 20
155.5305419366
 30
0.0
 11
346.846651249
 21
153.5228012006
 31
0.0
  0
LINE
  5
1A8
  8
0
  6
CONTINUOUS
 62
     7
 10
346.846651249
 20
148.8138792912
 30
0.0
 11
346.846651249
 21
143.5305414597
 31
0.0
  0
LINE
  5
1A9
  8
0
  6
CONTINUOUS
 62
     7
 10
357.8466526795
 20
137.9305420319
 30
0.0
 11
357.8466526795
 21
138.9305410783
 31
0.0
  0
LINE
  5
1AA
  8
0
  6
CONTINUOUS
 62
     7
 10
357.8466526795
 20
138.9305410783
 30
0.0
 11
367.6466457177
 21
138.9305410783
 31
0.0
  0
LINE
  5
1AB
  8
0
  6
CONTINUOUS
 62
     7
 10
367.6466457177
 20
138.9305410783
 30
0.0
 11
367.6466457177
 21
137.9305420319
 31
0.0
  0
LINE
  5
1AC
  8
0
  6
CONTINUOUS
 62
     7
 10
357.8466526795
 20
129.9305437009
 30
0.0
 11
357.8466526795
 21
137.9305420319
 31
0.0
  0
CIRCLE
  5
1AD
  8
0
  6
CONTINUOUS
 62
     7
 10
363.746649437
 20
132.3305420319
 30
0.0
 40
1.099999999999966
  0
LINE
  5
1AE
  8
0
  6
CONTINUOUS
 62
     7
 10
365.646647625
 20
127.9305396477
 30
0.0
 11
359.8466507722
 21
127.9305396477
 31
0.0
  0
ARC
  5
1AF
  8
0
  6
CONTINUOUS
 62
     7
 10
365.646649437
 20
129.9305420319
 30
0.0
 40
2.000000000000014
 50
270.0
 51
0.0
  0
ARC
  5
1B0
  8
0
  6
CONTINUOUS
 62
     7
 10
359.846649437
 20
129.9305420319
 30
0.0
 40
2.000000000000014
 50
180.0
 51
270.0
  0
LINE
  5
1B1
  8
0
  6
CONTINUOUS
 62
     7
 10
367.6466457177
 20
129.9305437009
 30
0.0
 11
367.6466457177
 21
137.9305420319
 31
0.0
  0
LINE
  5
1B2
  8
0
  6
CONTINUOUS
 62
     7
 10
367.6466457177
 20
146.7733083169
 30
0.0
 11
367.6466457177
 21
142.4651322762
 31
0.0
  0
LINE
  5
1B3
  8
0
  6
CONTINUOUS
 62
     7
 10
364.2466537286
 20
142.4651322762
 30
0.0
 11
364.2466537286
 21
146.7733083169
 31
0.0
  0
LINE
  5
1B4
  8
0
  6
CONTINUOUS
 62
     7
 10
367.6466457177
 20
142.4651322762
 30
0.0
 11
367.6466457177
 21
138.9305410783
 31
0.0
  0
LINE
  5
1B5
  8
0
  6
CONTINUOUS
 62
     7
 10
364.2466537286
 20
142.4651322762
 30
0.0
 11
364.2466537286
 21
138.9305410783
 31
0.0
  0
LINE
  5
1B6
  8
0
  6
CONTINUOUS
 62
     7
 10
127.6466481019
 20
155.9305427472
 30
0.0
 11
127.6466481019
 21
146.7733083169
 31
0.0
  0
LINE
  5
1B7
  8
0
  6
CONTINUOUS
 62
     7
 10
124.2466501523
 20
155.9305427472
 30
0.0
 11
124.2466501523
 21
146.7733083169
 31
0.0
  0
LINE
  5
1B8
  8
0
  6
CONTINUOUS
 62
     7
 10
106.8466476727
 20
155.5305419366
 30
0.0
 11
106.8466476727
 21
143.5305414597
 31
0.0
  0
CIRCLE
  5
1B9
  8
0
  6
CONTINUOUS
 62
     7
 10
123.746649437
 20
132.3305420319
 30
0.0
 40
1.100000000000009
  0
LINE
  5
1BA
  8
0
  6
CONTINUOUS
 62
     7
 10
125.6466500092
 20
127.9305396477
 30
0.0
 11
119.8466471959
 21
127.9305396477
 31
0.0
  0
LINE
  5
1BB
  8
0
  6
CONTINUOUS
 62
     7
 10
117.8466491032
 20
129.9305437009
 30
0.0
 11
117.8466491032
 21
137.9305420319
 31
0.0
  0
ARC
  5
1BC
  8
0
  6
CONTINUOUS
 62
     7
 10
125.646649437
 20
129.9305420319
 30
0.0
 40
2.000000000000014
 50
270.0
 51
0.0
  0
ARC
  5
1BD
  8
0
  6
CONTINUOUS
 62
     7
 10
119.846649437
 20
129.9305420319
 30
0.0
 40
2.000000000000014
 50
180.0
 51
270.0
  0
LINE
  5
1BE
  8
0
  6
CONTINUOUS
 62
     7
 10
127.6466481019
 20
129.9305437009
 30
0.0
 11
127.6466481019
 21
137.9305420319
 31
0.0
  0
LINE
  5
1BF
  8
0
  6
CONTINUOUS
 62
     7
 10
117.8466491032
 20
138.9305410783
 30
0.0
 11
127.6466481019
 21
138.9305410783
 31
0.0
  0
LINE
  5
1C0
  8
0
  6
CONTINUOUS
 62
     7
 10
117.8466491032
 20
137.9305420319
 30
0.0
 11
117.8466491032
 21
138.9305410783
 31
0.0
  0
LINE
  5
1C1
  8
0
  6
CONTINUOUS
 62
     7
 10
127.6466481019
 20
138.9305410783
 30
0.0
 11
127.6466481019
 21
137.9305420319
 31
0.0
  0
LINE
  5
1C2
  8
0
  6
CONTINUOUS
 62
     7
 10
124.2466501523
 20
142.4651322762
 30
0.0
 11
124.2466501523
 21
146.7733083169
 31
0.0
  0
LINE
  5
1C3
  8
0
  6
CONTINUOUS
 62
     7
 10
127.6466481019
 20
146.7733083169
 30
0.0
 11
127.6466481019
 21
142.4651322762
 31
0.0
  0
LINE
  5
1C4
  8
0
  6
CONTINUOUS
 62
     7
 10
124.2466501523
 20
142.4651322762
 30
0.0
 11
124.2466501523
 21
138.9305410783
 31
0.0
  0
LINE
  5
1C5
  8
0
  6
CONTINUOUS
 62
     7
 10
127.6466481019
 20
142.4651322762
 30
0.0
 11
127.6466481019
 21
138.9305410783
 31
0.0
  0
LINE
  5
1C6
  8
0
  6
CONTINUOUS
 62
     7
 10
247.64664989
 20
155.9305427472
 30
0.0
 11
247.64664989
 21
146.7733083169
 31
0.0
  0
LINE
  5
1C7
  8
0
  6
CONTINUOUS
 62
     7
 10
244.2466489602
 20
155.9305427472
 30
0.0
 11
244.2466489602
 21
146.7733083169
 31
0.0
  0
LINE
  5
1C8
  8
0
  6
CONTINUOUS
 62
     7
 10
226.8466494609
 20
155.5305419366
 30
0.0
 11
226.8466494609
 21
143.5305414597
 31
0.0
  0
LINE
  5
1C9
  8
0
  6
CONTINUOUS
 62
     7
 10
237.8466508914
 20
137.9305420319
 30
0.0
 11
237.8466508914
 21
138.9305410783
 31
0.0
  0
LINE
  5
1CA
  8
0
  6
CONTINUOUS
 62
     7
 10
237.8466508914
 20
138.9305410783
 30
0.0
 11
247.64664989
 21
138.9305410783
 31
0.0
  0
LINE
  5
1CB
  8
0
  6
CONTINUOUS
 62
     7
 10
247.64664989
 20
138.9305410783
 30
0.0
 11
247.64664989
 21
137.9305420319
 31
0.0
  0
LINE
  5
1CC
  8
0
  6
CONTINUOUS
 62
     7
 10
237.8466508914
 20
129.9305437009
 30
0.0
 11
237.8466508914
 21
137.9305420319
 31
0.0
  0
ARC
  5
1CD
  8
0
  6
CONTINUOUS
 62
     7
 10
245.646649437
 20
129.9305420319
 30
0.0
 40
2.000000000000014
 50
270.0
 51
0.0
  0
ARC
  5
1CE
  8
0
  6
CONTINUOUS
 62
     7
 10
239.846649437
 20
129.9305420319
 30
0.0
 40
2.000000000000014
 50
180.0
 51
270.0
  0
LINE
  5
1CF
  8
0
  6
CONTINUOUS
 62
     7
 10
245.6466488171
 20
127.9305396477
 30
0.0
 11
239.846648984
 21
127.9305396477
 31
0.0
  0
CIRCLE
  5
1D0
  8
0
  6
CONTINUOUS
 62
     7
 10
243.746649437
 20
132.3305420319
 30
0.0
 40
1.099999999999966
  0
LINE
  5
1D1
  8
0
  6
CONTINUOUS
 62
     7
 10
247.64664989
 20
129.9305437009
 30
0.0
 11
247.64664989
 21
137.9305420319
 31
0.0
  0
LINE
  5
1D2
  8
0
  6
CONTINUOUS
 62
     7
 10
247.64664989
 20
146.7733083169
 30
0.0
 11
247.64664989
 21
142.4651322762
 31
0.0
  0
LINE
  5
1D3
  8
0
  6
CONTINUOUS
 62
     7
 10
244.2466489602
 20
142.4651322762
 30
0.0
 11
244.2466489602
 21
146.7733083169
 31
0.0
  0
LINE
  5
1D4
  8
0
  6
CONTINUOUS
 62
     7
 10
247.64664989
 20
142.4651322762
 30
0.0
 11
247.64664989
 21
138.9305410783
 31
0.0
  0
LINE
  5
1D5
  8
0
  6
CONTINUOUS
 62
     7
 10
244.2466489602
 20
142.4651322762
 30
0.0
 11
244.2466489602
 21
138.9305410783
 31
0.0
  0
LINE
  5
1D6
  8
0
  6
CONTINUOUS
 62
     7
 10
288.2466487218
 20
155.9305427472
 30
0.0
 11
288.2466487218
 21
146.7733083169
 31
0.0
  0
LINE
  5
1D7
  8
0
  6
CONTINUOUS
 62
     7
 10
284.8466507722
 20
155.9305427472
 30
0.0
 11
284.8466507722
 21
146.7733083169
 31
0.0
  0
LINE
  5
1D8
  8
0
  6
CONTINUOUS
 62
     7
 10
305.6466512013
 20
155.5305419366
 30
0.0
 11
305.6466512013
 21
153.5226819913
 31
0.0
  0
LINE
  5
1D9
  8
0
  6
CONTINUOUS
 62
     7
 10
305.6466512013
 20
148.7969098489
 30
0.0
 11
305.6466512013
 21
143.5305414597
 31
0.0
  0
LINE
  5
1DA
  8
0
  6
CONTINUOUS
 62
     7
 10
284.8466507722
 20
138.9305410783
 30
0.0
 11
294.6466497708
 21
138.9305410783
 31
0.0
  0
LINE
  5
1DB
  8
0
  6
CONTINUOUS
 62
     7
 10
294.6466497708
 20
138.9305410783
 30
0.0
 11
294.6466497708
 21
137.9305420319
 31
0.0
  0
LINE
  5
1DC
  8
0
  6
CONTINUOUS
 62
     7
 10
284.8466507722
 20
137.9305420319
 30
0.0
 11
284.8466507722
 21
138.9305410783
 31
0.0
  0
CIRCLE
  5
1DD
  8
0
  6
CONTINUOUS
 62
     7
 10
288.746649437
 20
132.3305420319
 30
0.0
 40
1.099999999999966
  0
ARC
  5
1DE
  8
0
  6
CONTINUOUS
 62
     7
 10
292.646649437
 20
129.9305420319
 30
0.0
 40
2.000000000000014
 50
270.0
 51
0.0
  0
LINE
  5
1DF
  8
0
  6
CONTINUOUS
 62
     7
 10
292.6466516782
 20
127.9305396477
 30
0.0
 11
286.8466488648
 21
127.9305396477
 31
0.0
  0
ARC
  5
1E0
  8
0
  6
CONTINUOUS
 62
     7
 10
286.846649437
 20
129.9305420319
 30
0.0
 40
2.000000000000014
 50
180.0
 51
270.0
  0
LINE
  5
1E1
  8
0
  6
CONTINUOUS
 62
     7
 10
294.6466497708
 20
137.9305420319
 30
0.0
 11
294.6466497708
 21
129.9305437009
 31
0.0
  0
LINE
  5
1E2
  8
0
  6
CONTINUOUS
 62
     7
 10
284.8466507722
 20
129.9305437009
 30
0.0
 11
284.8466507722
 21
137.9305420319
 31
0.0
  0
LINE
  5
1E3
  8
0
  6
CONTINUOUS
 62
     7
 10
284.8466507722
 20
142.4651322762
 30
0.0
 11
284.8466507722
 21
146.7733083169
 31
0.0
  0
LINE
  5
1E4
  8
0
  6
CONTINUOUS
 62
     7
 10
288.2466487218
 20
146.7733083169
 30
0.0
 11
288.2466487218
 21
142.4651322762
 31
0.0
  0
LINE
  5
1E5
  8
0
  6
CONTINUOUS
 62
     7
 10
284.8466507722
 20
142.4651322762
 30
0.0
 11
284.8466507722
 21
138.9305410783
 31
0.0
  0
LINE
  5
1E6
  8
0
  6
CONTINUOUS
 62
     7
 10
288.2466487218
 20
142.4651322762
 30
0.0
 11
288.2466487218
 21
138.9305410783
 31
0.0
  0
LINE
  5
1E7
  8
0
  6
CONTINUOUS
 62
     7
 10
168.2466499139
 20
155.9305427472
 30
0.0
 11
168.2466499139
 21
146.7733083169
 31
0.0
  0
LINE
  5
1E8
  8
0
  6
CONTINUOUS
 62
     7
 10
164.846648984
 20
155.9305427472
 30
0.0
 11
164.846648984
 21
146.7733083169
 31
0.0
  0
LINE
  5
1E9
  8
0
  6
CONTINUOUS
 62
     7
 10
185.6466494132
 20
155.5305419366
 30
0.0
 11
185.6466494132
 21
143.5305414597
 31
0.0
  0
LINE
  5
1EA
  8
0
  6
CONTINUOUS
 62
     7
 10
172.64664989
 20
127.9305396477
 30
0.0
 11
166.8466500569
 21
127.9305396477
 31
0.0
  0
ARC
  5
1EB
  8
0
  6
CONTINUOUS
 62
     7
 10
166.846649437
 20
129.9305420319
 30
0.0
 40
2.000000000000014
 50
180.0
 51
270.0
  0
LINE
  5
1EC
  8
0
  6
CONTINUOUS
 62
     7
 10
174.6466479827
 20
137.9305420319
 30
0.0
 11
174.6466479827
 21
129.9305437009
 31
0.0
  0
CIRCLE
  5
1ED
  8
0
  6
CONTINUOUS
 62
     7
 10
168.746649437
 20
132.3305420319
 30
0.0
 40
1.099999999999994
  0
ARC
  5
1EE
  8
0
  6
CONTINUOUS
 62
     7
 10
172.646649437
 20
129.9305420319
 30
0.0
 40
2.000000000000014
 50
270.0
 51
0.0
  0
LINE
  5
1EF
  8
0
  6
CONTINUOUS
 62
     7
 10
164.846648984
 20
129.9305437009
 30
0.0
 11
164.846648984
 21
137.9305420319
 31
0.0
  0
LINE
  5
1F0
  8
0
  6
CONTINUOUS
 62
     7
 10
164.846648984
 20
138.9305410783
 30
0.0
 11
174.6466479827
 21
138.9305410783
 31
0.0
  0
LINE
  5
1F1
  8
0
  6
CONTINUOUS
 62
     7
 10
174.6466479827
 20
138.9305410783
 30
0.0
 11
174.6466479827
 21
137.9305420319
 31
0.0
  0
LINE
  5
1F2
  8
0
  6
CONTINUOUS
 62
     7
 10
164.846648984
 20
137.9305420319
 30
0.0
 11
164.846648984
 21
138.9305410783
 31
0.0
  0
LINE
  5
1F3
  8
0
  6
CONTINUOUS
 62
     7
 10
168.2466499139
 20
146.7733083169
 30
0.0
 11
168.2466499139
 21
142.4651322762
 31
0.0
  0
LINE
  5
1F4
  8
0
  6
CONTINUOUS
 62
     7
 10
164.846648984
 20
142.4651322762
 30
0.0
 11
164.846648984
 21
146.7733083169
 31
0.0
  0
LINE
  5
1F5
  8
0
  6
CONTINUOUS
 62
     7
 10
168.2466499139
 20
142.4651322762
 30
0.0
 11
168.2466499139
 21
138.9305410783
 31
0.0
  0
LINE
  5
1F6
  8
0
  6
CONTINUOUS
 62
     7
 10
164.846648984
 20
142.4651322762
 30
0.0
 11
164.846648984
 21
138.9305410783
 31
0.0
  0
LINE
  5
1F7
  8
0
  6
CONTINUOUS
 62
     7
 10
48.2466451455
 20
155.9305427472
 30
0.0
 11
48.2466451455
 21
146.7733083169
 31
0.0
  0
LINE
  5
1F8
  8
0
  6
CONTINUOUS
 62
     7
 10
44.8466531563
 20
155.9305427472
 30
0.0
 11
44.8466531563
 21
146.7733083169
 31
0.0
  0
LINE
  5
1F9
  8
0
  6
CONTINUOUS
 62
     7
 10
65.646647625
 20
155.5305419366
 30
0.0
 11
65.646647625
 21
143.5305414597
 31
0.0
  0
CIRCLE
  5
1FA
  8
0
  6
CONTINUOUS
 62
     7
 10
48.746649437
 20
132.3305420319
 30
0.0
 40
1.099999999999994
  0
ARC
  5
1FB
  8
0
  6
CONTINUOUS
 62
     7
 10
52.646649437
 20
129.9305420319
 30
0.0
 40
2.000000000000014
 50
270.0
 51
0.0
  0
LINE
  5
1FC
  8
0
  6
CONTINUOUS
 62
     7
 10
52.6466481019
 20
127.9305396477
 30
0.0
 11
46.846651249
 21
127.9305396477
 31
0.0
  0
ARC
  5
1FD
  8
0
  6
CONTINUOUS
 62
     7
 10
46.846649437
 20
129.9305420319
 30
0.0
 40
2.000000000000014
 50
180.0
 51
270.0
  0
LINE
  5
1FE
  8
0
  6
CONTINUOUS
 62
     7
 10
54.6466461945
 20
137.9305420319
 30
0.0
 11
54.6466461945
 21
129.9305437009
 31
0.0
  0
LINE
  5
1FF
  8
0
  6
CONTINUOUS
 62
     7
 10
44.8466531563
 20
129.9305437009
 30
0.0
 11
44.8466531563
 21
137.9305420319
 31
0.0
  0
LINE
  5
200
  8
0
  6
CONTINUOUS
 62
     7
 10
44.8466531563
 20
138.9305410783
 30
0.0
 11
54.6466461945
 21
138.9305410783
 31
0.0
  0
LINE
  5
201
  8
0
  6
CONTINUOUS
 62
     7
 10
54.6466461945
 20
138.9305410783
 30
0.0
 11
54.6466461945
 21
137.9305420319
 31
0.0
  0
LINE
  5
202
  8
0
  6
CONTINUOUS
 62
     7
 10
44.8466531563
 20
137.9305420319
 30
0.0
 11
44.8466531563
 21
138.9305410783
 31
0.0
  0
LINE
  5
203
  8
0
  6
CONTINUOUS
 62
     7
 10
48.2466451455
 20
146.7733083169
 30
0.0
 11
48.2466451455
 21
142.4651322762
 31
0.0
  0
LINE
  5
204
  8
0
  6
CONTINUOUS
 62
     7
 10
44.8466531563
 20
142.4651322762
 30
0.0
 11
44.8466531563
 21
146.7733083169
 31
0.0
  0
LINE
  5
205
  8
0
  6
CONTINUOUS
 62
     7
 10
48.2466451455
 20
142.4651322762
 30
0.0
 11
48.2466451455
 21
138.9305410783
 31
0.0
  0
LINE
  5
206
  8
0
  6
CONTINUOUS
 62
     7
 10
44.8466531563
 20
142.4651322762
 30
0.0
 11
44.8466531563
 21
138.9305410783
 31
0.0
  0
POLYLINE
  5
207
  8
0
  6
CONTINUOUS
 62
     7
 66
     1
 10
0.0
 20
0.0
 30
0.0
  0
VERTEX
  5
62F
  8
0
  6
CONTINUOUS
 62
     7
 10
453.0096503621
 20
229.6696124474
 30
0.0
  0
VERTEX
  5
630
  8
0
  6
CONTINUOUS
 62
     7
 10
453.5949277407
 20
227.030116121
 30
0.0
  0
VERTEX
  5
631
  8
0
  6
CONTINUOUS
 62
     7
 10
454.1542905098
 20
224.5683489243
 30
0.0
  0
VERTEX
  5
632
  8
0
  6
CONTINUOUS
 62
     7
 10
454.6928601986
 20
222.2853122155
 30
0.0
  0
VERTEX
  5
633
  8
0
  6
CONTINUOUS
 62
     7
 10
455.1848026639
 20
220.1760230462
 30
0.0
  0
VERTEX
  5
634
  8
0
  6
CONTINUOUS
 62
     7
 10
455.594998849
 20
218.2538805405
 30
0.0
  0
VERTEX
  5
635
  8
0
  6
CONTINUOUS
 62
     7
 10
455.9072690731
 20
216.5533242623
 30
0.0
  0
VERTEX
  5
636
  8
0
  6
CONTINUOUS
 62
     7
 10
456.0389998084
 20
215.7349286477
 30
0.0
  0
SEQEND
  5
A43
  8
0
  6
CONTINUOUS
 62
     7
  0
ARC
  5
208
  8
0
  6
CONTINUOUS
 62
     7
 10
242.708157091
 20
179.0612467255
 30
0.0
 40
216.3961531962295
 50
5.3056924443
 51
8.16556371
  0
LINE
  5
209
  8
0
  6
CONTINUOUS
 62
     7
 10
454.1814419156
 20
229.9282727639
 30
0.0
 11
453.0096503621
 21
229.6696124474
 31
0.0
  0
LINE
  5
20A
  8
0
  6
CONTINUOUS
 62
     7
 10
458.1771644479
 20
199.0712938706
 30
0.0
 11
459.3712473935
 21
199.1903243462
 31
0.0
  0
POLYLINE
  5
20B
  8
0
  6
CONTINUOUS
 62
     7
 66
     1
 10
0.0
 20
0.0
 30
0.0
  0
VERTEX
  5
637
  8
0
  6
CONTINUOUS
 62
     7
 10
471.0081440578
 20
197.218948404
 30
0.0
  0
VERTEX
  5
638
  8
0
  6
CONTINUOUS
 62
     7
 10
470.9689760296
 20
197.6786909501
 30
0.0
  0
VERTEX
  5
639
  8
0
  6
CONTINUOUS
 62
     7
 10
470.7659236802
 20
200.366931955
 30
0.0
  0
VERTEX
  5
63A
  8
0
  6
CONTINUOUS
 62
     7
 10
470.6076609617
 20
202.8099832932
 30
0.0
  0
VERTEX
  5
63B
  8
0
  6
CONTINUOUS
 62
     7
 10
470.4817862896
 20
205.0035772721
 30
0.0
  0
VERTEX
  5
63C
  8
0
  6
CONTINUOUS
 62
     7
 10
470.3933867341
 20
206.6746173302
 30
0.0
  0
VERTEX
  5
63D
  8
0
  6
CONTINUOUS
 62
     7
 10
470.3183866753
 20
208.1626711289
 30
0.0
  0
VERTEX
  5
63E
  8
0
  6
CONTINUOUS
 62
     7
 10
470.2534456453
 20
209.4853578011
 30
0.0
  0
VERTEX
  5
63F
  8
0
  6
CONTINUOUS
 62
     7
 10
470.1905428147
 20
210.7649979989
 30
0.0
  0
VERTEX
  5
640
  8
0
  6
CONTINUOUS
 62
     7
 10
470.126585727
 20
212.0270667474
 30
0.0
  0
VERTEX
  5
641
  8
0
  6
CONTINUOUS
 62
     7
 10
470.0597970462
 20
213.2734237115
 30
0.0
  0
VERTEX
  5
642
  8
0
  6
CONTINUOUS
 62
     7
 10
469.9885544082
 20
214.5058093468
 30
0.0
  0
VERTEX
  5
643
  8
0
  6
CONTINUOUS
 62
     7
 10
469.9113842746
 20
215.7257972161
 30
0.0
  0
VERTEX
  5
644
  8
0
  6
CONTINUOUS
 62
     7
 10
469.7969912267
 20
217.3355756203
 30
0.0
  0
VERTEX
  5
645
  8
0
  6
CONTINUOUS
 62
     7
 10
469.6658699489
 20
218.9450321595
 30
0.0
  0
VERTEX
  5
646
  8
0
  6
CONTINUOUS
 62
     7
 10
469.5616577467
 20
220.5737767617
 30
0.0
  0
VERTEX
  5
647
  8
0
  6
CONTINUOUS
 62
     7
 10
469.5572589239
 20
221.0593519608
 30
0.0
  0
VERTEX
  5
648
  8
0
  6
CONTINUOUS
 62
     7
 10
469.5738116926
 20
221.5504942338
 30
0.0
  0
VERTEX
  5
649
  8
0
  6
CONTINUOUS
 62
     7
 10
469.6299486509
 20
222.1421299378
 30
0.0
  0
VERTEX
  5
64A
  8
0
  6
CONTINUOUS
 62
     7
 10
469.764509303
 20
222.8492556016
 30
0.0
  0
VERTEX
  5
64B
  8
0
  6
CONTINUOUS
 62
     7
 10
470.0227102911
 20
223.6583171288
 30
0.0
  0
VERTEX
  5
64C
  8
0
  6
CONTINUOUS
 62
     7
 10
470.4384529678
 20
224.5592413346
 30
0.0
  0
VERTEX
  5
64D
  8
0
  6
CONTINUOUS
 62
     7
 10
471.036213282
 20
225.544804136
 30
0.0
  0
VERTEX
  5
64E
  8
0
  6
CONTINUOUS
 62
     7
 10
471.8258463376
 20
226.6120729844
 30
0.0
  0
VERTEX
  5
64F
  8
0
  6
CONTINUOUS
 62
     7
 10
472.7957714996
 20
227.7644811074
 30
0.0
  0
VERTEX
  5
650
  8
0
  6
CONTINUOUS
 62
     7
 10
473.485475657
 20
228.5406408707
 30
0.0
  0
SEQEND
  5
A42
  8
0
  6
CONTINUOUS
 62
     7
  0
LINE
  5
20C
  8
0
  6
CONTINUOUS
 62
     7
 10
473.4804930812
 20
228.5575089852
 30
0.0
 11
471.8851103279
 21
228.5575089852
 31
0.0
  0
POLYLINE
  5
20D
  8
0
  6
CONTINUOUS
 62
     7
 66
     1
 10
0.0
 20
0.0
 30
0.0
  0
VERTEX
  5
651
  8
0
  6
CONTINUOUS
 62
     7
 10
519.5410209423
 20
150.3750143449
 30
0.0
  0
VERTEX
  5
652
  8
0
  6
CONTINUOUS
 62
     7
 10
520.0007694489
 20
150.4141865174
 30
0.0
  0
VERTEX
  5
653
  8
0
  6
CONTINUOUS
 62
     7
 10
522.6890074736
 20
150.6172357003
 30
0.0
  0
VERTEX
  5
654
  8
0
  6
CONTINUOUS
 62
     7
 10
525.1320647722
 20
150.7754979531
 30
0.0
  0
VERTEX
  5
655
  8
0
  6
CONTINUOUS
 62
     7
 10
527.3256527907
 20
150.9013770024
 30
0.0
  0
VERTEX
  5
656
  8
0
  6
CONTINUOUS
 62
     7
 10
528.9966928488
 20
150.9897766511
 30
0.0
  0
VERTEX
  5
657
  8
0
  6
CONTINUOUS
 62
     7
 10
530.4847466475
 20
151.0647712151
 30
0.0
  0
VERTEX
  5
658
  8
0
  6
CONTINUOUS
 62
     7
 10
531.8074273592
 20
151.1297164361
 30
0.0
  0
VERTEX
  5
659
  8
0
  6
CONTINUOUS
 62
     7
 10
533.0870794779
 20
151.1926172177
 30
0.0
  0
VERTEX
  5
65A
  8
0
  6
CONTINUOUS
 62
     7
 10
534.3491422659
 20
151.2565730016
 30
0.0
  0
VERTEX
  5
65B
  8
0
  6
CONTINUOUS
 62
     7
 10
535.5955051905
 20
151.3233659665
 30
0.0
  0
VERTEX
  5
65C
  8
0
  6
CONTINUOUS
 62
     7
 10
536.8278908259
 20
151.3946054379
 30
0.0
  0
VERTEX
  5
65D
  8
0
  6
CONTINUOUS
 62
     7
 10
538.0478727347
 20
151.4717755715
 30
0.0
  0
VERTEX
  5
65E
  8
0
  6
CONTINUOUS
 62
     7
 10
539.6576570994
 20
151.5861688058
 30
0.0
  0
VERTEX
  5
65F
  8
0
  6
CONTINUOUS
 62
     7
 10
541.2671136385
 20
151.7172930638
 30
0.0
  0
VERTEX
  5
660
  8
0
  6
CONTINUOUS
 62
     7
 10
542.8958522802
 20
151.8214998643
 30
0.0
  0
VERTEX
  5
661
  8
0
  6
CONTINUOUS
 62
     7
 10
543.3814334398
 20
151.8258986871
 30
0.0
  0
VERTEX
  5
662
  8
0
  6
CONTINUOUS
 62
     7
 10
543.8725697523
 20
151.8093464772
 30
0.0
  0
VERTEX
  5
663
  8
0
  6
CONTINUOUS
 62
     7
 10
544.4642054564
 20
151.7532108228
 30
0.0
  0
VERTEX
  5
664
  8
0
  6
CONTINUOUS
 62
     7
 10
545.1713370806
 20
151.6186533372
 30
0.0
  0
VERTEX
  5
665
  8
0
  6
CONTINUOUS
 62
     7
 10
545.9803926474
 20
151.3604519765
 30
0.0
  0
VERTEX
  5
666
  8
0
  6
CONTINUOUS
 62
     7
 10
546.8813228136
 20
150.9447095792
 30
0.0
  0
VERTEX
  5
667
  8
0
  6
CONTINUOUS
 62
     7
 10
547.8668796545
 20
150.3469465176
 30
0.0
  0
VERTEX
  5
668
  8
0
  6
CONTINUOUS
 62
     7
 10
548.9341485029
 20
149.5573161046
 30
0.0
  0
VERTEX
  5
669
  8
0
  6
CONTINUOUS
 62
     7
 10
550.0865566259
 20
148.5873876015
 30
0.0
  0
VERTEX
  5
66A
  8
0
  6
CONTINUOUS
 62
     7
 10
550.8627163893
 20
147.8976843755
 30
0.0
  0
SEQEND
  5
A41
  8
0
  6
CONTINUOUS
 62
     7
  0
LINE
  5
20E
  8
0
  6
CONTINUOUS
 62
     7
 10
550.8795845038
 20
147.9026673238
 30
0.0
 11
550.8795845038
 21
149.4980512063
 31
0.0
  0
LINE
  5
20F
  8
0
  6
CONTINUOUS
 62
     7
 10
466.7526184296
 20
129.1305420796
 30
0.0
 11
466.7526184296
 21
137.1305404107
 31
0.0
  0
ARC
  5
210
  8
0
  6
CONTINUOUS
 62
     7
 10
467.7526185042
 20
137.1305420319
 30
0.0
 40
1.0
 50
90.0
 51
180.0
  0
ARC
  5
211
  8
0
  6
CONTINUOUS
 62
     7
 10
467.7526185042
 20
129.1305420319
 30
0.0
 40
1.0
 50
180.0
 51
270.0
  0
LINE
  5
212
  8
0
  6
CONTINUOUS
 62
     7
 10
467.7526185936
 20
138.130539457
 30
0.0
 11
475.7526184147
 21
138.130539457
 31
0.0
  0
LINE
  5
213
  8
0
  6
CONTINUOUS
 62
     7
 10
475.7526184147
 20
128.1305430333
 30
0.0
 11
467.7526185936
 21
128.1305430333
 31
0.0
  0
ARC
  5
214
  8
0
  6
CONTINUOUS
 62
     7
 10
475.7526185042
 20
137.1305420319
 30
0.0
 40
1.0
 50
0.0
 51
90.0
  0
ARC
  5
215
  8
0
  6
CONTINUOUS
 62
     7
 10
475.7526185042
 20
129.1305420319
 30
0.0
 40
1.0
 50
270.0
 51
0.0
  0
LINE
  5
216
  8
0
  6
CONTINUOUS
 62
     7
 10
476.7526185787
 20
137.1305404107
 30
0.0
 11
476.7526185787
 21
129.1305420796
 31
0.0
  0
LINE
  5
217
  8
0
  6
CONTINUOUS
 62
     7
 10
463.752618683
 20
62.9305420319
 30
0.0
 11
459.7526187724
 21
62.9305420319
 31
0.0
  0
LINE
  5
218
  8
0
  6
CONTINUOUS
 62
     7
 10
459.7526187724
 20
62.9305420319
 30
0.0
 11
459.7526187724
 21
64.1305420424
 31
0.0
  0
LINE
  5
219
  8
0
  6
CONTINUOUS
 62
     7
 10
459.7526187724
 20
64.1305420424
 30
0.0
 11
463.752618683
 21
64.1305420424
 31
0.0
  0
LINE
  5
21A
  8
0
  6
CONTINUOUS
 62
     7
 10
465.7526186383
 20
62.9305420319
 30
0.0
 11
493.1210401183
 21
62.9305420319
 31
0.0
  0
LINE
  5
21B
  8
0
  6
CONTINUOUS
 62
     7
 10
493.1210401183
 20
64.1305420424
 30
0.0
 11
465.7526186383
 21
64.1305420424
 31
0.0
  0
LINE
  5
21C
  8
0
  6
CONTINUOUS
 62
     7
 10
463.752618683
 20
62.9305420319
 30
0.0
 11
465.7526186383
 21
62.9305420319
 31
0.0
  0
LINE
  5
21D
  8
0
  6
CONTINUOUS
 62
     7
 10
463.752618683
 20
64.1305420424
 30
0.0
 11
465.7526186383
 21
64.1305420424
 31
0.0
  0
LINE
  5
21E
  8
0
  6
CONTINUOUS
 62
     7
 10
495.7526179677
 20
64.1305420424
 30
0.0
 11
495.7526179677
 21
62.9305420319
 31
0.0
  0
LINE
  5
21F
  8
0
  6
CONTINUOUS
 62
     7
 10
495.7526179677
 20
62.9305420319
 30
0.0
 11
493.1210401183
 21
62.9305420319
 31
0.0
  0
LINE
  5
220
  8
0
  6
CONTINUOUS
 62
     7
 10
493.1210401183
 20
64.1305420424
 30
0.0
 11
495.7526179677
 21
64.1305420424
 31
0.0
  0
LINE
  5
221
  8
0
  6
CONTINUOUS
 62
     7
 10
466.7526184296
 20
64.1305420424
 30
0.0
 11
466.7526184296
 21
127.9305396477
 31
0.0
  0
LINE
  5
222
  8
0
  6
CONTINUOUS
 62
     7
 10
476.7526185787
 20
129.1305420796
 30
0.0
 11
476.7526185787
 21
64.1305420424
 31
0.0
  0
POLYLINE
  5
223
  8
0
  6
CONTINUOUS
 62
     7
 66
     1
 10
0.0
 20
0.0
 30
0.0
  0
VERTEX
  5
66B
  8
0
  6
CONTINUOUS
 62
     7
 10
463.0688662356
 20
199.6719179551
 30
0.0
  0
VERTEX
  5
66C
  8
0
  6
CONTINUOUS
 62
     7
 10
463.6164190894
 20
199.866741697
 30
0.0
  0
VERTEX
  5
66D
  8
0
  6
CONTINUOUS
 62
     7
 10
464.1493449634
 20
200.3090081612
 30
0.0
  0
VERTEX
  5
66E
  8
0
  6
CONTINUOUS
 62
     7
 10
464.6483222669
 20
200.9908614556
 30
0.0
  0
VERTEX
  5
66F
  8
0
  6
CONTINUOUS
 62
     7
 10
465.0930168754
 20
201.8896398942
 30
0.0
  0
VERTEX
  5
670
  8
0
  6
CONTINUOUS
 62
     7
 10
465.4611314362
 20
202.9779253403
 30
0.0
  0
VERTEX
  5
671
  8
0
  6
CONTINUOUS
 62
     7
 10
465.7368736988
 20
204.2245088021
 30
0.0
  0
VERTEX
  5
672
  8
0
  6
CONTINUOUS
 62
     7
 10
465.9030723101
 20
205.5982408921
 30
0.0
  0
VERTEX
  5
673
  8
0
  6
CONTINUOUS
 62
     7
 10
465.9487290954
 20
207.0554910104
 30
0.0
  0
VERTEX
  5
674
  8
0
  6
CONTINUOUS
 62
     7
 10
465.9002727544
 20
208.1540284554
 30
0.0
  0
SEQEND
  5
A40
  8
0
  6
CONTINUOUS
 62
     7
  0
POLYLINE
  5
224
  8
0
  6
CONTINUOUS
 62
     7
 66
     1
 10
0.0
 20
0.0
 30
0.0
  0
VERTEX
  5
675
  8
0
  6
CONTINUOUS
 62
     7
 10
463.0688662356
 20
199.6719179551
 30
0.0
  0
VERTEX
  5
676
  8
0
  6
CONTINUOUS
 62
     7
 10
462.0081054693
 20
199.5416698853
 30
0.0
  0
VERTEX
  5
677
  8
0
  6
CONTINUOUS
 62
     7
 10
461.0736931389
 20
199.4269428651
 30
0.0
  0
VERTEX
  5
678
  8
0
  6
CONTINUOUS
 62
     7
 10
460.2673533088
 20
199.3279395501
 30
0.0
  0
VERTEX
  5
679
  8
0
  6
CONTINUOUS
 62
     7
 10
459.3554551428
 20
199.2159662644
 30
0.0
  0
VERTEX
  5
67A
  8
0
  6
CONTINUOUS
 62
     7
 10
458.7016212469
 20
199.1356907288
 30
0.0
  0
VERTEX
  5
67B
  8
0
  6
CONTINUOUS
 62
     7
 10
458.3084362274
 20
199.0874109666
 30
0.0
  0
VERTEX
  5
67C
  8
0
  6
CONTINUOUS
 62
     7
 10
458.1771644479
 20
199.0712938706
 30
0.0
  0
SEQEND
  5
A3F
  8
0
  6
CONTINUOUS
 62
     7
  0
POLYLINE
  5
225
  8
0
  6
CONTINUOUS
 62
     7
 66
     1
 10
0.0
 20
0.0
 30
0.0
  0
VERTEX
  5
67D
  8
0
  6
CONTINUOUS
 62
     7
 10
453.0096503621
 20
229.6696124474
 30
0.0
  0
VERTEX
  5
67E
  8
0
  6
CONTINUOUS
 62
     7
 10
453.1066673523
 20
229.6815214555
 30
0.0
  0
VERTEX
  5
67F
  8
0
  6
CONTINUOUS
 62
     7
 10
453.3973070508
 20
229.7172007958
 30
0.0
  0
VERTEX
  5
680
  8
0
  6
CONTINUOUS
 62
     7
 10
453.8809227472
 20
229.7765908639
 30
0.0
  0
VERTEX
  5
681
  8
0
  6
CONTINUOUS
 62
     7
 10
454.5562433725
 20
229.8595009248
 30
0.0
  0
VERTEX
  5
682
  8
0
  6
CONTINUOUS
 62
     7
 10
455.4213675386
 20
229.9657283227
 30
0.0
  0
VERTEX
  5
683
  8
0
  6
CONTINUOUS
 62
     7
 10
456.3917445665
 20
230.0848780076
 30
0.0
  0
VERTEX
  5
684
  8
0
  6
CONTINUOUS
 62
     7
 10
457.5212928182
 20
230.223566095
 30
0.0
  0
VERTEX
  5
685
  8
0
  6
CONTINUOUS
 62
     7
 10
458.8075103885
 20
230.3814945618
 30
0.0
  0
SEQEND
  5
A3E
  8
0
  6
CONTINUOUS
 62
     7
  0
POLYLINE
  5
226
  8
0
  6
CONTINUOUS
 62
     7
 66
     1
 10
0.0
 20
0.0
 30
0.0
  0
VERTEX
  5
686
  8
0
  6
CONTINUOUS
 62
     7
 10
464.2656708783
 20
222.5711880128
 30
0.0
  0
VERTEX
  5
687
  8
0
  6
CONTINUOUS
 62
     7
 10
463.9630901343
 20
223.8830027978
 30
0.0
  0
VERTEX
  5
688
  8
0
  6
CONTINUOUS
 62
     7
 10
463.5451349145
 20
225.1531777779
 30
0.0
  0
VERTEX
  5
689
  8
0
  6
CONTINUOUS
 62
     7
 10
463.0272651738
 20
226.3459978501
 30
0.0
  0
VERTEX
  5
68A
  8
0
  6
CONTINUOUS
 62
     7
 10
462.4336595362
 20
227.4312315385
 30
0.0
  0
VERTEX
  5
68B
  8
0
  6
CONTINUOUS
 62
     7
 10
461.7882105237
 20
228.3794460694
 30
0.0
  0
VERTEX
  5
68C
  8
0
  6
CONTINUOUS
 62
     7
 10
461.118018133
 20
229.166632692
 30
0.0
  0
VERTEX
  5
68D
  8
0
  6
CONTINUOUS
 62
     7
 10
460.4509102827
 20
229.7679124276
 30
0.0
  0
VERTEX
  5
68E
  8
0
  6
CONTINUOUS
 62
     7
 10
459.8075772351
 20
230.1734147469
 30
0.0
  0
VERTEX
  5
68F
  8
0
  6
CONTINUOUS
 62
     7
 10
459.2849666899
 20
230.3566751878
 30
0.0
  0
VERTEX
  5
690
  8
0
  6
CONTINUOUS
 62
     7
 10
458.8075103885
 20
230.3814945618
 30
0.0
  0
SEQEND
  5
A3D
  8
0
  6
CONTINUOUS
 62
     7
  0
POLYLINE
  5
227
  8
0
  6
CONTINUOUS
 62
     7
 66
     1
 10
0.0
 20
0.0
 30
0.0
  0
VERTEX
  5
691
  8
0
  6
CONTINUOUS
 62
     7
 10
464.2656708783
 20
222.5711880128
 30
0.0
  0
VERTEX
  5
692
  8
0
  6
CONTINUOUS
 62
     7
 10
464.8387762433
 20
218.998306791
 30
0.0
  0
VERTEX
  5
693
  8
0
  6
CONTINUOUS
 62
     7
 10
465.2630339092
 20
215.3947887818
 30
0.0
  0
VERTEX
  5
694
  8
0
  6
CONTINUOUS
 62
     7
 10
465.6032810634
 20
211.7763934533
 30
0.0
  0
VERTEX
  5
695
  8
0
  6
CONTINUOUS
 62
     7
 10
465.9002727544
 20
208.1540284554
 30
0.0
  0
SEQEND
  5
A3C
  8
0
  6
CONTINUOUS
 62
     7
  0
POLYLINE
  5
228
  8
0
  6
CONTINUOUS
 62
     7
 66
     1
 10
0.0
 20
0.0
 30
0.0
  0
VERTEX
  5
696
  8
0
  6
CONTINUOUS
 62
     7
 10
459.8180982
 20
230.6505260865
 30
0.0
  0
VERTEX
  5
697
  8
0
  6
CONTINUOUS
 62
     7
 10
460.3706660396
 20
230.6098161141
 30
0.0
  0
VERTEX
  5
698
  8
0
  6
CONTINUOUS
 62
     7
 10
460.9816024727
 20
230.3588686387
 30
0.0
  0
VERTEX
  5
699
  8
0
  6
CONTINUOUS
 62
     7
 10
461.633710069
 20
229.9001870553
 30
0.0
  0
VERTEX
  5
69A
  8
0
  6
CONTINUOUS
 62
     7
 10
462.3043234175
 20
229.2481599252
 30
0.0
  0
VERTEX
  5
69B
  8
0
  6
CONTINUOUS
 62
     7
 10
462.9662940925
 20
228.4217892091
 30
0.0
  0
VERTEX
  5
69C
  8
0
  6
CONTINUOUS
 62
     7
 10
463.5975609249
 20
227.4420676629
 30
0.0
  0
VERTEX
  5
69D
  8
0
  6
CONTINUOUS
 62
     7
 10
464.173118276
 20
226.3297853867
 30
0.0
  0
VERTEX
  5
69E
  8
0
  6
CONTINUOUS
 62
     7
 10
464.6675782925
 20
225.1178679864
 30
0.0
  0
VERTEX
  5
69F
  8
0
  6
CONTINUOUS
 62
     7
 10
465.0147604471
 20
224.0025220315
 30
0.0
  0
VERTEX
  5
6A0
  8
0
  6
CONTINUOUS
 62
     7
 10
465.2730378038
 20
222.8586373727
 30
0.0
  0
SEQEND
  5
A3B
  8
0
  6
CONTINUOUS
 62
     7
  0
ARC
  5
229
  8
0
  6
CONTINUOUS
 62
     7
 10
379.2542969543
 20
207.0478180773
 30
0.0
 40
87.45973807483851
 50
5.2506186278
 51
10.4150945389
  0
POLYLINE
  5
22A
  8
0
  6
CONTINUOUS
 62
     7
 66
     1
 10
0.0
 20
0.0
 30
0.0
  0
VERTEX
  5
6A1
  8
0
  6
CONTINUOUS
 62
     7
 10
464.1273381835
 20
199.7809825341
 30
0.0
  0
VERTEX
  5
6A2
  8
0
  6
CONTINUOUS
 62
     7
 10
463.1061236089
 20
199.6541557709
 30
0.0
  0
VERTEX
  5
6A3
  8
0
  6
CONTINUOUS
 62
     7
 10
462.2051964229
 20
199.5422659318
 30
0.0
  0
VERTEX
  5
6A4
  8
0
  6
CONTINUOUS
 62
     7
 10
461.4261994785
 20
199.4455275933
 30
0.0
  0
VERTEX
  5
6A5
  8
0
  6
CONTINUOUS
 62
     7
 10
460.5296770757
 20
199.3341861169
 30
0.0
  0
VERTEX
  5
6A6
  8
0
  6
CONTINUOUS
 62
     7
 10
459.8868633336
 20
199.2543516557
 30
0.0
  0
VERTEX
  5
6A7
  8
0
  6
CONTINUOUS
 62
     7
 10
459.5003078407
 20
199.2063460748
 30
0.0
  0
VERTEX
  5
6A8
  8
0
  6
CONTINUOUS
 62
     7
 10
459.3712473935
 20
199.1903243462
 30
0.0
  0
SEQEND
  5
A3A
  8
0
  6
CONTINUOUS
 62
     7
  0
POLYLINE
  5
22B
  8
0
  6
CONTINUOUS
 62
     7
 66
     1
 10
0.0
 20
0.0
 30
0.0
  0
VERTEX
  5
6A9
  8
0
  6
CONTINUOUS
 62
     7
 10
466.5447189188
 20
203.275817434
 30
0.0
  0
VERTEX
  5
6AA
  8
0
  6
CONTINUOUS
 62
     7
 10
466.4229727065
 20
202.7854261796
 30
0.0
  0
VERTEX
  5
6AB
  8
0
  6
CONTINUOUS
 62
     7
 10
466.0324412113
 20
201.7424521844
 30
0.0
  0
VERTEX
  5
6AC
  8
0
  6
CONTINUOUS
 62
     7
 10
465.5731706595
 20
200.8977709214
 30
0.0
  0
VERTEX
  5
6AD
  8
0
  6
CONTINUOUS
 62
     7
 10
465.0666105276
 20
200.2802548806
 30
0.0
  0
VERTEX
  5
6AE
  8
0
  6
CONTINUOUS
 62
     7
 10
464.5320276445
 20
199.9009428422
 30
0.0
  0
VERTEX
  5
6AF
  8
0
  6
CONTINUOUS
 62
     7
 10
464.1273381835
 20
199.7809825341
 30
0.0
  0
SEQEND
  5
A39
  8
0
  6
CONTINUOUS
 62
     7
  0
LINE
  5
22C
  8
0
  6
CONTINUOUS
 62
     7
 10
459.8181190616
 20
230.6505260865
 30
0.0
 11
458.9700999385
 21
230.54187874
 31
0.0
  0
POLYLINE
  5
22D
  8
0
  6
CONTINUOUS
 62
     7
 66
     1
 10
0.0
 20
0.0
 30
0.0
  0
VERTEX
  5
6B0
  8
0
  6
CONTINUOUS
 62
     7
 10
454.1814419156
 20
229.9282727639
 30
0.0
  0
VERTEX
  5
6B1
  8
0
  6
CONTINUOUS
 62
     7
 10
454.2767869955
 20
229.9404797951
 30
0.0
  0
VERTEX
  5
6B2
  8
0
  6
CONTINUOUS
 62
     7
 10
454.5624109632
 20
229.977088968
 30
0.0
  0
VERTEX
  5
6B3
  8
0
  6
CONTINUOUS
 62
     7
 10
455.0376700884
 20
230.037992994
 30
0.0
  0
VERTEX
  5
6B4
  8
0
  6
CONTINUOUS
 62
     7
 10
455.7013335353
 20
230.1230369012
 30
0.0
  0
VERTEX
  5
6B5
  8
0
  6
CONTINUOUS
 62
     7
 10
456.5515103465
 20
230.2319822709
 30
0.0
  0
VERTEX
  5
6B6
  8
0
  6
CONTINUOUS
 62
     7
 10
457.4894296652
 20
230.3521690766
 30
0.0
  0
VERTEX
  5
6B7
  8
0
  6
CONTINUOUS
 62
     7
 10
458.5790875083
 20
230.4917869965
 30
0.0
  0
VERTEX
  5
6B8
  8
0
  6
CONTINUOUS
 62
     7
 10
459.8180982
 20
230.6505260865
 30
0.0
  0
SEQEND
  5
A38
  8
0
  6
CONTINUOUS
 62
     7
  0
LINE
  5
22E
  8
0
  6
CONTINUOUS
 62
     7
 10
460.7848080522
 20
210.2725801865
 30
0.0
 11
460.0535924262
 21
216.22785906
 31
0.0
  0
LINE
  5
22F
  8
0
  6
CONTINUOUS
 62
     7
 10
460.7848080522
 20
210.2725801865
 30
0.0
 11
459.0622621304
 21
210.061079065
 31
0.0
  0
LINE
  5
230
  8
0
  6
CONTINUOUS
 62
     7
 10
460.0535924262
 20
216.22785906
 30
0.0
 11
458.3310472494
 21
216.0163579385
 31
0.0
  0
LINE
  5
231
  8
0
  6
CONTINUOUS
 62
     7
 10
461.3511885232
 20
210.3421149651
 30
0.0
 11
461.1946130818
 21
211.6173205773
 31
0.0
  0
LINE
  5
232
  8
0
  6
CONTINUOUS
 62
     7
 10
461.3511885232
 20
210.3421149651
 30
0.0
 11
460.7848080522
 21
210.2725801865
 31
0.0
  0
LINE
  5
233
  8
0
  6
CONTINUOUS
 62
     7
 10
460.5127776688
 20
216.284233133
 30
0.0
 11
460.0535924262
 21
216.22785906
 31
0.0
  0
POLYLINE
  5
234
  8
0
  6
CONTINUOUS
 62
     7
 66
     1
 10
0.0
 20
0.0
 30
0.0
  0
VERTEX
  5
6B9
  8
0
  6
CONTINUOUS
 62
     7
 10
459.0622621304
 20
210.061079065
 30
0.0
  0
VERTEX
  5
6BA
  8
0
  6
CONTINUOUS
 62
     7
 10
459.0302380448
 20
210.0571451585
 30
0.0
  0
VERTEX
  5
6BB
  8
0
  6
CONTINUOUS
 62
     7
 10
458.9905622131
 20
210.0522694985
 30
0.0
  0
VERTEX
  5
6BC
  8
0
  6
CONTINUOUS
 62
     7
 10
458.9435669309
 20
210.0464997689
 30
0.0
  0
VERTEX
  5
6BD
  8
0
  6
CONTINUOUS
 62
     7
 10
458.8896485692
 20
210.0398836533
 30
0.0
  0
VERTEX
  5
6BE
  8
0
  6
CONTINUOUS
 62
     7
 10
458.8292586332
 20
210.0324688355
 30
0.0
  0
VERTEX
  5
6BF
  8
0
  6
CONTINUOUS
 62
     7
 10
458.7629022723
 20
210.0243149201
 30
0.0
  0
VERTEX
  5
6C0
  8
0
  6
CONTINUOUS
 62
     7
 10
458.69113828
 20
210.0155053536
 30
0.0
  0
VERTEX
  5
6C1
  8
0
  6
CONTINUOUS
 62
     7
 10
458.6145686632
 20
210.0060997407
 30
0.0
  0
SEQEND
  5
A37
  8
0
  6
CONTINUOUS
 62
     7
  0
POLYLINE
  5
235
  8
0
  6
CONTINUOUS
 62
     7
 66
     1
 10
0.0
 20
0.0
 30
0.0
  0
VERTEX
  5
6C2
  8
0
  6
CONTINUOUS
 62
     7
 10
457.8833522922
 20
215.9613786141
 30
0.0
  0
VERTEX
  5
6C3
  8
0
  6
CONTINUOUS
 62
     7
 10
457.959921909
 20
215.9707842271
 30
0.0
  0
VERTEX
  5
6C4
  8
0
  6
CONTINUOUS
 62
     7
 10
458.0316859013
 20
215.9795937936
 30
0.0
  0
VERTEX
  5
6C5
  8
0
  6
CONTINUOUS
 62
     7
 10
458.0980422622
 20
215.987747709
 30
0.0
  0
VERTEX
  5
6C6
  8
0
  6
CONTINUOUS
 62
     7
 10
458.1584321982
 20
215.9951625268
 30
0.0
  0
VERTEX
  5
6C7
  8
0
  6
CONTINUOUS
 62
     7
 10
458.2123505598
 20
216.0017786423
 30
0.0
  0
VERTEX
  5
6C8
  8
0
  6
CONTINUOUS
 62
     7
 10
458.259345842
 20
216.007548372
 30
0.0
  0
VERTEX
  5
6C9
  8
0
  6
CONTINUOUS
 62
     7
 10
458.2990216738
 20
216.0124240319
 30
0.0
  0
VERTEX
  5
6CA
  8
0
  6
CONTINUOUS
 62
     7
 10
458.3310472494
 20
216.0163579385
 30
0.0
  0
SEQEND
  5
A36
  8
0
  6
CONTINUOUS
 62
     7
  0
LINE
  5
236
  8
0
  6
CONTINUOUS
 62
     7
 10
458.6145686632
 20
210.0060997407
 30
0.0
 11
454.2833777791
 21
209.4743071
 31
0.0
  0
LINE
  5
237
  8
0
  6
CONTINUOUS
 62
     7
 10
457.8833522922
 20
215.9613786141
 30
0.0
 11
453.5521628982
 21
215.4295740525
 31
0.0
  0
LINE
  5
238
  8
0
  6
CONTINUOUS
 62
     7
 10
476.7526185787
 20
137.1305404107
 30
0.0
 11
476.7526185787
 21
138.0769548814
 31
0.0
  0
LINE
  5
239
  8
0
  6
CONTINUOUS
 62
     7
 10
476.9526186114
 20
128.3305404584
 30
0.0
 11
476.7526185787
 21
128.3305404584
 31
0.0
  0
LINE
  5
23A
  8
0
  6
CONTINUOUS
 62
     7
 10
453.7871050364
 20
209.4133673112
 30
0.0
 11
453.0558886653
 21
215.3686461846
 31
0.0
  0
POLYLINE
  5
23B
  8
0
  6
CONTINUOUS
 62
     7
 66
     1
 10
0.0
 20
0.0
 30
0.0
  0
VERTEX
  5
6CB
  8
0
  6
CONTINUOUS
 62
     7
 10
454.2833777791
 20
209.4743071
 30
0.0
  0
VERTEX
  5
6CC
  8
0
  6
CONTINUOUS
 62
     7
 10
454.175427807
 20
209.461051027
 30
0.0
  0
VERTEX
  5
6CD
  8
0
  6
CONTINUOUS
 62
     7
 10
454.0778147703
 20
209.4490585725
 30
0.0
  0
VERTEX
  5
6CE
  8
0
  6
CONTINUOUS
 62
     7
 10
453.9922120696
 20
209.4385562341
 30
0.0
  0
VERTEX
  5
6CF
  8
0
  6
CONTINUOUS
 62
     7
 10
453.9200815087
 20
209.4296989838
 30
0.0
  0
VERTEX
  5
6D0
  8
0
  6
CONTINUOUS
 62
     7
 10
453.862658394
 20
209.4226417939
 30
0.0
  0
VERTEX
  5
6D1
  8
0
  6
CONTINUOUS
 62
     7
 10
453.8209262019
 20
209.4175157944
 30
0.0
  0
VERTEX
  5
6D2
  8
0
  6
CONTINUOUS
 62
     7
 10
453.7955972081
 20
209.414404432
 30
0.0
  0
VERTEX
  5
6D3
  8
0
  6
CONTINUOUS
 62
     7
 10
453.7871050364
 20
209.4133673112
 30
0.0
  0
SEQEND
  5
A35
  8
0
  6
CONTINUOUS
 62
     7
  0
POLYLINE
  5
23C
  8
0
  6
CONTINUOUS
 62
     7
 66
     1
 10
0.0
 20
0.0
 30
0.0
  0
VERTEX
  5
6D4
  8
0
  6
CONTINUOUS
 62
     7
 10
453.0558886653
 20
215.3686461846
 30
0.0
  0
VERTEX
  5
6D5
  8
0
  6
CONTINUOUS
 62
     7
 10
453.0643808371
 20
215.3696833054
 30
0.0
  0
VERTEX
  5
6D6
  8
0
  6
CONTINUOUS
 62
     7
 10
453.0897098309
 20
215.3727946679
 30
0.0
  0
VERTEX
  5
6D7
  8
0
  6
CONTINUOUS
 62
     7
 10
453.1314420229
 20
215.3779206673
 30
0.0
  0
VERTEX
  5
6D8
  8
0
  6
CONTINUOUS
 62
     7
 10
453.1888651377
 20
215.3849778573
 30
0.0
  0
VERTEX
  5
6D9
  8
0
  6
CONTINUOUS
 62
     7
 10
453.2609956986
 20
215.3938231866
 30
0.0
  0
VERTEX
  5
6DA
  8
0
  6
CONTINUOUS
 62
     7
 10
453.3465998894
 20
215.4043374459
 30
0.0
  0
VERTEX
  5
6DB
  8
0
  6
CONTINUOUS
 62
     7
 10
453.4442114359
 20
215.4163299004
 30
0.0
  0
VERTEX
  5
6DC
  8
0
  6
CONTINUOUS
 62
     7
 10
453.5521628982
 20
215.4295740525
 30
0.0
  0
SEQEND
  5
A34
  8
0
  6
CONTINUOUS
 62
     7
  0
LINE
  5
23D
  8
0
  6
CONTINUOUS
 62
     7
 10
461.1526186293
 20
128.3305404584
 30
0.0
 11
465.952618671
 21
128.3305404584
 31
0.0
  0
LINE
  5
23E
  8
0
  6
CONTINUOUS
 62
     7
 10
452.4574028975
 20
215.2951536576
 30
0.0
 11
448.4872179752
 21
214.8076830308
 31
0.0
  0
LINE
  5
23F
  8
0
  6
CONTINUOUS
 62
     7
 10
449.9401378161
 20
194.7690902154
 30
0.0
 11
447.4946709996
 21
214.6858153741
 31
0.0
  0
POLYLINE
  5
240
  8
0
  6
CONTINUOUS
 62
     7
 66
     1
 10
0.0
 20
0.0
 30
0.0
  0
VERTEX
  5
6DD
  8
0
  6
CONTINUOUS
 62
     7
 10
447.4946709996
 20
214.6858153741
 30
0.0
  0
VERTEX
  5
6DE
  8
0
  6
CONTINUOUS
 62
     7
 10
447.5137429958
 20
214.6881518761
 30
0.0
  0
VERTEX
  5
6DF
  8
0
  6
CONTINUOUS
 62
     7
 10
447.5702243572
 20
214.6950898568
 30
0.0
  0
VERTEX
  5
6E0
  8
0
  6
CONTINUOUS
 62
     7
 10
447.6619454747
 20
214.7063551347
 30
0.0
  0
VERTEX
  5
6E1
  8
0
  6
CONTINUOUS
 62
     7
 10
447.7853822237
 20
214.7215066354
 30
0.0
  0
VERTEX
  5
6E2
  8
0
  6
CONTINUOUS
 62
     7
 10
447.9357885843
 20
214.7399721543
 30
0.0
  0
VERTEX
  5
6E3
  8
0
  6
CONTINUOUS
 62
     7
 10
448.1073873764
 20
214.7610483567
 30
0.0
  0
VERTEX
  5
6E4
  8
0
  6
CONTINUOUS
 62
     7
 10
448.2935818559
 20
214.7839007775
 30
0.0
  0
VERTEX
  5
6E5
  8
0
  6
CONTINUOUS
 62
     7
 10
448.4872179752
 20
214.8076830308
 30
0.0
  0
SEQEND
  5
A33
  8
0
  6
CONTINUOUS
 62
     7
  0
LINE
  5
241
  8
0
  6
CONTINUOUS
 62
     7
 10
456.1498793489
 20
194.0571604172
 30
0.0
 11
465.6400198763
 21
152.9508529107
 31
0.0
  0
ARC
  5
242
  8
0
  6
CONTINUOUS
 62
     7
 10
469.7910603477
 20
197.2064797229
 30
0.0
 40
14.00000000000003
 50
187.0
 51
193.0
  0
LINE
  5
243
  8
0
  6
CONTINUOUS
 62
     7
 10
454.181164754
 20
209.4617543618
 30
0.0
 11
455.8954137093
 21
195.5003080766
 31
0.0
  0
POLYLINE
  5
244
  8
0
  6
CONTINUOUS
 62
     7
 66
     1
 10
0.0
 20
0.0
 30
0.0
  0
VERTEX
  5
6E6
  8
0
  6
CONTINUOUS
 62
     7
 10
452.4574028975
 20
215.2951536576
 30
0.0
  0
VERTEX
  5
6E7
  8
0
  6
CONTINUOUS
 62
     7
 10
452.5376158482
 20
215.3050122659
 30
0.0
  0
VERTEX
  5
6E8
  8
0
  6
CONTINUOUS
 62
     7
 10
452.617304278
 20
215.3147874276
 30
0.0
  0
VERTEX
  5
6E9
  8
0
  6
CONTINUOUS
 62
     7
 10
452.6959481364
 20
215.32444338
 30
0.0
  0
VERTEX
  5
6EA
  8
0
  6
CONTINUOUS
 62
     7
 10
452.7730288631
 20
215.3339085976
 30
0.0
  0
VERTEX
  5
6EB
  8
0
  6
CONTINUOUS
 62
     7
 10
452.848047269
 20
215.3431234757
 30
0.0
  0
VERTEX
  5
6EC
  8
0
  6
CONTINUOUS
 62
     7
 10
452.9205086356
 20
215.3520164887
 30
0.0
  0
VERTEX
  5
6ED
  8
0
  6
CONTINUOUS
 62
     7
 10
452.9899405962
 20
215.3605518739
 30
0.0
  0
VERTEX
  5
6EE
  8
0
  6
CONTINUOUS
 62
     7
 10
453.0558886653
 20
215.3686461846
 30
0.0
  0
SEQEND
  5
A32
  8
0
  6
CONTINUOUS
 62
     7
  0
ARC
  5
245
  8
0
  6
CONTINUOUS
 62
     7
 10
469.7910603477
 20
197.2064797229
 30
0.0
 40
20.00000000000003
 50
187.0
 51
193.0
  0
LINE
  5
246
  8
0
  6
CONTINUOUS
 62
     7
 10
459.7937996215
 20
151.601147453
 30
0.0
 11
450.303659094
 21
192.70746092
 31
0.0
  0
ARC
  5
247
  8
0
  6
CONTINUOUS
 62
     7
 10
446.1526185042
 20
148.4518298659
 30
0.0
 40
14.00000000000004
 50
0.0
 51
13.0
  0
LINE
  5
248
  8
0
  6
CONTINUOUS
 62
     7
 10
460.1526188379
 20
128.3305404584
 30
0.0
 11
460.1526188379
 21
148.4518287579
 31
0.0
  0
LINE
  5
249
  8
0
  6
CONTINUOUS
 62
     7
 10
461.1526186293
 20
128.3305404584
 30
0.0
 11
460.1526188379
 21
128.3305404584
 31
0.0
  0
POLYLINE
  5
24A
  8
0
  6
CONTINUOUS
 62
     7
 66
     1
 10
0.0
 20
0.0
 30
0.0
  0
VERTEX
  5
6EF
  8
0
  6
CONTINUOUS
 62
     7
 10
465.6400198763
 20
152.9508529107
 30
0.0
  0
VERTEX
  5
6F0
  8
0
  6
CONTINUOUS
 62
     7
 10
465.7597648626
 20
152.3964224259
 30
0.0
  0
VERTEX
  5
6F1
  8
0
  6
CONTINUOUS
 62
     7
 10
465.8570307022
 20
151.8776355187
 30
0.0
  0
SEQEND
  5
A31
  8
0
  6
CONTINUOUS
 62
     7
  0
POLYLINE
  5
24B
  8
0
  6
CONTINUOUS
 62
     7
 66
     1
 10
0.0
 20
0.0
 30
0.0
  0
VERTEX
  5
6F2
  8
0
  6
CONTINUOUS
 62
     7
 10
467.9135667807
 20
220.219510595
 30
0.0
  0
VERTEX
  5
6F3
  8
0
  6
CONTINUOUS
 62
     7
 10
467.7466305619
 20
219.0151987473
 30
0.0
  0
VERTEX
  5
6F4
  8
0
  6
CONTINUOUS
 62
     7
 10
467.6348502463
 20
217.8016243378
 30
0.0
  0
VERTEX
  5
6F5
  8
0
  6
CONTINUOUS
 62
     7
 10
467.5372822857
 20
215.4964862267
 30
0.0
  0
VERTEX
  5
6F6
  8
0
  6
CONTINUOUS
 62
     7
 10
467.5494721806
 20
213.1885586182
 30
0.0
  0
VERTEX
  5
6F7
  8
0
  6
CONTINUOUS
 62
     7
 10
467.6988701051
 20
208.5583029191
 30
0.0
  0
SEQEND
  5
A30
  8
0
  6
CONTINUOUS
 62
     7
  0
POLYLINE
  5
24C
  8
0
  6
CONTINUOUS
 62
     7
 66
     1
 10
0.0
 20
0.0
 30
0.0
  0
VERTEX
  5
6F8
  8
0
  6
CONTINUOUS
 62
     7
 10
467.6988656348
 20
208.5583029191
 30
0.0
  0
VERTEX
  5
6F9
  8
0
  6
CONTINUOUS
 62
     7
 10
467.7197376913
 20
207.1953831116
 30
0.0
  0
VERTEX
  5
6FA
  8
0
  6
CONTINUOUS
 62
     7
 10
467.7257674461
 20
205.7228026788
 30
0.0
  0
VERTEX
  5
6FB
  8
0
  6
CONTINUOUS
 62
     7
 10
467.7210352099
 20
204.3239531914
 30
0.0
  0
VERTEX
  5
6FC
  8
0
  6
CONTINUOUS
 62
     7
 10
467.7108048177
 20
202.8444943826
 30
0.0
  0
VERTEX
  5
6FD
  8
0
  6
CONTINUOUS
 62
     7
 10
467.7006869292
 20
201.4160094659
 30
0.0
  0
VERTEX
  5
6FE
  8
0
  6
CONTINUOUS
 62
     7
 10
467.6952647692
 20
199.9037800233
 30
0.0
  0
VERTEX
  5
6FF
  8
0
  6
CONTINUOUS
 62
     7
 10
467.6989036327
 20
198.5589323441
 30
0.0
  0
SEQEND
  5
A2F
  8
0
  6
CONTINUOUS
 62
     7
  0
POLYLINE
  5
24D
  8
0
  6
CONTINUOUS
 62
     7
 66
     1
 10
0.0
 20
0.0
 30
0.0
  0
VERTEX
  5
700
  8
0
  6
CONTINUOUS
 62
     7
 10
467.6989021426
 20
198.5589323441
 30
0.0
  0
VERTEX
  5
701
  8
0
  6
CONTINUOUS
 62
     7
 10
467.6882146573
 20
196.1283383767
 30
0.0
  0
VERTEX
  5
702
  8
0
  6
CONTINUOUS
 62
     7
 10
467.6988697326
 20
188.5575113694
 30
0.0
  0
SEQEND
  5
A2E
  8
0
  6
CONTINUOUS
 62
     7
  0
POLYLINE
  5
24E
  8
0
  6
CONTINUOUS
 62
     7
 66
     1
 10
0.0
 20
0.0
 30
0.0
  0
VERTEX
  5
703
  8
0
  6
CONTINUOUS
 62
     7
 10
467.6988864964
 20
188.5575113694
 30
0.0
  0
VERTEX
  5
704
  8
0
  6
CONTINUOUS
 62
     7
 10
467.627763254
 20
187.0353637139
 30
0.0
  0
VERTEX
  5
705
  8
0
  6
CONTINUOUS
 62
     7
 10
467.5422752923
 20
185.2963982026
 30
0.0
  0
VERTEX
  5
706
  8
0
  6
CONTINUOUS
 62
     7
 10
467.4890237576
 20
183.6387811105
 30
0.0
  0
VERTEX
  5
707
  8
0
  6
CONTINUOUS
 62
     7
 10
467.4933491921
 20
182.0465383927
 30
0.0
  0
VERTEX
  5
708
  8
0
  6
CONTINUOUS
 62
     7
 10
467.5822528726
 20
180.442708532
 30
0.0
  0
SEQEND
  5
A2D
  8
0
  6
CONTINUOUS
 62
     7
  0
POLYLINE
  5
24F
  8
0
  6
CONTINUOUS
 62
     7
 66
     1
 10
0.0
 20
0.0
 30
0.0
  0
VERTEX
  5
709
  8
0
  6
CONTINUOUS
 62
     7
 10
467.5822528726
 20
180.442708532
 30
0.0
  0
VERTEX
  5
70A
  8
0
  6
CONTINUOUS
 62
     7
 10
467.6486204094
 20
179.5542178551
 30
0.0
  0
VERTEX
  5
70B
  8
0
  6
CONTINUOUS
 62
     7
 10
467.6989688253
 20
178.591614763
 30
0.0
  0
SEQEND
  5
A2C
  8
0
  6
CONTINUOUS
 62
     7
  0
POLYLINE
  5
250
  8
0
  6
CONTINUOUS
 62
     7
 66
     1
 10
0.0
 20
0.0
 30
0.0
  0
VERTEX
  5
70C
  8
0
  6
CONTINUOUS
 62
     7
 10
466.5379366553
 20
165.3710184495
 30
0.0
  0
VERTEX
  5
70D
  8
0
  6
CONTINUOUS
 62
     7
 10
466.5359343117
 20
168.097585241
 30
0.0
  0
VERTEX
  5
70E
  8
0
  6
CONTINUOUS
 62
     7
 10
466.5333627438
 20
170.8047089974
 30
0.0
  0
VERTEX
  5
70F
  8
0
  6
CONTINUOUS
 62
     7
 10
466.5317895537
 20
173.5236106316
 30
0.0
  0
VERTEX
  5
710
  8
0
  6
CONTINUOUS
 62
     7
 10
466.5304525471
 20
176.2488780419
 30
0.0
  0
VERTEX
  5
711
  8
0
  6
CONTINUOUS
 62
     7
 10
466.5300155705
 20
178.9750514428
 30
0.0
  0
VERTEX
  5
712
  8
0
  6
CONTINUOUS
 62
     7
 10
466.5311879194
 20
183.5239706437
 30
0.0
  0
VERTEX
  5
713
  8
0
  6
CONTINUOUS
 62
     7
 10
466.5269157565
 20
188.0746541421
 30
0.0
  0
VERTEX
  5
714
  8
0
  6
CONTINUOUS
 62
     7
 10
466.512473551
 20
192.620891134
 30
0.0
  0
VERTEX
  5
715
  8
0
  6
CONTINUOUS
 62
     7
 10
466.5098747885
 20
197.1718488137
 30
0.0
  0
VERTEX
  5
716
  8
0
  6
CONTINUOUS
 62
     7
 10
466.5420791781
 20
201.7321644227
 30
0.0
  0
VERTEX
  5
717
  8
0
  6
CONTINUOUS
 62
     7
 10
466.5498307621
 20
206.2650618951
 30
0.0
  0
VERTEX
  5
718
  8
0
  6
CONTINUOUS
 62
     7
 10
466.5110564506
 20
208.5117993752
 30
0.0
  0
VERTEX
  5
719
  8
0
  6
CONTINUOUS
 62
     7
 10
466.4360119676
 20
210.7599196831
 30
0.0
  0
VERTEX
  5
71A
  8
0
  6
CONTINUOUS
 62
     7
 10
466.3632928109
 20
213.0353150765
 30
0.0
  0
VERTEX
  5
71B
  8
0
  6
CONTINUOUS
 62
     7
 10
466.344654811
 20
215.3485951821
 30
0.0
  0
VERTEX
  5
71C
  8
0
  6
CONTINUOUS
 62
     7
 10
466.4331732964
 20
217.7096662919
 30
0.0
  0
VERTEX
  5
71D
  8
0
  6
CONTINUOUS
 62
     7
 10
466.6890035099
 20
220.1318560044
 30
0.0
  0
SEQEND
  5
A2B
  8
0
  6
CONTINUOUS
 62
     7
  0
LINE
  5
251
  8
0
  6
CONTINUOUS
 62
     7
 10
467.6988917118
 20
188.5575113694
 30
0.0
 11
467.706138519
 21
180.442708532
 31
0.0
  0
POLYLINE
  5
252
  8
0
  6
CONTINUOUS
 62
     7
 66
     1
 10
0.0
 20
0.0
 30
0.0
  0
VERTEX
  5
71E
  8
0
  6
CONTINUOUS
 62
     7
 10
467.6988704777
 20
208.5583029191
 30
0.0
  0
VERTEX
  5
71F
  8
0
  6
CONTINUOUS
 62
     7
 10
467.7412691241
 20
203.5597501199
 30
0.0
  0
VERTEX
  5
720
  8
0
  6
CONTINUOUS
 62
     7
 10
467.6989021426
 20
198.5589323441
 30
0.0
  0
SEQEND
  5
A2A
  8
0
  6
CONTINUOUS
 62
     7
  0
ARC
  5
253
  8
0
  6
CONTINUOUS
 62
     7
 10
480.2737266952
 20
218.1802700941
 30
0.0
 40
12.52725506230356
 50
134.821294778
 51
170.6314556836
  0
POLYLINE
  5
254
  8
0
  6
CONTINUOUS
 62
     7
 66
     1
 10
0.0
 20
0.0
 30
0.0
  0
VERTEX
  5
721
  8
0
  6
CONTINUOUS
 62
     7
 10
473.4804930812
 20
228.5450635354
 30
0.0
  0
VERTEX
  5
722
  8
0
  6
CONTINUOUS
 62
     7
 10
473.4830577573
 20
228.5469828049
 30
0.0
  0
VERTEX
  5
723
  8
0
  6
CONTINUOUS
 62
     7
 10
473.344098655
 20
228.4513411919
 30
0.0
  0
VERTEX
  5
724
  8
0
  6
CONTINUOUS
 62
     7
 10
473.0637760548
 20
228.2561598222
 30
0.0
  0
VERTEX
  5
725
  8
0
  6
CONTINUOUS
 62
     7
 10
472.6431924565
 20
227.9591379563
 30
0.0
  0
VERTEX
  5
726
  8
0
  6
CONTINUOUS
 62
     7
 10
472.0975956129
 20
227.5621114175
 30
0.0
  0
VERTEX
  5
727
  8
0
  6
CONTINUOUS
 62
     7
 10
471.4432911197
 20
227.0659623544
 30
0.0
  0
SEQEND
  5
A29
  8
0
  6
CONTINUOUS
 62
     7
  0
POLYLINE
  5
255
  8
0
  6
CONTINUOUS
 62
     7
 66
     1
 10
0.0
 20
0.0
 30
0.0
  0
VERTEX
  5
728
  8
0
  6
CONTINUOUS
 62
     7
 10
466.5379739082
 20
165.3710184495
 30
0.0
  0
VERTEX
  5
729
  8
0
  6
CONTINUOUS
 62
     7
 10
466.5502520925
 20
164.624076883
 30
0.0
  0
VERTEX
  5
72A
  8
0
  6
CONTINUOUS
 62
     7
 10
466.5873608267
 20
163.907772104
 30
0.0
  0
VERTEX
  5
72B
  8
0
  6
CONTINUOUS
 62
     7
 10
466.6521473503
 20
163.2116017739
 30
0.0
  0
VERTEX
  5
72C
  8
0
  6
CONTINUOUS
 62
     7
 10
466.735356552
 20
162.611728708
 30
0.0
  0
VERTEX
  5
72D
  8
0
  6
CONTINUOUS
 62
     7
 10
466.8428453332
 20
162.0465693871
 30
0.0
  0
VERTEX
  5
72E
  8
0
  6
CONTINUOUS
 62
     7
 10
466.9703672355
 20
161.5371821324
 30
0.0
  0
VERTEX
  5
72F
  8
0
  6
CONTINUOUS
 62
     7
 10
467.1136068827
 20
161.0947666566
 30
0.0
  0
VERTEX
  5
730
  8
0
  6
CONTINUOUS
 62
     7
 10
467.2678372538
 20
160.7281682889
 30
0.0
  0
SEQEND
  5
A28
  8
0
  6
CONTINUOUS
 62
     7
  0
LINE
  5
256
  8
0
  6
CONTINUOUS
 62
     7
 10
467.2678372538
 20
160.7281682889
 30
0.0
 11
467.4624676531
 21
160.3328881661
 31
0.0
  0
ARC
  5
257
  8
0
  6
CONTINUOUS
 62
     7
 10
492.7227678649
 20
199.1286645016
 30
0.0
 40
36.05337758420212
 50
125.3076694524
 51
129.179178497
  0
ARC
  5
258
  8
0
  6
CONTINUOUS
 62
     7
 10
479.1766370532
 20
218.51089964
 30
0.0
 40
12.59239777575925
 50
137.1403469291
 51
172.6040790193
  0
LINE
  5
259
  8
0
  6
CONTINUOUS
 62
     7
 10
467.5822528726
 20
180.442708532
 30
0.0
 11
467.621243251
 21
180.442708532
 31
0.0
  0
POLYLINE
  5
25A
  8
0
  6
CONTINUOUS
 62
     7
 66
     1
 10
0.0
 20
0.0
 30
0.0
  0
VERTEX
  5
731
  8
0
  6
CONTINUOUS
 62
     7
 10
542.5415801531
 20
153.4695921342
 30
0.0
  0
VERTEX
  5
732
  8
0
  6
CONTINUOUS
 62
     7
 10
541.3372742659
 20
153.6365328233
 30
0.0
  0
VERTEX
  5
733
  8
0
  6
CONTINUOUS
 62
     7
 10
540.1236938959
 20
153.7483094136
 30
0.0
  0
VERTEX
  5
734
  8
0
  6
CONTINUOUS
 62
     7
 10
537.8185677057
 20
153.8458762566
 30
0.0
  0
VERTEX
  5
735
  8
0
  6
CONTINUOUS
 62
     7
 10
535.5106341368
 20
153.8336871068
 30
0.0
  0
VERTEX
  5
736
  8
0
  6
CONTINUOUS
 62
     7
 10
530.8803784376
 20
153.6842880646
 30
0.0
  0
SEQEND
  5
A27
  8
0
  6
CONTINUOUS
 62
     7
  0
POLYLINE
  5
25B
  8
0
  6
CONTINUOUS
 62
     7
 66
     1
 10
0.0
 20
0.0
 30
0.0
  0
VERTEX
  5
737
  8
0
  6
CONTINUOUS
 62
     7
 10
530.8803784376
 20
153.6842940251
 30
0.0
  0
VERTEX
  5
738
  8
0
  6
CONTINUOUS
 62
     7
 10
529.5174645907
 20
153.6634204785
 30
0.0
  0
VERTEX
  5
739
  8
0
  6
CONTINUOUS
 62
     7
 10
528.0448781973
 20
153.6573944489
 30
0.0
  0
VERTEX
  5
73A
  8
0
  6
CONTINUOUS
 62
     7
 10
526.6460227495
 20
153.6621270577
 30
0.0
  0
VERTEX
  5
73B
  8
0
  6
CONTINUOUS
 62
     7
 10
525.1665699011
 20
153.6723552148
 30
0.0
  0
VERTEX
  5
73C
  8
0
  6
CONTINUOUS
 62
     7
 10
523.7380849844
 20
153.6824760834
 30
0.0
  0
VERTEX
  5
73D
  8
0
  6
CONTINUOUS
 62
     7
 10
522.2258615023
 20
153.6878941457
 30
0.0
  0
VERTEX
  5
73E
  8
0
  6
CONTINUOUS
 62
     7
 10
520.8810108429
 20
153.6842582623
 30
0.0
  0
SEQEND
  5
A26
  8
0
  6
CONTINUOUS
 62
     7
  0
POLYLINE
  5
25C
  8
0
  6
CONTINUOUS
 62
     7
 66
     1
 10
0.0
 20
0.0
 30
0.0
  0
VERTEX
  5
73F
  8
0
  6
CONTINUOUS
 62
     7
 10
520.8810108429
 20
153.6842582623
 30
0.0
  0
VERTEX
  5
740
  8
0
  6
CONTINUOUS
 62
     7
 10
518.4504138952
 20
153.6949453751
 30
0.0
  0
VERTEX
  5
741
  8
0
  6
CONTINUOUS
 62
     7
 10
510.8795928484
 20
153.6842880646
 30
0.0
  0
SEQEND
  5
A25
  8
0
  6
CONTINUOUS
 62
     7
  0
POLYLINE
  5
25D
  8
0
  6
CONTINUOUS
 62
     7
 66
     1
 10
0.0
 20
0.0
 30
0.0
  0
VERTEX
  5
742
  8
0
  6
CONTINUOUS
 62
     7
 10
510.8795928484
 20
153.6842761437
 30
0.0
  0
VERTEX
  5
743
  8
0
  6
CONTINUOUS
 62
     7
 10
509.357433272
 20
153.7553964059
 30
0.0
  0
VERTEX
  5
744
  8
0
  6
CONTINUOUS
 62
     7
 10
507.6184737211
 20
153.8408873479
 30
0.0
  0
VERTEX
  5
745
  8
0
  6
CONTINUOUS
 62
     7
 10
505.9608596092
 20
153.8941381375
 30
0.0
  0
VERTEX
  5
746
  8
0
  6
CONTINUOUS
 62
     7
 10
504.3686139113
 20
153.8898108403
 30
0.0
  0
VERTEX
  5
747
  8
0
  6
CONTINUOUS
 62
     7
 10
502.7647870308
 20
153.8009105126
 30
0.0
  0
SEQEND
  5
A24
  8
0
  6
CONTINUOUS
 62
     7
  0
POLYLINE
  5
25E
  8
0
  6
CONTINUOUS
 62
     7
 66
     1
 10
0.0
 20
0.0
 30
0.0
  0
VERTEX
  5
748
  8
0
  6
CONTINUOUS
 62
     7
 10
487.693093968
 20
154.8452256123
 30
0.0
  0
VERTEX
  5
749
  8
0
  6
CONTINUOUS
 62
     7
 10
490.41966672
 20
154.8472283284
 30
0.0
  0
VERTEX
  5
74A
  8
0
  6
CONTINUOUS
 62
     7
 10
493.1267904764
 20
154.8497972886
 30
0.0
  0
VERTEX
  5
74B
  8
0
  6
CONTINUOUS
 62
     7
 10
495.8456876403
 20
154.8513708512
 30
0.0
  0
VERTEX
  5
74C
  8
0
  6
CONTINUOUS
 62
     7
 10
498.5709565407
 20
154.8527059953
 30
0.0
  0
VERTEX
  5
74D
  8
0
  6
CONTINUOUS
 62
     7
 10
501.2971239811
 20
154.8531470696
 30
0.0
  0
VERTEX
  5
74E
  8
0
  6
CONTINUOUS
 62
     7
 10
505.8460491425
 20
154.8519728581
 30
0.0
  0
VERTEX
  5
74F
  8
0
  6
CONTINUOUS
 62
     7
 10
510.3967266804
 20
154.8562465112
 30
0.0
  0
VERTEX
  5
750
  8
0
  6
CONTINUOUS
 62
     7
 10
514.9429696327
 20
154.8706887166
 30
0.0
  0
VERTEX
  5
751
  8
0
  6
CONTINUOUS
 62
     7
 10
519.4939302927
 20
154.8732874791
 30
0.0
  0
VERTEX
  5
752
  8
0
  6
CONTINUOUS
 62
     7
 10
524.0542459017
 20
154.8410830895
 30
0.0
  0
VERTEX
  5
753
  8
0
  6
CONTINUOUS
 62
     7
 10
528.5871433741
 20
154.8333285252
 30
0.0
  0
VERTEX
  5
754
  8
0
  6
CONTINUOUS
 62
     7
 10
530.8338748938
 20
154.8721013467
 30
0.0
  0
VERTEX
  5
755
  8
0
  6
CONTINUOUS
 62
     7
 10
533.0819952017
 20
154.9471495549
 30
0.0
  0
VERTEX
  5
756
  8
0
  6
CONTINUOUS
 62
     7
 10
535.3573846346
 20
155.0198672215
 30
0.0
  0
VERTEX
  5
757
  8
0
  6
CONTINUOUS
 62
     7
 10
537.6706707007
 20
155.0385055939
 30
0.0
  0
VERTEX
  5
758
  8
0
  6
CONTINUOUS
 62
     7
 10
540.0317418104
 20
154.949986736
 30
0.0
  0
VERTEX
  5
759
  8
0
  6
CONTINUOUS
 62
     7
 10
542.453931523
 20
154.6941576401
 30
0.0
  0
SEQEND
  5
A23
  8
0
  6
CONTINUOUS
 62
     7
  0
POLYLINE
  5
25F
  8
0
  6
CONTINUOUS
 62
     7
 66
     1
 10
0.0
 20
0.0
 30
0.0
  0
VERTEX
  5
75A
  8
0
  6
CONTINUOUS
 62
     7
 10
502.7647870308
 20
153.8009105126
 30
0.0
  0
VERTEX
  5
75B
  8
0
  6
CONTINUOUS
 62
     7
 10
501.8762903935
 20
153.7345407407
 30
0.0
  0
VERTEX
  5
75C
  8
0
  6
CONTINUOUS
 62
     7
 10
500.9136873013
 20
153.6841926972
 30
0.0
  0
SEQEND
  5
A22
  8
0
  6
CONTINUOUS
 62
     7
  0
LINE
  5
260
  8
0
  6
CONTINUOUS
 62
     7
 10
510.8795928484
 20
153.6842701833
 30
0.0
 11
502.7647870308
 21
153.6770222585
 31
0.0
  0
POLYLINE
  5
261
  8
0
  6
CONTINUOUS
 62
     7
 66
     1
 10
0.0
 20
0.0
 30
0.0
  0
VERTEX
  5
75D
  8
0
  6
CONTINUOUS
 62
     7
 10
530.8803784376
 20
153.6842880646
 30
0.0
  0
VERTEX
  5
75E
  8
0
  6
CONTINUOUS
 62
     7
 10
525.8818256384
 20
153.6418912808
 30
0.0
  0
VERTEX
  5
75F
  8
0
  6
CONTINUOUS
 62
     7
 10
520.8810108429
 20
153.6842582623
 30
0.0
  0
SEQEND
  5
A21
  8
0
  6
CONTINUOUS
 62
     7
  0
ARC
  5
262
  8
0
  6
CONTINUOUS
 62
     7
 10
540.5024007741
 20
141.1095554092
 30
0.0
 40
12.52712687431199
 50
44.8211014007
 51
80.6316422878
  0
POLYLINE
  5
263
  8
0
  6
CONTINUOUS
 62
     7
 66
     1
 10
0.0
 20
0.0
 30
0.0
  0
VERTEX
  5
760
  8
0
  6
CONTINUOUS
 62
     7
 10
550.8671450144
 20
147.9026673238
 30
0.0
  0
VERTEX
  5
761
  8
0
  6
CONTINUOUS
 62
     7
 10
550.8690583235
 20
147.900104324
 30
0.0
  0
VERTEX
  5
762
  8
0
  6
CONTINUOUS
 62
     7
 10
550.7734167105
 20
148.0390606324
 30
0.0
  0
VERTEX
  5
763
  8
0
  6
CONTINUOUS
 62
     7
 10
550.5782353407
 20
148.3193872372
 30
0.0
  0
VERTEX
  5
764
  8
0
  6
CONTINUOUS
 62
     7
 10
550.2812075144
 20
148.7399695317
 30
0.0
  0
VERTEX
  5
765
  8
0
  6
CONTINUOUS
 62
     7
 10
549.8841809755
 20
149.2855666081
 30
0.0
  0
VERTEX
  5
766
  8
0
  6
CONTINUOUS
 62
     7
 10
549.3880319124
 20
149.9398706357
 30
0.0
  0
SEQEND
  5
A20
  8
0
  6
CONTINUOUS
 62
     7
  0
POLYLINE
  5
264
  8
0
  6
CONTINUOUS
 62
     7
 66
     1
 10
0.0
 20
0.0
 30
0.0
  0
VERTEX
  5
767
  8
0
  6
CONTINUOUS
 62
     7
 10
487.6930909878
 20
154.8451838891
 30
0.0
  0
VERTEX
  5
768
  8
0
  6
CONTINUOUS
 62
     7
 10
486.946158362
 20
154.8329112927
 30
0.0
  0
VERTEX
  5
769
  8
0
  6
CONTINUOUS
 62
     7
 10
486.2298431522
 20
154.7958014409
 30
0.0
  0
VERTEX
  5
76A
  8
0
  6
CONTINUOUS
 62
     7
 10
485.5336787826
 20
154.731011192
 30
0.0
  0
VERTEX
  5
76B
  8
0
  6
CONTINUOUS
 62
     7
 10
484.9338027364
 20
154.6478031079
 30
0.0
  0
VERTEX
  5
76C
  8
0
  6
CONTINUOUS
 62
     7
 10
484.3686434156
 20
154.540318052
 30
0.0
  0
VERTEX
  5
76D
  8
0
  6
CONTINUOUS
 62
     7
 10
483.8592591411
 20
154.4127939145
 30
0.0
  0
VERTEX
  5
76E
  8
0
  6
CONTINUOUS
 62
     7
 10
483.4168421751
 20
154.2695520322
 30
0.0
  0
VERTEX
  5
76F
  8
0
  6
CONTINUOUS
 62
     7
 10
483.0502467877
 20
154.1153250138
 30
0.0
  0
SEQEND
  5
A1F
  8
0
  6
CONTINUOUS
 62
     7
  0
LINE
  5
265
  8
0
  6
CONTINUOUS
 62
     7
 10
483.0502467877
 20
154.1153250138
 30
0.0
 11
482.6549621945
 21
153.9206920068
 31
0.0
  0
ARC
  5
266
  8
0
  6
CONTINUOUS
 62
     7
 10
521.4543054702
 20
128.6632149594
 30
0.0
 40
36.04883730378744
 50
35.3072853006
 51
39.1792790855
  0
ARC
  5
267
  8
0
  6
CONTINUOUS
 62
     7
 10
540.8329252817
 20
142.2063966469
 30
0.0
 40
12.5925309552426
 50
47.14056264
 51
82.603928834
  0
LINE
  5
268
  8
0
  6
CONTINUOUS
 62
     7
 10
502.7647870308
 20
153.8009105126
 30
0.0
 11
502.7647870308
 21
153.761917154
 31
0.0
  0
ARC
  5
269
  8
0
  6
CONTINUOUS
 62
     7
 10
469.9463133511
 20
195.5305420319
 30
0.0
 40
2.000000000000012
 50
15.7570898053
 51
90.0
  0
ARC
  5
26A
  8
0
  6
CONTINUOUS
 62
     7
 10
317.8836940853
 20
152.6241343284
 30
0.0
 40
160.0000000000004
 50
359.6618680049
 51
15.7570898053
  0
LINE
  5
26B
  8
0
  6
CONTINUOUS
 62
     7
 10
468.2526184893
 20
197.530537645
 30
0.0
 11
468.2526184893
 21
154.822045366
 31
0.0
  0
LINE
  5
26C
  8
0
  6
CONTINUOUS
 62
     7
 10
469.9463133415
 20
197.530537645
 30
0.0
 11
468.2526184893
 21
197.530537645
 31
0.0
  0
LINE
  5
26D
  8
0
  6
CONTINUOUS
 62
     7
 10
467.6194163686
 20
154.3305395047
 30
0.0
 11
467.4624676531
 21
154.3305395047
 31
0.0
  0
LINE
  5
26E
  8
0
  6
CONTINUOUS
 62
     7
 10
467.4624676531
 20
154.3305395047
 30
0.0
 11
467.4624676531
 21
180.5658159653
 31
0.0
  0
LINE
  5
26F
  8
0
  6
CONTINUOUS
 62
     7
 10
467.4624676531
 20
186.0111174981
 30
0.0
 11
467.4624676531
 21
197.530537645
 31
0.0
  0
LINE
  5
270
  8
0
  6
CONTINUOUS
 62
     7
 10
467.4624676531
 20
197.530537645
 30
0.0
 11
468.2526184893
 21
197.530537645
 31
0.0
  0
ARC
  5
271
  8
0
  6
CONTINUOUS
 62
     7
 10
517.8526185042
 20
151.436847185
 30
0.0
 40
2.000000000000055
 50
285.7570898053
 51
0.0
  0
ARC
  5
272
  8
0
  6
CONTINUOUS
 62
     7
 10
474.9462108007
 20
303.4994664508
 30
0.0
 40
160.0000000000003
 50
270.6306446184
 51
285.7570898053
  0
LINE
  5
273
  8
0
  6
CONTINUOUS
 62
     7
 10
519.852619124
 20
153.1305430333
 30
0.0
 11
477.8828925168
 21
153.1305430333
 31
0.0
  0
LINE
  5
274
  8
0
  6
CONTINUOUS
 62
     7
 10
519.852619124
 20
151.4368472497
 30
0.0
 11
519.852619124
 21
153.1305430333
 31
0.0
  0
LINE
  5
275
  8
0
  6
CONTINUOUS
 62
     7
 10
477.8784407949
 20
153.9206920068
 30
0.0
 11
502.8878885037
 21
153.9206920068
 31
0.0
  0
LINE
  5
276
  8
0
  6
CONTINUOUS
 62
     7
 10
508.3331930166
 20
153.9206920068
 30
0.0
 11
519.852619124
 21
153.9206920068
 31
0.0
  0
LINE
  5
277
  8
0
  6
CONTINUOUS
 62
     7
 10
519.852619124
 20
153.9206920068
 30
0.0
 11
519.852619124
 21
153.1305430333
 31
0.0
  0
LINE
  5
278
  8
0
  6
CONTINUOUS
 62
     7
 10
476.9526186114
 20
129.9305437009
 30
0.0
 11
476.9526186114
 21
137.7305446069
 31
0.0
  0
ARC
  5
279
  8
0
  6
CONTINUOUS
 62
     7
 10
476.5526185042
 20
137.7305420319
 30
0.0
 40
0.3999999999999773
 50
0.0
 51
90.0
  0
LINE
  5
27A
  8
0
  6
CONTINUOUS
 62
     7
 10
476.5526185459
 20
138.130539457
 30
0.0
 11
475.7526184147
 21
138.130539457
 31
0.0
  0
LINE
  5
27B
  8
0
  6
CONTINUOUS
 62
     7
 10
467.7526185936
 20
138.130539457
 30
0.0
 11
467.1526184952
 21
138.130539457
 31
0.0
  0
ARC
  5
27C
  8
0
  6
CONTINUOUS
 62
     7
 10
467.1526185042
 20
137.7305420319
 30
0.0
 40
0.4000000000000341
 50
90.0
 51
180.0
  0
LINE
  5
27D
  8
0
  6
CONTINUOUS
 62
     7
 10
466.7526184296
 20
137.7305446069
 30
0.0
 11
466.7526184296
 21
137.1305404107
 31
0.0
  0
LINE
  5
27E
  8
0
  6
CONTINUOUS
 62
     7
 10
465.952618671
 20
134.930544893
 30
0.0
 11
465.952618671
 21
129.9305437009
 31
0.0
  0
LINE
  5
27F
  8
0
  6
CONTINUOUS
 62
     7
 10
465.952618671
 20
134.930544893
 30
0.0
 11
464.004716528
 21
134.930544893
 31
0.0
  0
ARC
  5
280
  8
0
  6
CONTINUOUS
 62
     7
 10
487.5617094132
 20
140.9305420319
 30
0.0
 40
24.30909090909089
 50
151.3013359141
 51
194.2894890274
  0
ARC
  5
281
  8
0
  6
CONTINUOUS
 62
     7
 10
471.8526185042
 20
149.5305420319
 30
0.0
 40
6.400000000000048
 50
334.4805415091
 51
151.3013359141
  0
ARC
  5
282
  8
0
  6
CONTINUOUS
 62
     7
 10
486.6526185042
 20
142.4651333389
 30
0.0
 40
10.0
 50
154.4805415091
 51
180.0
  0
LINE
  5
283
  8
0
  6
CONTINUOUS
 62
     7
 10
476.652618376
 20
142.4651322762
 30
0.0
 11
476.652618376
 21
138.9305410783
 31
0.0
  0
LINE
  5
284
  8
0
  6
CONTINUOUS
 62
     7
 10
476.7526185787
 20
138.9305410783
 30
0.0
 11
476.652618376
 21
138.9305410783
 31
0.0
  0
ARC
  5
285
  8
0
  6
CONTINUOUS
 62
     7
 10
476.7526185042
 20
137.9305420319
 30
0.0
 40
1.0
 50
0.0
 51
90.0
  0
LINE
  5
286
  8
0
  6
CONTINUOUS
 62
     7
 10
477.75261837
 20
129.9305437009
 30
0.0
 11
477.75261837
 21
137.9305420319
 31
0.0
  0
LINE
  5
287
  8
0
  6
CONTINUOUS
 62
     7
 10
466.7526184296
 20
129.1305420796
 30
0.0
 11
466.7526184296
 21
127.9305396477
 31
0.0
  0
LINE
  5
288
  8
0
  6
CONTINUOUS
 62
     7
 10
466.7526184296
 20
127.9305396477
 30
0.0
 11
465.952618671
 21
127.9305396477
 31
0.0
  0
LINE
  5
289
  8
0
  6
CONTINUOUS
 62
     7
 10
465.952618671
 20
127.9305396477
 30
0.0
 11
465.952618671
 21
129.9305437009
 31
0.0
  0
LINE
  5
28A
  8
0
  6
CONTINUOUS
 62
     7
 10
477.75261837
 20
127.9305396477
 30
0.0
 11
476.9526186114
 21
127.9305396477
 31
0.0
  0
LINE
  5
28B
  8
0
  6
CONTINUOUS
 62
     7
 10
477.75261837
 20
129.9305437009
 30
0.0
 11
477.75261837
 21
127.9305396477
 31
0.0
  0
LINE
  5
28C
  8
0
  6
CONTINUOUS
 62
     7
 10
476.9526186114
 20
127.9305396477
 30
0.0
 11
476.9526186114
 21
129.9305437009
 31
0.0
  0
LINE
  5
28D
  8
0
  6
CONTINUOUS
 62
     7
 10
290.8550969887
 20
-44.3615749971
 30
0.0
 11
291.4617530633
 21
-45.4151567564
 31
0.0
  0
LINE
  5
28E
  8
0
  6
CONTINUOUS
 62
     7
 10
361.0316030312
 20
-45.4151094452
 30
0.0
 11
361.6382591057
 21
-44.3615377442
 31
0.0
  0
LINE
  5
28F
  8
0
  6
CONTINUOUS
 62
     7
 10
170.8550981808
 20
-44.3615749971
 30
0.0
 11
171.4617542554
 21
-45.4151567564
 31
0.0
  0
LINE
  5
290
  8
0
  6
CONTINUOUS
 62
     7
 10
241.0316042233
 20
-45.4151094452
 30
0.0
 11
241.6382543374
 21
-44.3615377442
 31
0.0
  0
LINE
  5
291
  8
0
  6
CONTINUOUS
 62
     7
 10
50.8550993729
 20
-44.3615749971
 30
0.0
 11
51.4617554475
 21
-45.4151567564
 31
0.0
  0
LINE
  5
292
  8
0
  6
CONTINUOUS
 62
     7
 10
121.0316054154
 20
-45.4151094452
 30
0.0
 11
121.6382555295
 21
-44.3615377442
 31
0.0
  0
POLYLINE
  5
293
  8
0
  6
CONTINUOUS
 62
     7
 66
     1
 10
0.0
 20
0.0
 30
0.0
  0
VERTEX
  5
770
  8
0
  6
CONTINUOUS
 62
     7
 10
123.6849419404
 20
-46.0726976887
 30
0.0
  0
VERTEX
  5
771
  8
0
  6
CONTINUOUS
 62
     7
 10
122.6973346997
 20
-46.2045696125
 30
0.0
  0
VERTEX
  5
772
  8
0
  6
CONTINUOUS
 62
     7
 10
121.4878193665
 20
-46.3604838148
 30
0.0
  0
VERTEX
  5
773
  8
0
  6
CONTINUOUS
 62
     7
 10
120.5037109185
 20
-46.4833755539
 30
0.0
  0
VERTEX
  5
774
  8
0
  6
CONTINUOUS
 62
     7
 10
119.7452954579
 20
-46.5756640331
 30
0.0
  0
VERTEX
  5
775
  8
0
  6
CONTINUOUS
 62
     7
 10
119.1396109391
 20
-46.6469601289
 30
0.0
  0
VERTEX
  5
776
  8
0
  6
CONTINUOUS
 62
     7
 10
118.5434333611
 20
-46.7130885021
 30
0.0
  0
VERTEX
  5
777
  8
0
  6
CONTINUOUS
 62
     7
 10
117.6599494744
 20
-46.8034480259
 30
0.0
  0
VERTEX
  5
778
  8
0
  6
CONTINUOUS
 62
     7
 10
116.7894713212
 20
-46.8838498489
 30
0.0
  0
VERTEX
  5
779
  8
0
  6
CONTINUOUS
 62
     7
 10
115.9321657944
 20
-46.9557479516
 30
0.0
  0
VERTEX
  5
77A
  8
0
  6
CONTINUOUS
 62
     7
 10
115.0882772732
 20
-47.0215514795
 30
0.0
  0
VERTEX
  5
77B
  8
0
  6
CONTINUOUS
 62
     7
 10
114.2529241372
 20
-47.0857929931
 30
0.0
  0
VERTEX
  5
77C
  8
0
  6
CONTINUOUS
 62
     7
 10
113.3987776566
 20
-47.1542861805
 30
0.0
  0
VERTEX
  5
77D
  8
0
  6
CONTINUOUS
 62
     7
 10
112.5215403367
 20
-47.2234707818
 30
0.0
  0
VERTEX
  5
77E
  8
0
  6
CONTINUOUS
 62
     7
 10
111.620937996
 20
-47.2900607184
 30
0.0
  0
VERTEX
  5
77F
  8
0
  6
CONTINUOUS
 62
     7
 10
110.6967977811
 20
-47.3535199211
 30
0.0
  0
VERTEX
  5
780
  8
0
  6
CONTINUOUS
 62
     7
 10
109.749107771
 20
-47.4140815929
 30
0.0
  0
VERTEX
  5
781
  8
0
  6
CONTINUOUS
 62
     7
 10
108.8681392003
 20
-47.4666800842
 30
0.0
  0
VERTEX
  5
782
  8
0
  6
CONTINUOUS
 62
     7
 10
108.2045904923
 20
-47.5043472395
 30
0.0
  0
VERTEX
  5
783
  8
0
  6
CONTINUOUS
 62
     7
 10
107.7047757435
 20
-47.5316722438
 30
0.0
  0
VERTEX
  5
784
  8
0
  6
CONTINUOUS
 62
     7
 10
107.0886186886
 20
-47.5642111645
 30
0.0
  0
VERTEX
  5
785
  8
0
  6
CONTINUOUS
 62
     7
 10
106.3159994412
 20
-47.6033181444
 30
0.0
  0
VERTEX
  5
786
  8
0
  6
CONTINUOUS
 62
     7
 10
105.3868643571
 20
-47.6479471222
 30
0.0
  0
VERTEX
  5
787
  8
0
  6
CONTINUOUS
 62
     7
 10
104.3011657525
 20
-47.6968791828
 30
0.0
  0
VERTEX
  5
788
  8
0
  6
CONTINUOUS
 62
     7
 10
102.6425711442
 20
-47.7651414023
 30
0.0
  0
VERTEX
  5
789
  8
0
  6
CONTINUOUS
 62
     7
 10
100.7233969498
 20
-47.834671338
 30
0.0
  0
VERTEX
  5
78A
  8
0
  6
CONTINUOUS
 62
     7
 10
98.7214557458
 20
-47.8969082729
 30
0.0
  0
VERTEX
  5
78B
  8
0
  6
CONTINUOUS
 62
     7
 10
93.3090082932
 20
-48.0161298559
 30
0.0
  0
VERTEX
  5
78C
  8
0
  6
CONTINUOUS
 62
     7
 10
87.8244869042
 20
-48.0684970067
 30
0.0
  0
VERTEX
  5
78D
  8
0
  6
CONTINUOUS
 62
     7
 10
84.2972747613
 20
-48.0670482413
 30
0.0
  0
VERTEX
  5
78E
  8
0
  6
CONTINUOUS
 62
     7
 10
80.7415596772
 20
-48.0377704398
 30
0.0
  0
VERTEX
  5
78F
  8
0
  6
CONTINUOUS
 62
     7
 10
77.2621981431
 20
-47.9814738528
 30
0.0
  0
VERTEX
  5
790
  8
0
  6
CONTINUOUS
 62
     7
 10
74.0339867402
 20
-47.9038429008
 30
0.0
  0
VERTEX
  5
791
  8
0
  6
CONTINUOUS
 62
     7
 10
72.4443904687
 20
-47.8562757865
 30
0.0
  0
VERTEX
  5
792
  8
0
  6
CONTINUOUS
 62
     7
 10
70.9244839478
 20
-47.8047874317
 30
0.0
  0
VERTEX
  5
793
  8
0
  6
CONTINUOUS
 62
     7
 10
69.4742790986
 20
-47.749976863
 30
0.0
  0
VERTEX
  5
794
  8
0
  6
CONTINUOUS
 62
     7
 10
68.0937759209
 20
-47.6924207554
 30
0.0
  0
VERTEX
  5
795
  8
0
  6
CONTINUOUS
 62
     7
 10
66.7829863358
 20
-47.6326812551
 30
0.0
  0
VERTEX
  5
796
  8
0
  6
CONTINUOUS
 62
     7
 10
65.5923835564
 20
-47.573906605
 30
0.0
  0
VERTEX
  5
797
  8
0
  6
CONTINUOUS
 62
     7
 10
64.772104435
 20
-47.5307941929
 30
0.0
  0
VERTEX
  5
798
  8
0
  6
CONTINUOUS
 62
     7
 10
64.1354433823
 20
-47.4957921103
 30
0.0
  0
VERTEX
  5
799
  8
0
  6
CONTINUOUS
 62
     7
 10
63.8859502602
 20
-47.4816900239
 30
0.0
  0
VERTEX
  5
79A
  8
0
  6
CONTINUOUS
 62
     7
 10
63.6567704011
 20
-47.4684905753
 30
0.0
  0
VERTEX
  5
79B
  8
0
  6
CONTINUOUS
 62
     7
 10
63.3898727227
 20
-47.4528152988
 30
0.0
  0
VERTEX
  5
79C
  8
0
  6
CONTINUOUS
 62
     7
 10
63.0830160905
 20
-47.4347584442
 30
0.0
  0
VERTEX
  5
79D
  8
0
  6
CONTINUOUS
 62
     7
 10
62.5089995194
 20
-47.4015709505
 30
0.0
  0
VERTEX
  5
79E
  8
0
  6
CONTINUOUS
 62
     7
 10
61.8327729035
 20
-47.362046738
 30
0.0
  0
VERTEX
  5
79F
  8
0
  6
CONTINUOUS
 62
     7
 10
61.0636703301
 20
-47.3147746668
 30
0.0
  0
VERTEX
  5
7A0
  8
0
  6
CONTINUOUS
 62
     7
 10
60.2539531518
 20
-47.2610537455
 30
0.0
  0
VERTEX
  5
7A1
  8
0
  6
CONTINUOUS
 62
     7
 10
59.4117156792
 20
-47.2007215515
 30
0.0
  0
VERTEX
  5
7A2
  8
0
  6
CONTINUOUS
 62
     7
 10
57.9360238839
 20
-47.0841594533
 30
0.0
  0
VERTEX
  5
7A3
  8
0
  6
CONTINUOUS
 62
     7
 10
56.3707224656
 20
-46.945435603
 30
0.0
  0
VERTEX
  5
7A4
  8
0
  6
CONTINUOUS
 62
     7
 10
54.7081701089
 20
-46.7812378452
 30
0.0
  0
VERTEX
  5
7A5
  8
0
  6
CONTINUOUS
 62
     7
 10
53.3274761964
 20
-46.632043694
 30
0.0
  0
VERTEX
  5
7A6
  8
0
  6
CONTINUOUS
 62
     7
 10
51.8092505265
 20
-46.4557089404
 30
0.0
  0
VERTEX
  5
7A7
  8
0
  6
CONTINUOUS
 62
     7
 10
50.1537911225
 20
-46.2499890969
 30
0.0
  0
VERTEX
  5
7A8
  8
0
  6
CONTINUOUS
 62
     7
 10
48.8082281876
 20
-46.0720900939
 30
0.0
  0
SEQEND
  5
A1E
  8
0
  6
CONTINUOUS
 62
     7
  0
LINE
  5
294
  8
0
  6
CONTINUOUS
 62
     7
 10
48.6605874825
 20
-47.1336756394
 30
0.0
 11
48.6462227631
 21
-47.1969772623
 31
0.0
  0
LINE
  5
295
  8
0
  6
CONTINUOUS
 62
     7
 10
48.7943045426
 20
-46.0691974059
 30
0.0
 11
48.7909786034
 21
-46.0961927221
 31
0.0
  0
POLYLINE
  5
296
  8
0
  6
CONTINUOUS
 62
     7
 66
     1
 10
0.0
 20
0.0
 30
0.0
  0
VERTEX
  5
7A9
  8
0
  6
CONTINUOUS
 62
     7
 10
48.7586371232
 20
-46.3588659213
 30
0.0
  0
VERTEX
  5
7AA
  8
0
  6
CONTINUOUS
 62
     7
 10
48.7231365967
 20
-46.6470845536
 30
0.0
  0
VERTEX
  5
7AB
  8
0
  6
CONTINUOUS
 62
     7
 10
48.6464254189
 20
-47.2438034163
 30
0.0
  0
SEQEND
  5
A1D
  8
0
  6
CONTINUOUS
 62
     7
  0
POLYLINE
  5
297
  8
0
  6
CONTINUOUS
 62
     7
 66
     1
 10
0.0
 20
0.0
 30
0.0
  0
VERTEX
  5
7AC
  8
0
  6
CONTINUOUS
 62
     7
 10
123.8470784951
 20
-47.2454119966
 30
0.0
  0
VERTEX
  5
7AD
  8
0
  6
CONTINUOUS
 62
     7
 10
123.7702659894
 20
-46.6478799031
 30
0.0
  0
VERTEX
  5
7AE
  8
0
  6
CONTINUOUS
 62
     7
 10
123.7352840234
 20
-46.3638563202
 30
0.0
  0
SEQEND
  5
A1C
  8
0
  6
CONTINUOUS
 62
     7
  0
LINE
  5
298
  8
0
  6
CONTINUOUS
 62
     7
 10
123.701196127
 20
-46.0871030138
 30
0.0
 11
123.6989907551
 21
-46.069198151
 31
0.0
  0
LINE
  5
299
  8
0
  6
CONTINUOUS
 62
     7
 10
123.8470725346
 20
-47.1969791249
 30
0.0
 11
123.8327197362
 21
-47.1337158725
 31
0.0
  0
POLYLINE
  5
29A
  8
0
  6
CONTINUOUS
 62
     7
 66
     1
 10
0.0
 20
0.0
 30
0.0
  0
VERTEX
  5
7AF
  8
0
  6
CONTINUOUS
 62
     7
 10
243.6849407483
 20
-46.0726976887
 30
0.0
  0
VERTEX
  5
7B0
  8
0
  6
CONTINUOUS
 62
     7
 10
242.6973364878
 20
-46.2045696125
 30
0.0
  0
VERTEX
  5
7B1
  8
0
  6
CONTINUOUS
 62
     7
 10
241.4878211547
 20
-46.3604838148
 30
0.0
  0
VERTEX
  5
7B2
  8
0
  6
CONTINUOUS
 62
     7
 10
240.5037097264
 20
-46.4833755539
 30
0.0
  0
VERTEX
  5
7B3
  8
0
  6
CONTINUOUS
 62
     7
 10
239.745297246
 20
-46.5756640331
 30
0.0
  0
VERTEX
  5
7B4
  8
0
  6
CONTINUOUS
 62
     7
 10
239.1396127272
 20
-46.6469601289
 30
0.0
  0
VERTEX
  5
7B5
  8
0
  6
CONTINUOUS
 62
     7
 10
238.5434351493
 20
-46.7130885021
 30
0.0
  0
VERTEX
  5
7B6
  8
0
  6
CONTINUOUS
 62
     7
 10
237.6599482823
 20
-46.8034480259
 30
0.0
  0
VERTEX
  5
7B7
  8
0
  6
CONTINUOUS
 62
     7
 10
236.7894701291
 20
-46.8838498489
 30
0.0
  0
VERTEX
  5
7B8
  8
0
  6
CONTINUOUS
 62
     7
 10
235.9321616221
 20
-46.9557479516
 30
0.0
  0
VERTEX
  5
7B9
  8
0
  6
CONTINUOUS
 62
     7
 10
235.0882760812
 20
-47.0215514795
 30
0.0
  0
VERTEX
  5
7BA
  8
0
  6
CONTINUOUS
 62
     7
 10
234.2529229451
 20
-47.0857929931
 30
0.0
  0
VERTEX
  5
7BB
  8
0
  6
CONTINUOUS
 62
     7
 10
233.3987764645
 20
-47.1542861805
 30
0.0
  0
VERTEX
  5
7BC
  8
0
  6
CONTINUOUS
 62
     7
 10
232.5215391446
 20
-47.2234707818
 30
0.0
  0
VERTEX
  5
7BD
  8
0
  6
CONTINUOUS
 62
     7
 10
231.6209338237
 20
-47.2900607184
 30
0.0
  0
VERTEX
  5
7BE
  8
0
  6
CONTINUOUS
 62
     7
 10
230.6967950988
 20
-47.3535199211
 30
0.0
  0
VERTEX
  5
7BF
  8
0
  6
CONTINUOUS
 62
     7
 10
229.7491065789
 20
-47.4140815929
 30
0.0
  0
VERTEX
  5
7C0
  8
0
  6
CONTINUOUS
 62
     7
 10
228.8681365181
 20
-47.4666800842
 30
0.0
  0
VERTEX
  5
7C1
  8
0
  6
CONTINUOUS
 62
     7
 10
228.2045922805
 20
-47.5043472395
 30
0.0
  0
VERTEX
  5
7C2
  8
0
  6
CONTINUOUS
 62
     7
 10
227.7047745515
 20
-47.5316722438
 30
0.0
  0
VERTEX
  5
7C3
  8
0
  6
CONTINUOUS
 62
     7
 10
227.0886160064
 20
-47.5642111645
 30
0.0
  0
VERTEX
  5
7C4
  8
0
  6
CONTINUOUS
 62
     7
 10
226.3159982491
 20
-47.6033181444
 30
0.0
  0
VERTEX
  5
7C5
  8
0
  6
CONTINUOUS
 62
     7
 10
225.3868676353
 20
-47.6479471222
 30
0.0
  0
VERTEX
  5
7C6
  8
0
  6
CONTINUOUS
 62
     7
 10
224.3011705208
 20
-47.6968791828
 30
0.0
  0
VERTEX
  5
7C7
  8
0
  6
CONTINUOUS
 62
     7
 10
222.6425654817
 20
-47.7651414023
 30
0.0
  0
VERTEX
  5
7C8
  8
0
  6
CONTINUOUS
 62
     7
 10
220.7233972479
 20
-47.834671338
 30
0.0
  0
VERTEX
  5
7C9
  8
0
  6
CONTINUOUS
 62
     7
 10
218.721458279
 20
-47.8969082729
 30
0.0
  0
VERTEX
  5
7CA
  8
0
  6
CONTINUOUS
 62
     7
 10
213.3090071011
 20
-48.0161298559
 30
0.0
  0
VERTEX
  5
7CB
  8
0
  6
CONTINUOUS
 62
     7
 10
207.8244840357
 20
-48.0684970067
 30
0.0
  0
VERTEX
  5
7CC
  8
0
  6
CONTINUOUS
 62
     7
 10
204.2972761769
 20
-48.0670482413
 30
0.0
  0
VERTEX
  5
7CD
  8
0
  6
CONTINUOUS
 62
     7
 10
200.7415648181
 20
-48.0377704398
 30
0.0
  0
VERTEX
  5
7CE
  8
0
  6
CONTINUOUS
 62
     7
 10
197.2621947158
 20
-47.9814738528
 30
0.0
  0
VERTEX
  5
7CF
  8
0
  6
CONTINUOUS
 62
     7
 10
194.0339907635
 20
-47.9038429008
 30
0.0
  0
VERTEX
  5
7D0
  8
0
  6
CONTINUOUS
 62
     7
 10
192.4443862963
 20
-47.8562757865
 30
0.0
  0
VERTEX
  5
7D1
  8
0
  6
CONTINUOUS
 62
     7
 10
190.9244782854
 20
-47.8047874317
 30
0.0
  0
VERTEX
  5
7D2
  8
0
  6
CONTINUOUS
 62
     7
 10
189.4742749263
 20
-47.749976863
 30
0.0
  0
VERTEX
  5
7D3
  8
0
  6
CONTINUOUS
 62
     7
 10
188.093776219
 20
-47.6924207554
 30
0.0
  0
VERTEX
  5
7D4
  8
0
  6
CONTINUOUS
 62
     7
 10
186.7829836536
 20
-47.6326812551
 30
0.0
  0
VERTEX
  5
7D5
  8
0
  6
CONTINUOUS
 62
     7
 10
185.5923838545
 20
-47.573906605
 30
0.0
  0
VERTEX
  5
7D6
  8
0
  6
CONTINUOUS
 62
     7
 10
184.7721032429
 20
-47.5307941929
 30
0.0
  0
VERTEX
  5
7D7
  8
0
  6
CONTINUOUS
 62
     7
 10
184.1354436804
 20
-47.4957921103
 30
0.0
  0
VERTEX
  5
7D8
  8
0
  6
CONTINUOUS
 62
     7
 10
183.8859535385
 20
-47.4816900239
 30
0.0
  0
VERTEX
  5
7D9
  8
0
  6
CONTINUOUS
 62
     7
 10
183.6567766596
 20
-47.4684905753
 30
0.0
  0
VERTEX
  5
7DA
  8
0
  6
CONTINUOUS
 62
     7
 10
183.3898670602
 20
-47.4528152988
 30
0.0
  0
VERTEX
  5
7DB
  8
0
  6
CONTINUOUS
 62
     7
 10
183.0830134082
 20
-47.4347584442
 30
0.0
  0
VERTEX
  5
7DC
  8
0
  6
CONTINUOUS
 62
     7
 10
182.5090013076
 20
-47.4015709505
 30
0.0
  0
VERTEX
  5
7DD
  8
0
  6
CONTINUOUS
 62
     7
 10
181.8327732015
 20
-47.362046738
 30
0.0
  0
VERTEX
  5
7DE
  8
0
  6
CONTINUOUS
 62
     7
 10
181.0636750985
 20
-47.3147746668
 30
0.0
  0
VERTEX
  5
7DF
  8
0
  6
CONTINUOUS
 62
     7
 10
180.2539519597
 20
-47.2610537455
 30
0.0
  0
VERTEX
  5
7E0
  8
0
  6
CONTINUOUS
 62
     7
 10
179.4117174674
 20
-47.2007215515
 30
0.0
  0
VERTEX
  5
7E1
  8
0
  6
CONTINUOUS
 62
     7
 10
177.9360226918
 20
-47.0841594533
 30
0.0
  0
VERTEX
  5
7E2
  8
0
  6
CONTINUOUS
 62
     7
 10
176.370727234
 20
-46.945435603
 30
0.0
  0
VERTEX
  5
7E3
  8
0
  6
CONTINUOUS
 62
     7
 10
174.7081748772
 20
-46.7812378452
 30
0.0
  0
VERTEX
  5
7E4
  8
0
  6
CONTINUOUS
 62
     7
 10
173.3274779845
 20
-46.632043694
 30
0.0
  0
VERTEX
  5
7E5
  8
0
  6
CONTINUOUS
 62
     7
 10
171.8092493344
 20
-46.4557089404
 30
0.0
  0
VERTEX
  5
7E6
  8
0
  6
CONTINUOUS
 62
     7
 10
170.1537958909
 20
-46.2499890969
 30
0.0
  0
VERTEX
  5
7E7
  8
0
  6
CONTINUOUS
 62
     7
 10
168.8082269955
 20
-46.0720900939
 30
0.0
  0
SEQEND
  5
A1B
  8
0
  6
CONTINUOUS
 62
     7
  0
LINE
  5
29B
  8
0
  6
CONTINUOUS
 62
     7
 10
168.6605862904
 20
-47.1336756394
 30
0.0
 11
168.6462245513
 21
-47.1969772623
 31
0.0
  0
LINE
  5
29C
  8
0
  6
CONTINUOUS
 62
     7
 10
168.7943063307
 20
-46.0691974059
 30
0.0
 11
168.7909833718
 21
-46.0961927221
 31
0.0
  0
POLYLINE
  5
29D
  8
0
  6
CONTINUOUS
 62
     7
 66
     1
 10
0.0
 20
0.0
 30
0.0
  0
VERTEX
  5
7E8
  8
0
  6
CONTINUOUS
 62
     7
 10
168.7586329508
 20
-46.3588659213
 30
0.0
  0
VERTEX
  5
7E9
  8
0
  6
CONTINUOUS
 62
     7
 10
168.7231354047
 20
-46.6470845536
 30
0.0
  0
VERTEX
  5
7EA
  8
0
  6
CONTINUOUS
 62
     7
 10
168.6464301873
 20
-47.2438034163
 30
0.0
  0
SEQEND
  5
A1A
  8
0
  6
CONTINUOUS
 62
     7
  0
POLYLINE
  5
29E
  8
0
  6
CONTINUOUS
 62
     7
 66
     1
 10
0.0
 20
0.0
 30
0.0
  0
VERTEX
  5
7EB
  8
0
  6
CONTINUOUS
 62
     7
 10
243.847077303
 20
-47.2454119966
 30
0.0
  0
VERTEX
  5
7EC
  8
0
  6
CONTINUOUS
 62
     7
 10
243.7702647973
 20
-46.6478799031
 30
0.0
  0
VERTEX
  5
7ED
  8
0
  6
CONTINUOUS
 62
     7
 10
243.7352828313
 20
-46.3638563202
 30
0.0
  0
SEQEND
  5
A19
  8
0
  6
CONTINUOUS
 62
     7
  0
LINE
  5
29F
  8
0
  6
CONTINUOUS
 62
     7
 10
243.7011979151
 20
-46.0871030138
 30
0.0
 11
243.6989925433
 21
-46.069198151
 31
0.0
  0
LINE
  5
2A0
  8
0
  6
CONTINUOUS
 62
     7
 10
243.8470743228
 20
-47.1969791249
 30
0.0
 11
243.8327215243
 21
-47.1337158725
 31
0.0
  0
LINE
  5
2A1
  8
0
  6
CONTINUOUS
 62
     7
 10
48.5466472436
 20
-57.5875264154
 30
0.0
 11
49.3466488648
 21
-57.5875264154
 31
0.0
  0
LINE
  5
2A2
  8
0
  6
CONTINUOUS
 62
     7
 10
48.5466472436
 20
-57.6564506189
 30
0.0
 11
64.9466506768
 21
-57.6564506189
 31
0.0
  0
LINE
  5
2A3
  8
0
  6
CONTINUOUS
 62
     7
 10
64.9466506768
 20
-45.4564508543
 30
0.0
 11
56.5405957032
 21
-45.4564508543
 31
0.0
  0
LINE
  5
2A4
  8
0
  6
CONTINUOUS
 62
     7
 10
51.4942518998
 20
-45.4564508543
 30
0.0
 11
48.5466472436
 21
-45.4564508543
 31
0.0
  0
LINE
  5
2A5
  8
0
  6
CONTINUOUS
 62
     7
 10
292.2274760533
 20
-57.6564506189
 30
0.0
 11
304.9466482926
 21
-57.6564506189
 31
0.0
  0
LINE
  5
2A6
  8
0
  6
CONTINUOUS
 62
     7
 10
304.9466482926
 20
-45.4564508543
 30
0.0
 11
296.5405992795
 21
-45.4564508543
 31
0.0
  0
LINE
  5
2A7
  8
0
  6
CONTINUOUS
 62
     7
 10
291.4942554761
 20
-45.4564508543
 30
0.0
 11
288.5466508198
 21
-45.4564508543
 31
0.0
  0
LINE
  5
2A8
  8
0
  6
CONTINUOUS
 62
     7
 10
168.5466490317
 20
-57.5875264154
 30
0.0
 11
169.346650653
 21
-57.5875264154
 31
0.0
  0
LINE
  5
2A9
  8
0
  6
CONTINUOUS
 62
     7
 10
168.5466490317
 20
-57.6564506189
 30
0.0
 11
184.9466494847
 21
-57.6564506189
 31
0.0
  0
LINE
  5
2AA
  8
0
  6
CONTINUOUS
 62
     7
 10
184.9466494847
 20
-45.4564508543
 30
0.0
 11
176.5406004716
 21
-45.4564508543
 31
0.0
  0
LINE
  5
2AB
  8
0
  6
CONTINUOUS
 62
     7
 10
171.4942566682
 20
-45.4564508543
 30
0.0
 11
168.5466490317
 21
-45.4564508543
 31
0.0
  0
LINE
  5
2AC
  8
0
  6
CONTINUOUS
 62
     7
 10
363.9466516305
 20
-45.4564508543
 30
0.0
 11
360.9990708161
 21
-45.4564508543
 31
0.0
  0
LINE
  5
2AD
  8
0
  6
CONTINUOUS
 62
     7
 10
355.9515229989
 20
-45.4564508543
 30
0.0
 11
347.5466481972
 21
-45.4564508543
 31
0.0
  0
LINE
  5
2AE
  8
0
  6
CONTINUOUS
 62
     7
 10
347.5466481972
 20
-57.6564506189
 30
0.0
 11
360.265826397
 21
-57.6564506189
 31
0.0
  0
LINE
  5
2AF
  8
0
  6
CONTINUOUS
 62
     7
 10
123.1466523934
 20
-57.5875264154
 30
0.0
 11
123.9466480542
 21
-57.5875264154
 31
0.0
  0
LINE
  5
2B0
  8
0
  6
CONTINUOUS
 62
     7
 10
123.9466480542
 20
-45.4564508543
 30
0.0
 11
120.9990672398
 21
-45.4564508543
 31
0.0
  0
LINE
  5
2B1
  8
0
  6
CONTINUOUS
 62
     7
 10
115.9515253831
 20
-45.4564508543
 30
0.0
 11
107.5466505814
 21
-45.4564508543
 31
0.0
  0
LINE
  5
2B2
  8
0
  6
CONTINUOUS
 62
     7
 10
107.5466505814
 20
-57.6564506189
 30
0.0
 11
123.9466480542
 21
-57.6564506189
 31
0.0
  0
LINE
  5
2B3
  8
0
  6
CONTINUOUS
 62
     7
 10
243.1466482211
 20
-57.5875264154
 30
0.0
 11
243.9466498423
 21
-57.5875264154
 31
0.0
  0
LINE
  5
2B4
  8
0
  6
CONTINUOUS
 62
     7
 10
243.9466498423
 20
-45.4564508543
 30
0.0
 11
240.999069028
 21
-45.4564508543
 31
0.0
  0
LINE
  5
2B5
  8
0
  6
CONTINUOUS
 62
     7
 10
235.9515271712
 20
-45.4564508543
 30
0.0
 11
227.5466493893
 21
-45.4564508543
 31
0.0
  0
LINE
  5
2B6
  8
0
  6
CONTINUOUS
 62
     7
 10
227.5466493893
 20
-57.6564506189
 30
0.0
 11
243.9466498423
 21
-57.6564506189
 31
0.0
  0
LINE
  5
2B7
  8
0
  6
CONTINUOUS
 62
     7
 10
364.2466537286
 20
-57.9564504818
 30
0.0
 11
367.6466457177
 21
-57.9564504818
 31
0.0
  0
LINE
  5
2B8
  8
0
  6
CONTINUOUS
 62
     7
 10
364.2466537286
 20
-45.5564506844
 30
0.0
 11
363.9466516305
 21
-45.5564506844
 31
0.0
  0
LINE
  5
2B9
  8
0
  6
CONTINUOUS
 62
     7
 10
347.5466481972
 20
-45.5564506844
 30
0.0
 11
346.846651249
 21
-45.5564506844
 31
0.0
  0
LINE
  5
2BA
  8
0
  6
CONTINUOUS
 62
     7
 10
346.846651249
 20
-57.5564507887
 30
0.0
 11
347.5466481972
 21
-57.5564507887
 31
0.0
  0
LINE
  5
2BB
  8
0
  6
CONTINUOUS
 62
     7
 10
363.9466516305
 20
-57.5564507887
 30
0.0
 11
364.2466537286
 21
-57.5564507887
 31
0.0
  0
LINE
  5
2BC
  8
0
  6
CONTINUOUS
 62
     7
 10
367.6466457177
 20
-42.9564506308
 30
0.0
 11
364.2466537286
 21
-42.9564506308
 31
0.0
  0
LINE
  5
2BD
  8
0
  6
CONTINUOUS
 62
     7
 10
124.2466501523
 20
-57.9564504818
 30
0.0
 11
127.6466481019
 21
-57.9564504818
 31
0.0
  0
LINE
  5
2BE
  8
0
  6
CONTINUOUS
 62
     7
 10
124.2466501523
 20
-45.5564506844
 30
0.0
 11
123.9466480542
 21
-45.5564506844
 31
0.0
  0
LINE
  5
2BF
  8
0
  6
CONTINUOUS
 62
     7
 10
107.5466505814
 20
-45.5564506844
 30
0.0
 11
106.8466476727
 21
-45.5564506844
 31
0.0
  0
LINE
  5
2C0
  8
0
  6
CONTINUOUS
 62
     7
 10
106.8466476727
 20
-57.5564507887
 30
0.0
 11
107.5466505814
 21
-57.5564507887
 31
0.0
  0
LINE
  5
2C1
  8
0
  6
CONTINUOUS
 62
     7
 10
123.9466480542
 20
-57.5564507887
 30
0.0
 11
124.2466501523
 21
-57.5564507887
 31
0.0
  0
LINE
  5
2C2
  8
0
  6
CONTINUOUS
 62
     7
 10
127.6466481019
 20
-42.9564506308
 30
0.0
 11
124.2466501523
 21
-42.9564506308
 31
0.0
  0
LINE
  5
2C3
  8
0
  6
CONTINUOUS
 62
     7
 10
244.2466489602
 20
-57.9564504818
 30
0.0
 11
247.64664989
 21
-57.9564504818
 31
0.0
  0
LINE
  5
2C4
  8
0
  6
CONTINUOUS
 62
     7
 10
244.2466489602
 20
-45.5564506844
 30
0.0
 11
243.9466498423
 21
-45.5564506844
 31
0.0
  0
LINE
  5
2C5
  8
0
  6
CONTINUOUS
 62
     7
 10
227.5466493893
 20
-45.5564506844
 30
0.0
 11
226.8466494609
 21
-45.5564506844
 31
0.0
  0
LINE
  5
2C6
  8
0
  6
CONTINUOUS
 62
     7
 10
226.8466494609
 20
-57.5564507887
 30
0.0
 11
227.5466493893
 21
-57.5564507887
 31
0.0
  0
LINE
  5
2C7
  8
0
  6
CONTINUOUS
 62
     7
 10
243.9466498423
 20
-57.5564507887
 30
0.0
 11
244.2466489602
 21
-57.5564507887
 31
0.0
  0
LINE
  5
2C8
  8
0
  6
CONTINUOUS
 62
     7
 10
247.64664989
 20
-42.9564506308
 30
0.0
 11
244.2466489602
 21
-42.9564506308
 31
0.0
  0
LINE
  5
2C9
  8
0
  6
CONTINUOUS
 62
     7
 10
284.8466507722
 20
-57.9564504818
 30
0.0
 11
288.2466487218
 21
-57.9564504818
 31
0.0
  0
LINE
  5
2CA
  8
0
  6
CONTINUOUS
 62
     7
 10
288.2466487218
 20
-57.5564507887
 30
0.0
 11
288.5466508198
 21
-57.5564507887
 31
0.0
  0
LINE
  5
2CB
  8
0
  6
CONTINUOUS
 62
     7
 10
304.9466482926
 20
-57.5564507887
 30
0.0
 11
305.6466512013
 21
-57.5564507887
 31
0.0
  0
LINE
  5
2CC
  8
0
  6
CONTINUOUS
 62
     7
 10
305.6466512013
 20
-45.5564506844
 30
0.0
 11
304.9466482926
 21
-45.5564506844
 31
0.0
  0
LINE
  5
2CD
  8
0
  6
CONTINUOUS
 62
     7
 10
288.5466508198
 20
-45.5564506844
 30
0.0
 11
288.2466487218
 21
-45.5564506844
 31
0.0
  0
LINE
  5
2CE
  8
0
  6
CONTINUOUS
 62
     7
 10
288.2466487218
 20
-42.9564506308
 30
0.0
 11
284.8466507722
 21
-42.9564506308
 31
0.0
  0
LINE
  5
2CF
  8
0
  6
CONTINUOUS
 62
     7
 10
164.846648984
 20
-57.9564504818
 30
0.0
 11
168.2466499139
 21
-57.9564504818
 31
0.0
  0
LINE
  5
2D0
  8
0
  6
CONTINUOUS
 62
     7
 10
168.2466499139
 20
-57.5564507887
 30
0.0
 11
168.5466490317
 21
-57.5564507887
 31
0.0
  0
LINE
  5
2D1
  8
0
  6
CONTINUOUS
 62
     7
 10
184.9466494847
 20
-57.5564507887
 30
0.0
 11
185.6466494132
 21
-57.5564507887
 31
0.0
  0
LINE
  5
2D2
  8
0
  6
CONTINUOUS
 62
     7
 10
185.6466494132
 20
-45.5564506844
 30
0.0
 11
184.9466494847
 21
-45.5564506844
 31
0.0
  0
LINE
  5
2D3
  8
0
  6
CONTINUOUS
 62
     7
 10
168.5466490317
 20
-45.5564506844
 30
0.0
 11
168.2466499139
 21
-45.5564506844
 31
0.0
  0
LINE
  5
2D4
  8
0
  6
CONTINUOUS
 62
     7
 10
168.2466499139
 20
-42.9564506308
 30
0.0
 11
164.846648984
 21
-42.9564506308
 31
0.0
  0
LINE
  5
2D5
  8
0
  6
CONTINUOUS
 62
     7
 10
44.8466531563
 20
-57.9564504818
 30
0.0
 11
48.2466451455
 21
-57.9564504818
 31
0.0
  0
LINE
  5
2D6
  8
0
  6
CONTINUOUS
 62
     7
 10
48.2466451455
 20
-57.5564507887
 30
0.0
 11
48.5466472436
 21
-57.5564507887
 31
0.0
  0
LINE
  5
2D7
  8
0
  6
CONTINUOUS
 62
     7
 10
64.9466506768
 20
-57.5564507887
 30
0.0
 11
65.646647625
 21
-57.5564507887
 31
0.0
  0
LINE
  5
2D8
  8
0
  6
CONTINUOUS
 62
     7
 10
65.646647625
 20
-45.5564506844
 30
0.0
 11
64.9466506768
 21
-45.5564506844
 31
0.0
  0
LINE
  5
2D9
  8
0
  6
CONTINUOUS
 62
     7
 10
48.5466472436
 20
-45.5564506844
 30
0.0
 11
48.2466451455
 21
-45.5564506844
 31
0.0
  0
LINE
  5
2DA
  8
0
  6
CONTINUOUS
 62
     7
 10
48.2466451455
 20
-42.9564506308
 30
0.0
 11
44.8466531563
 21
-42.9564506308
 31
0.0
  0
LINE
  5
2DB
  8
0
  6
CONTINUOUS
 62
     7
 10
43.0466524888
 20
-46.4564506457
 30
0.0
 11
44.8466531563
 21
-46.4564506457
 31
0.0
  0
LINE
  5
2DC
  8
0
  6
CONTINUOUS
 62
     7
 10
65.646647625
 20
-46.4564506457
 30
0.0
 11
68.2466499139
 21
-46.4564506457
 31
0.0
  0
LINE
  5
2DD
  8
0
  6
CONTINUOUS
 62
     7
 10
104.2466513444
 20
-46.4564506457
 30
0.0
 11
106.8466476727
 21
-46.4564506457
 31
0.0
  0
LINE
  5
2DE
  8
0
  6
CONTINUOUS
 62
     7
 10
127.6466481019
 20
-46.4564506457
 30
0.0
 11
164.846648984
 21
-46.4564506457
 31
0.0
  0
LINE
  5
2DF
  8
0
  6
CONTINUOUS
 62
     7
 10
185.6466494132
 20
-46.4564506457
 30
0.0
 11
188.2466487218
 21
-46.4564506457
 31
0.0
  0
LINE
  5
2E0
  8
0
  6
CONTINUOUS
 62
     7
 10
224.2466501523
 20
-46.4564506457
 30
0.0
 11
226.8466494609
 21
-46.4564506457
 31
0.0
  0
LINE
  5
2E1
  8
0
  6
CONTINUOUS
 62
     7
 10
247.64664989
 20
-46.4564506457
 30
0.0
 11
284.8466507722
 21
-46.4564506457
 31
0.0
  0
LINE
  5
2E2
  8
0
  6
CONTINUOUS
 62
     7
 10
305.6466512013
 20
-46.4564506457
 30
0.0
 11
308.2466475297
 21
-46.4564506457
 31
0.0
  0
LINE
  5
2E3
  8
0
  6
CONTINUOUS
 62
     7
 10
344.2466489602
 20
-46.4564506457
 30
0.0
 11
346.846651249
 21
-46.4564506457
 31
0.0
  0
LINE
  5
2E4
  8
0
  6
CONTINUOUS
 62
     7
 10
367.6466457177
 20
-46.4564506457
 30
0.0
 11
369.4466463853
 21
-46.4564506457
 31
0.0
  0
LINE
  5
2E5
  8
0
  6
CONTINUOUS
 62
     7
 10
42.6466457177
 20
-47.4564508096
 30
0.0
 11
42.6466457177
 21
-46.8564507113
 31
0.0
  0
ARC
  5
2E6
  8
0
  6
CONTINUOUS
 62
     7
 10
43.046649437
 20
-46.8564507202
 30
0.0
 40
0.4000000000000057
 50
90.0
 51
180.0
  0
LINE
  5
2E7
  8
0
  6
CONTINUOUS
 62
     7
 10
369.8466531563
 20
-46.8564507113
 30
0.0
 11
369.8466531563
 21
-47.4564508096
 31
0.0
  0
ARC
  5
2E8
  8
0
  6
CONTINUOUS
 62
     7
 10
369.446649437
 20
-46.8564507202
 30
0.0
 40
0.4000000000000341
 50
0.0
 51
90.0
  0
LINE
  5
2E9
  8
0
  6
CONTINUOUS
 62
     7
 10
42.6466457177
 20
-55.4564506308
 30
0.0
 11
42.6466457177
 21
-47.4564508096
 31
0.0
  0
LINE
  5
2EA
  8
0
  6
CONTINUOUS
 62
     7
 10
369.8466531563
 20
-47.4564508096
 30
0.0
 11
369.8466531563
 21
-55.4564506308
 31
0.0
  0
ARC
  5
2EB
  8
0
  6
CONTINUOUS
 62
     7
 10
43.046649437
 20
-56.0564507202
 30
0.0
 40
0.3999999999999986
 50
180.0
 51
270.0
  0
LINE
  5
2EC
  8
0
  6
CONTINUOUS
 62
     7
 10
42.6466457177
 20
-56.0564507291
 30
0.0
 11
42.6466457177
 21
-55.4564506308
 31
0.0
  0
LINE
  5
2ED
  8
0
  6
CONTINUOUS
 62
     7
 10
369.4466463853
 20
-56.4564507947
 30
0.0
 11
367.6466457177
 21
-56.4564507947
 31
0.0
  0
LINE
  5
2EE
  8
0
  6
CONTINUOUS
 62
     7
 10
346.846651249
 20
-56.4564507947
 30
0.0
 11
344.2466489602
 21
-56.4564507947
 31
0.0
  0
LINE
  5
2EF
  8
0
  6
CONTINUOUS
 62
     7
 10
308.2466475297
 20
-56.4564507947
 30
0.0
 11
305.6466512013
 21
-56.4564507947
 31
0.0
  0
LINE
  5
2F0
  8
0
  6
CONTINUOUS
 62
     7
 10
284.8466507722
 20
-56.4564507947
 30
0.0
 11
247.64664989
 21
-56.4564507947
 31
0.0
  0
LINE
  5
2F1
  8
0
  6
CONTINUOUS
 62
     7
 10
226.8466494609
 20
-56.4564507947
 30
0.0
 11
224.2466501523
 21
-56.4564507947
 31
0.0
  0
LINE
  5
2F2
  8
0
  6
CONTINUOUS
 62
     7
 10
188.2466487218
 20
-56.4564507947
 30
0.0
 11
185.6466494132
 21
-56.4564507947
 31
0.0
  0
LINE
  5
2F3
  8
0
  6
CONTINUOUS
 62
     7
 10
164.846648984
 20
-56.4564507947
 30
0.0
 11
127.6466481019
 21
-56.4564507947
 31
0.0
  0
LINE
  5
2F4
  8
0
  6
CONTINUOUS
 62
     7
 10
106.8466476727
 20
-56.4564507947
 30
0.0
 11
104.2466513444
 21
-56.4564507947
 31
0.0
  0
LINE
  5
2F5
  8
0
  6
CONTINUOUS
 62
     7
 10
68.2466499139
 20
-56.4564507947
 30
0.0
 11
65.646647625
 21
-56.4564507947
 31
0.0
  0
LINE
  5
2F6
  8
0
  6
CONTINUOUS
 62
     7
 10
44.8466531563
 20
-56.4564507947
 30
0.0
 11
43.0466524888
 21
-56.4564507947
 31
0.0
  0
LINE
  5
2F7
  8
0
  6
CONTINUOUS
 62
     7
 10
369.8466531563
 20
-55.4564506308
 30
0.0
 11
369.8466531563
 21
-56.0564507291
 31
0.0
  0
ARC
  5
2F8
  8
0
  6
CONTINUOUS
 62
     7
 10
369.446649437
 20
-56.0564507202
 30
0.0
 40
0.4000000000000341
 50
270.0
 51
0.0
  0
LINE
  5
2F9
  8
0
  6
CONTINUOUS
 62
     7
 10
353.246652298
 20
-45.4564508543
 30
0.0
 11
353.246652298
 21
-44.3912223474
 31
0.0
  0
POLYLINE
  5
2FA
  8
0
  6
CONTINUOUS
 62
     7
 66
     1
 10
0.0
 20
0.0
 30
0.0
  0
VERTEX
  5
7EE
  8
0
  6
CONTINUOUS
 62
     7
 10
352.3109309006
 20
-57.6564506189
 30
0.0
  0
VERTEX
  5
7EF
  8
0
  6
CONTINUOUS
 62
     7
 10
352.24124115
 20
-58.0998152987
 30
0.0
  0
VERTEX
  5
7F0
  8
0
  6
CONTINUOUS
 62
     7
 10
351.8465153504
 20
-60.3581406669
 30
0.0
  0
SEQEND
  5
A18
  8
0
  6
CONTINUOUS
 62
     7
  0
LINE
  5
2FB
  8
0
  6
CONTINUOUS
 62
     7
 10
329.2476527024
 20
-45.8564505473
 30
0.0
 11
329.2466513444
 21
-45.4564508543
 31
0.0
  0
ARC
  5
2FC
  8
0
  6
CONTINUOUS
 62
     7
 10
333.246649437
 20
-43.4564507202
 30
0.0
 40
4.0
 50
90.0
 51
180.0
  0
LINE
  5
2FD
  8
0
  6
CONTINUOUS
 62
     7
 10
333.3121887971
 20
-39.4564509884
 30
0.0
 11
333.2466475297
 21
-39.4564509884
 31
0.0
  0
ARC
  5
2FE
  8
0
  6
CONTINUOUS
 62
     7
 10
349.246649437
 20
-43.4564507202
 30
0.0
 40
1.500000000000099
 50
141.2936122605
 51
0.5532366202
  0
CIRCLE
  5
2FF
  8
0
  6
CONTINUOUS
 62
     7
 10
333.246649437
 20
-43.4564507202
 30
0.0
 40
1.500000000000014
  0
ARC
  5
300
  8
0
  6
CONTINUOUS
 62
     7
 10
67.8323651516
 20
-71.4564507202
 30
0.0
 40
4.000000000000014
 50
200.0051900882
 51
270.0
  0
ARC
  5
301
  8
0
  6
CONTINUOUS
 62
     7
 10
139.246649437
 20
-45.4564507202
 30
0.0
 40
80.0
 50
188.7718331197
 51
200.0051900882
  0
LINE
  5
302
  8
0
  6
CONTINUOUS
 62
     7
 10
59.246646576
 20
-44.3916686372
 30
0.0
 11
59.246646576
 21
-45.4564508543
 31
0.0
  0
LINE
  5
303
  8
0
  6
CONTINUOUS
 62
     7
 10
79.2466513444
 20
-39.4564509884
 30
0.0
 11
79.181110077
 21
-39.4564509884
 31
0.0
  0
ARC
  5
304
  8
0
  6
CONTINUOUS
 62
     7
 10
79.246649437
 20
-43.4564507202
 30
0.0
 40
4.000000000000007
 50
0.0
 51
90.0
  0
LINE
  5
305
  8
0
  6
CONTINUOUS
 62
     7
 10
83.2466475297
 20
-45.4564508543
 30
0.0
 11
83.2456461716
 21
-45.8564505473
 31
0.0
  0
ARC
  5
306
  8
0
  6
CONTINUOUS
 62
     7
 10
3.246649437
 20
-45.4564507202
 30
0.0
 40
80.00000000000003
 50
339.9948099118
 51
351.6627208111
  0
ARC
  5
307
  8
0
  6
CONTINUOUS
 62
     7
 10
74.6609337224
 20
-71.4564507202
 30
0.0
 40
4.000000000000038
 50
270.0
 51
339.9948099118
  0
LINE
  5
308
  8
0
  6
CONTINUOUS
 62
     7
 10
67.8323618699
 20
-75.4564501838
 30
0.0
 11
74.6609322358
 21
-75.4564501838
 31
0.0
  0
ARC
  5
309
  8
0
  6
CONTINUOUS
 62
     7
 10
63.246649437
 20
-43.4564507202
 30
0.0
 40
1.500000000000021
 50
270.0
 51
38.8386719473
  0
ARC
  5
30A
  8
0
  6
CONTINUOUS
 62
     7
 10
63.246649437
 20
-43.4564507202
 30
0.0
 40
1.500000000000021
 50
179.2809376961
 51
270.0
  0
CIRCLE
  5
30B
  8
0
  6
CONTINUOUS
 62
     7
 10
79.246649437
 20
-43.4564507202
 30
0.0
 40
1.500000000000014
  0
CIRCLE
  5
30C
  8
0
  6
CONTINUOUS
 62
     7
 10
71.246649437
 20
-71.4564507202
 30
0.0
 40
1.500000000000014
  0
POLYLINE
  5
30D
  8
0
  6
CONTINUOUS
 62
     7
 66
     1
 10
0.0
 20
0.0
 30
0.0
  0
VERTEX
  5
7F1
  8
0
  6
CONTINUOUS
 62
     7
 10
361.2719766427
 20
-44.9769817785
 30
0.0
  0
VERTEX
  5
7F2
  8
0
  6
CONTINUOUS
 62
     7
 10
361.2993828583
 20
-44.6724214152
 30
0.0
  0
VERTEX
  5
7F3
  8
0
  6
CONTINUOUS
 62
     7
 10
361.1375443268
 20
-44.2528054611
 30
0.0
  0
VERTEX
  5
7F4
  8
0
  6
CONTINUOUS
 62
     7
 10
360.7854120064
 20
-43.7336765722
 30
0.0
  0
VERTEX
  5
7F5
  8
0
  6
CONTINUOUS
 62
     7
 10
360.2506987382
 20
-43.1392997996
 30
0.0
  0
VERTEX
  5
7F6
  8
0
  6
CONTINUOUS
 62
     7
 10
359.5403544236
 20
-42.4936973051
 30
0.0
  0
VERTEX
  5
7F7
  8
0
  6
CONTINUOUS
 62
     7
 10
358.6731545258
 20
-41.8240122989
 30
0.0
  0
VERTEX
  5
7F8
  8
0
  6
CONTINUOUS
 62
     7
 10
357.6722494889
 20
-41.1582552389
 30
0.0
  0
VERTEX
  5
7F9
  8
0
  6
CONTINUOUS
 62
     7
 10
356.5632097054
 20
-40.5169792966
 30
0.0
  0
VERTEX
  5
7FA
  8
0
  6
CONTINUOUS
 62
     7
 10
355.5348269273
 20
-39.9966687456
 30
0.0
  0
VERTEX
  5
7FB
  8
0
  6
CONTINUOUS
 62
     7
 10
354.4693104554
 20
-39.5219512776
 30
0.0
  0
SEQEND
  5
A17
  8
0
  6
CONTINUOUS
 62
     7
  0
ARC
  5
30E
  8
0
  6
CONTINUOUS
 62
     7
 10
356.7749455449
 20
-42.7477614991
 30
0.0
 40
5.019234179453948
 50
308.9520051035
 51
333.6319559192
  0
POLYLINE
  5
30F
  8
0
  6
CONTINUOUS
 62
     7
 66
     1
 10
0.0
 20
0.0
 30
0.0
  0
VERTEX
  5
7FC
  8
0
  6
CONTINUOUS
 62
     7
 10
351.8065683175
 20
-43.8311703996
 30
0.0
  0
VERTEX
  5
7FD
  8
0
  6
CONTINUOUS
 62
     7
 10
353.2078735161
 20
-44.375971754
 30
0.0
  0
VERTEX
  5
7FE
  8
0
  6
CONTINUOUS
 62
     7
 10
354.5572392274
 20
-44.906691511
 30
0.0
  0
VERTEX
  5
7FF
  8
0
  6
CONTINUOUS
 62
     7
 10
355.8169714738
 20
-45.4040032373
 30
0.0
  0
VERTEX
  5
800
  8
0
  6
CONTINUOUS
 62
     7
 10
356.9547526169
 20
-45.8474915967
 30
0.0
  0
VERTEX
  5
801
  8
0
  6
CONTINUOUS
 62
     7
 10
357.9360238839
 20
-46.214739655
 30
0.0
  0
VERTEX
  5
802
  8
0
  6
CONTINUOUS
 62
     7
 10
358.7438694764
 20
-46.4899082229
 30
0.0
  0
VERTEX
  5
803
  8
0
  6
CONTINUOUS
 62
     7
 10
359.3582383919
 20
-46.6557495788
 30
0.0
  0
VERTEX
  5
804
  8
0
  6
CONTINUOUS
 62
     7
 10
359.7665063668
 20
-46.701185827
 30
0.0
  0
VERTEX
  5
805
  8
0
  6
CONTINUOUS
 62
     7
 10
359.9303833771
 20
-46.6510840253
 30
0.0
  0
SEQEND
  5
A16
  8
0
  6
CONTINUOUS
 62
     7
  0
ARC
  5
310
  8
0
  6
CONTINUOUS
 62
     7
 10
326.2466512252
 20
-110.1238551796
 30
0.0
 40
71.04948569214041
 50
68.9152735458
 51
111.0847264542
  0
POLYLINE
  5
311
  8
0
  6
CONTINUOUS
 62
     7
 66
     1
 10
0.0
 20
0.0
 30
0.0
  0
VERTEX
  5
806
  8
0
  6
CONTINUOUS
 62
     7
 10
292.5629190732
 20
-46.6510840253
 30
0.0
  0
VERTEX
  5
807
  8
0
  6
CONTINUOUS
 62
     7
 10
292.8110293675
 20
-46.7011642203
 30
0.0
  0
VERTEX
  5
808
  8
0
  6
CONTINUOUS
 62
     7
 10
293.2727031041
 20
-46.6247588888
 30
0.0
  0
VERTEX
  5
809
  8
0
  6
CONTINUOUS
 62
     7
 10
293.941038065
 20
-46.4282539234
 30
0.0
  0
VERTEX
  5
80A
  8
0
  6
CONTINUOUS
 62
     7
 10
294.7984508801
 20
-46.1268049226
 30
0.0
  0
VERTEX
  5
80B
  8
0
  6
CONTINUOUS
 62
     7
 10
295.8266667653
 20
-45.7362734274
 30
0.0
  0
VERTEX
  5
80C
  8
0
  6
CONTINUOUS
 62
     7
 10
296.9984404374
 20
-45.2770028756
 30
0.0
  0
VERTEX
  5
80D
  8
0
  6
CONTINUOUS
 62
     7
 10
298.281633072
 20
-44.7704427437
 30
0.0
  0
VERTEX
  5
80E
  8
0
  6
CONTINUOUS
 62
     7
 10
299.643611126
 20
-44.2358598605
 30
0.0
  0
VERTEX
  5
80F
  8
0
  6
CONTINUOUS
 62
     7
 10
300.6867341328
 20
-43.8311703996
 30
0.0
  0
SEQEND
  5
A15
  8
0
  6
CONTINUOUS
 62
     7
  0
ARC
  5
312
  8
0
  6
CONTINUOUS
 62
     7
 10
295.717837373
 20
-42.7483106096
 30
0.0
 40
5.018480537436194
 50
206.3638881185
 51
231.0486664117
  0
POLYLINE
  5
313
  8
0
  6
CONTINUOUS
 62
     7
 66
     1
 10
0.0
 20
0.0
 30
0.0
  0
VERTEX
  5
810
  8
0
  6
CONTINUOUS
 62
     7
 10
298.0240337182
 20
-39.521930416
 30
0.0
  0
VERTEX
  5
811
  8
0
  6
CONTINUOUS
 62
     7
 10
296.796654873
 20
-40.0744982556
 30
0.0
  0
VERTEX
  5
812
  8
0
  6
CONTINUOUS
 62
     7
 10
295.6231943894
 20
-40.6854346887
 30
0.0
  0
VERTEX
  5
813
  8
0
  6
CONTINUOUS
 62
     7
 10
294.5374421406
 20
-41.3375422851
 30
0.0
  0
VERTEX
  5
814
  8
0
  6
CONTINUOUS
 62
     7
 10
293.5681156445
 20
-42.0081556336
 30
0.0
  0
VERTEX
  5
815
  8
0
  6
CONTINUOUS
 62
     7
 10
292.7464417744
 20
-42.6701263086
 30
0.0
  0
VERTEX
  5
816
  8
0
  6
CONTINUOUS
 62
     7
 10
292.0846394826
 20
-43.3013931409
 30
0.0
  0
VERTEX
  5
817
  8
0
  6
CONTINUOUS
 62
     7
 10
291.5983549882
 20
-43.876950492
 30
0.0
  0
VERTEX
  5
818
  8
0
  6
CONTINUOUS
 62
     7
 10
291.2956110764
 20
-44.3714105085
 30
0.0
  0
VERTEX
  5
819
  8
0
  6
CONTINUOUS
 62
     7
 10
291.1865822602
 20
-44.7185926632
 30
0.0
  0
VERTEX
  5
81A
  8
0
  6
CONTINUOUS
 62
     7
 10
291.2213198472
 20
-44.9768700198
 30
0.0
  0
SEQEND
  5
A14
  8
0
  6
CONTINUOUS
 62
     7
  0
ARC
  5
314
  8
0
  6
CONTINUOUS
 62
     7
 10
326.2466470177
 20
-107.3514441689
 30
0.0
 40
73.46671925029277
 50
67.4086611322
 51
112.5912965159
  0
POLYLINE
  5
315
  8
0
  6
CONTINUOUS
 62
     7
 66
     1
 10
0.0
 20
0.0
 30
0.0
  0
VERTEX
  5
81B
  8
0
  6
CONTINUOUS
 62
     7
 10
290.634071045
 20
-43.9695030943
 30
0.0
  0
VERTEX
  5
81C
  8
0
  6
CONTINUOUS
 62
     7
 10
290.6040362645
 20
-43.6669223503
 30
0.0
  0
VERTEX
  5
81D
  8
0
  6
CONTINUOUS
 62
     7
 10
290.7631568242
 20
-43.2489671305
 30
0.0
  0
VERTEX
  5
81E
  8
0
  6
CONTINUOUS
 62
     7
 10
291.1125413705
 20
-42.7310973898
 30
0.0
  0
VERTEX
  5
81F
  8
0
  6
CONTINUOUS
 62
     7
 10
291.6445068646
 20
-42.1374917523
 30
0.0
  0
VERTEX
  5
820
  8
0
  6
CONTINUOUS
 62
     7
 10
292.3521987725
 20
-41.4920427398
 30
0.0
  0
VERTEX
  5
821
  8
0
  6
CONTINUOUS
 62
     7
 10
293.2168654729
 20
-40.8218503491
 30
0.0
  0
VERTEX
  5
822
  8
0
  6
CONTINUOUS
 62
     7
 10
294.2156366635
 20
-40.1547424988
 30
0.0
  0
VERTEX
  5
823
  8
0
  6
CONTINUOUS
 62
     7
 10
295.3228227425
 20
-39.5114094511
 30
0.0
  0
VERTEX
  5
824
  8
0
  6
CONTINUOUS
 62
     7
 10
296.3498167325
 20
-38.988798906
 30
0.0
  0
VERTEX
  5
825
  8
0
  6
CONTINUOUS
 62
     7
 10
297.414212637
 20
-38.5113426045
 30
0.0
  0
SEQEND
  5
A13
  8
0
  6
CONTINUOUS
 62
     7
  0
POLYLINE
  5
316
  8
0
  6
CONTINUOUS
 62
     7
 66
     1
 10
0.0
 20
0.0
 30
0.0
  0
VERTEX
  5
826
  8
0
  6
CONTINUOUS
 62
     7
 10
355.079137497
 20
-38.511361976
 30
0.0
  0
VERTEX
  5
827
  8
0
  6
CONTINUOUS
 62
     7
 10
356.305038147
 20
-39.066975613
 30
0.0
  0
VERTEX
  5
828
  8
0
  6
CONTINUOUS
 62
     7
 10
357.4766747285
 20
-39.6803483859
 30
0.0
  0
VERTEX
  5
829
  8
0
  6
CONTINUOUS
 62
     7
 10
358.5602871705
 20
-40.3341867522
 30
0.0
  0
VERTEX
  5
82A
  8
0
  6
CONTINUOUS
 62
     7
 10
359.5272533227
 20
-41.0058290259
 30
0.0
  0
VERTEX
  5
82B
  8
0
  6
CONTINUOUS
 62
     7
 10
360.3466026116
 20
-41.668288459
 30
0.0
  0
VERTEX
  5
82C
  8
0
  6
CONTINUOUS
 62
     7
 10
361.0059134293
 20
-42.2994174556
 30
0.0
  0
VERTEX
  5
82D
  8
0
  6
CONTINUOUS
 62
     7
 10
361.4895693589
 20
-42.8742483751
 30
0.0
  0
VERTEX
  5
82E
  8
0
  6
CONTINUOUS
 62
     7
 10
361.7896072198
 20
-43.36746936
 30
0.0
  0
VERTEX
  5
82F
  8
0
  6
CONTINUOUS
 62
     7
 10
361.8962399293
 20
-43.7131174401
 30
0.0
  0
VERTEX
  5
830
  8
0
  6
CONTINUOUS
 62
     7
 10
361.8592254449
 20
-43.969614853
 30
0.0
  0
SEQEND
  5
A12
  8
0
  6
CONTINUOUS
 62
     7
  0
ARC
  5
317
  8
0
  6
CONTINUOUS
 62
     7
 10
326.24665196
 20
-107.2960084533
 30
0.0
 40
74.5831067551079
 50
67.2580129375
 51
112.7419485675
  0
POLYLINE
  5
318
  8
0
  6
CONTINUOUS
 62
     7
 66
     1
 10
0.0
 20
0.0
 30
0.0
  0
VERTEX
  5
831
  8
0
  6
CONTINUOUS
 62
     7
 10
241.2719748545
 20
-44.9769817785
 30
0.0
  0
VERTEX
  5
832
  8
0
  6
CONTINUOUS
 62
     7
 10
241.2993840504
 20
-44.6724214152
 30
0.0
  0
VERTEX
  5
833
  8
0
  6
CONTINUOUS
 62
     7
 10
241.1375455189
 20
-44.2528054611
 30
0.0
  0
VERTEX
  5
834
  8
0
  6
CONTINUOUS
 62
     7
 10
240.7854072381
 20
-43.7336765722
 30
0.0
  0
VERTEX
  5
835
  8
0
  6
CONTINUOUS
 62
     7
 10
240.25069695
 20
-43.1392997996
 30
0.0
  0
VERTEX
  5
836
  8
0
  6
CONTINUOUS
 62
     7
 10
239.5403585959
 20
-42.4936973051
 30
0.0
  0
VERTEX
  5
837
  8
0
  6
CONTINUOUS
 62
     7
 10
238.6731586981
 20
-41.8240122989
 30
0.0
  0
VERTEX
  5
838
  8
0
  6
CONTINUOUS
 62
     7
 10
237.672250681
 20
-41.1582552389
 30
0.0
  0
VERTEX
  5
839
  8
0
  6
CONTINUOUS
 62
     7
 10
236.5632108975
 20
-40.5169792966
 30
0.0
  0
VERTEX
  5
83A
  8
0
  6
CONTINUOUS
 62
     7
 10
235.5348221589
 20
-39.9966687456
 30
0.0
  0
VERTEX
  5
83B
  8
0
  6
CONTINUOUS
 62
     7
 10
234.4693146277
 20
-39.5219512776
 30
0.0
  0
SEQEND
  5
A11
  8
0
  6
CONTINUOUS
 62
     7
  0
ARC
  5
319
  8
0
  6
CONTINUOUS
 62
     7
 10
236.9981060727
 20
-42.8994017815
 30
0.0
 40
4.75208301781872
 50
310.0317818459
 51
334.0750454161
  0
POLYLINE
  5
31A
  8
0
  6
CONTINUOUS
 62
     7
 66
     1
 10
0.0
 20
0.0
 30
0.0
  0
VERTEX
  5
83C
  8
0
  6
CONTINUOUS
 62
     7
 10
231.8065665293
 20
-43.8311703996
 30
0.0
  0
VERTEX
  5
83D
  8
0
  6
CONTINUOUS
 62
     7
 10
233.2078747082
 20
-44.375971754
 30
0.0
  0
VERTEX
  5
83E
  8
0
  6
CONTINUOUS
 62
     7
 10
234.5572433997
 20
-44.906691511
 30
0.0
  0
VERTEX
  5
83F
  8
0
  6
CONTINUOUS
 62
     7
 10
235.8169726659
 20
-45.4040032373
 30
0.0
  0
VERTEX
  5
840
  8
0
  6
CONTINUOUS
 62
     7
 10
236.954753809
 20
-45.8474915967
 30
0.0
  0
VERTEX
  5
841
  8
0
  6
CONTINUOUS
 62
     7
 10
237.9360220957
 20
-46.214739655
 30
0.0
  0
VERTEX
  5
842
  8
0
  6
CONTINUOUS
 62
     7
 10
238.7438676882
 20
-46.4899082229
 30
0.0
  0
VERTEX
  5
843
  8
0
  6
CONTINUOUS
 62
     7
 10
239.2691783238
 20
-46.6317087904
 30
0.0
  0
SEQEND
  5
A10
  8
0
  6
CONTINUOUS
 62
     7
  0
ARC
  5
31B
  8
0
  6
CONTINUOUS
 62
     7
 10
206.246649437
 20
-110.1238426989
 30
0.0
 40
71.04947404698507
 50
68.915269925
 51
111.084730075
  0
POLYLINE
  5
31C
  8
0
  6
CONTINUOUS
 62
     7
 66
     1
 10
0.0
 20
0.0
 30
0.0
  0
VERTEX
  5
844
  8
0
  6
CONTINUOUS
 62
     7
 10
173.2694260407
 20
-46.6253012911
 30
0.0
  0
VERTEX
  5
845
  8
0
  6
CONTINUOUS
 62
     7
 10
173.2727042962
 20
-46.6247588888
 30
0.0
  0
VERTEX
  5
846
  8
0
  6
CONTINUOUS
 62
     7
 10
173.9410362769
 20
-46.4282539234
 30
0.0
  0
VERTEX
  5
847
  8
0
  6
CONTINUOUS
 62
     7
 10
174.798449092
 20
-46.1268049226
 30
0.0
  0
VERTEX
  5
848
  8
0
  6
CONTINUOUS
 62
     7
 10
175.8266649771
 20
-45.7362734274
 30
0.0
  0
VERTEX
  5
849
  8
0
  6
CONTINUOUS
 62
     7
 10
176.9984446097
 20
-45.2770028756
 30
0.0
  0
VERTEX
  5
84A
  8
0
  6
CONTINUOUS
 62
     7
 10
178.2816312838
 20
-44.7704427437
 30
0.0
  0
VERTEX
  5
84B
  8
0
  6
CONTINUOUS
 62
     7
 10
179.6436093379
 20
-44.2358598605
 30
0.0
  0
VERTEX
  5
84C
  8
0
  6
CONTINUOUS
 62
     7
 10
180.6867323447
 20
-43.8311703996
 30
0.0
  0
SEQEND
  5
A0F
  8
0
  6
CONTINUOUS
 62
     7
  0
ARC
  5
31D
  8
0
  6
CONTINUOUS
 62
     7
 10
175.475390102
 20
-42.9131194393
 30
0.0
 40
4.728233856815004
 50
205.8791163366
 51
229.8550411524
  0
POLYLINE
  5
31E
  8
0
  6
CONTINUOUS
 62
     7
 66
     1
 10
0.0
 20
0.0
 30
0.0
  0
VERTEX
  5
84D
  8
0
  6
CONTINUOUS
 62
     7
 10
178.02403193
 20
-39.521930416
 30
0.0
  0
VERTEX
  5
84E
  8
0
  6
CONTINUOUS
 62
     7
 10
176.7966590453
 20
-40.0744982556
 30
0.0
  0
VERTEX
  5
84F
  8
0
  6
CONTINUOUS
 62
     7
 10
175.6231955815
 20
-40.6854346887
 30
0.0
  0
VERTEX
  5
850
  8
0
  6
CONTINUOUS
 62
     7
 10
174.5374433327
 20
-41.3375422851
 30
0.0
  0
VERTEX
  5
851
  8
0
  6
CONTINUOUS
 62
     7
 10
173.5681168366
 20
-42.0081556336
 30
0.0
  0
VERTEX
  5
852
  8
0
  6
CONTINUOUS
 62
     7
 10
172.7464399863
 20
-42.6701263086
 30
0.0
  0
VERTEX
  5
853
  8
0
  6
CONTINUOUS
 62
     7
 10
172.0846376944
 20
-43.3013931409
 30
0.0
  0
VERTEX
  5
854
  8
0
  6
CONTINUOUS
 62
     7
 10
171.5983532
 20
-43.876950492
 30
0.0
  0
VERTEX
  5
855
  8
0
  6
CONTINUOUS
 62
     7
 10
171.2956122685
 20
-44.3714105085
 30
0.0
  0
VERTEX
  5
856
  8
0
  6
CONTINUOUS
 62
     7
 10
171.1865834523
 20
-44.7185926632
 30
0.0
  0
VERTEX
  5
857
  8
0
  6
CONTINUOUS
 62
     7
 10
171.221318059
 20
-44.9768700198
 30
0.0
  0
SEQEND
  5
A0E
  8
0
  6
CONTINUOUS
 62
     7
  0
ARC
  5
31F
  8
0
  6
CONTINUOUS
 62
     7
 10
206.2466482097
 20
-107.3514699401
 30
0.0
 40
73.46674418894801
 50
67.4086667073
 51
112.5912909408
  0
POLYLINE
  5
320
  8
0
  6
CONTINUOUS
 62
     7
 66
     1
 10
0.0
 20
0.0
 30
0.0
  0
VERTEX
  5
858
  8
0
  6
CONTINUOUS
 62
     7
 10
170.6340722371
 20
-43.9695030943
 30
0.0
  0
VERTEX
  5
859
  8
0
  6
CONTINUOUS
 62
     7
 10
170.6040374566
 20
-43.6669223503
 30
0.0
  0
VERTEX
  5
85A
  8
0
  6
CONTINUOUS
 62
     7
 10
170.763155036
 20
-43.2489671305
 30
0.0
  0
VERTEX
  5
85B
  8
0
  6
CONTINUOUS
 62
     7
 10
171.1125395823
 20
-42.7310973898
 30
0.0
  0
VERTEX
  5
85C
  8
0
  6
CONTINUOUS
 62
     7
 10
171.6445080567
 20
-42.1374917523
 30
0.0
  0
VERTEX
  5
85D
  8
0
  6
CONTINUOUS
 62
     7
 10
172.3521969844
 20
-41.4920427398
 30
0.0
  0
VERTEX
  5
85E
  8
0
  6
CONTINUOUS
 62
     7
 10
173.2168696452
 20
-40.8218503491
 30
0.0
  0
VERTEX
  5
85F
  8
0
  6
CONTINUOUS
 62
     7
 10
174.2156348754
 20
-40.1547424988
 30
0.0
  0
VERTEX
  5
860
  8
0
  6
CONTINUOUS
 62
     7
 10
175.3228209544
 20
-39.5114094511
 30
0.0
  0
VERTEX
  5
861
  8
0
  6
CONTINUOUS
 62
     7
 10
176.3498149443
 20
-38.988798906
 30
0.0
  0
VERTEX
  5
862
  8
0
  6
CONTINUOUS
 62
     7
 10
177.4142108489
 20
-38.5113426045
 30
0.0
  0
SEQEND
  5
A0D
  8
0
  6
CONTINUOUS
 62
     7
  0
POLYLINE
  5
321
  8
0
  6
CONTINUOUS
 62
     7
 66
     1
 10
0.0
 20
0.0
 30
0.0
  0
VERTEX
  5
863
  8
0
  6
CONTINUOUS
 62
     7
 10
235.0791357089
 20
-38.511361976
 30
0.0
  0
VERTEX
  5
864
  8
0
  6
CONTINUOUS
 62
     7
 10
236.3050393391
 20
-39.066975613
 30
0.0
  0
VERTEX
  5
865
  8
0
  6
CONTINUOUS
 62
     7
 10
237.4766729403
 20
-39.6803483859
 30
0.0
  0
VERTEX
  5
866
  8
0
  6
CONTINUOUS
 62
     7
 10
238.5602824021
 20
-40.3341867522
 30
0.0
  0
VERTEX
  5
867
  8
0
  6
CONTINUOUS
 62
     7
 10
239.5272485543
 20
-41.0058290259
 30
0.0
  0
VERTEX
  5
868
  8
0
  6
CONTINUOUS
 62
     7
 10
240.3465978432
 20
-41.668288459
 30
0.0
  0
VERTEX
  5
869
  8
0
  6
CONTINUOUS
 62
     7
 10
241.0059116412
 20
-42.2994174556
 30
0.0
  0
VERTEX
  5
86A
  8
0
  6
CONTINUOUS
 62
     7
 10
241.4895645905
 20
-42.8742483751
 30
0.0
  0
VERTEX
  5
86B
  8
0
  6
CONTINUOUS
 62
     7
 10
241.7896024514
 20
-43.36746936
 30
0.0
  0
VERTEX
  5
86C
  8
0
  6
CONTINUOUS
 62
     7
 10
241.8962441016
 20
-43.7131174401
 30
0.0
  0
VERTEX
  5
86D
  8
0
  6
CONTINUOUS
 62
     7
 10
241.8592206765
 20
-43.969614853
 30
0.0
  0
SEQEND
  5
A0C
  8
0
  6
CONTINUOUS
 62
     7
  0
ARC
  5
322
  8
0
  6
CONTINUOUS
 62
     7
 10
206.2466501719
 20
-107.2960155167
 30
0.0
 40
74.5831132693228
 50
67.2580150351
 51
112.7419464699
  0
POLYLINE
  5
323
  8
0
  6
CONTINUOUS
 62
     7
 66
     1
 10
0.0
 20
0.0
 30
0.0
  0
VERTEX
  5
86E
  8
0
  6
CONTINUOUS
 62
     7
 10
121.2719730664
 20
-44.9769817785
 30
0.0
  0
VERTEX
  5
86F
  8
0
  6
CONTINUOUS
 62
     7
 10
121.2993852425
 20
-44.6724214152
 30
0.0
  0
VERTEX
  5
870
  8
0
  6
CONTINUOUS
 62
     7
 10
121.137546711
 20
-44.2528054611
 30
0.0
  0
VERTEX
  5
871
  8
0
  6
CONTINUOUS
 62
     7
 10
120.7854084302
 20
-43.7336765722
 30
0.0
  0
VERTEX
  5
872
  8
0
  6
CONTINUOUS
 62
     7
 10
120.2506951619
 20
-43.1392997996
 30
0.0
  0
VERTEX
  5
873
  8
0
  6
CONTINUOUS
 62
     7
 10
119.5403568078
 20
-42.4936973051
 30
0.0
  0
VERTEX
  5
874
  8
0
  6
CONTINUOUS
 62
     7
 10
118.67315691
 20
-41.8240122989
 30
0.0
  0
VERTEX
  5
875
  8
0
  6
CONTINUOUS
 62
     7
 10
117.6722518731
 20
-41.1582552389
 30
0.0
  0
VERTEX
  5
876
  8
0
  6
CONTINUOUS
 62
     7
 10
116.5632120896
 20
-40.5169792966
 30
0.0
  0
VERTEX
  5
877
  8
0
  6
CONTINUOUS
 62
     7
 10
115.534823351
 20
-39.9966687456
 30
0.0
  0
VERTEX
  5
878
  8
0
  6
CONTINUOUS
 62
     7
 10
114.4693128396
 20
-39.5219512776
 30
0.0
  0
SEQEND
  5
A0B
  8
0
  6
CONTINUOUS
 62
     7
  0
ARC
  5
324
  8
0
  6
CONTINUOUS
 62
     7
 10
116.9982191034
 20
-42.8994913156
 30
0.0
 40
4.751940609872947
 50
310.0314161953
 51
334.0754110666
  0
POLYLINE
  5
325
  8
0
  6
CONTINUOUS
 62
     7
 66
     1
 10
0.0
 20
0.0
 30
0.0
  0
VERTEX
  5
879
  8
0
  6
CONTINUOUS
 62
     7
 10
111.8065647412
 20
-43.8311703996
 30
0.0
  0
VERTEX
  5
87A
  8
0
  6
CONTINUOUS
 62
     7
 10
113.2078759003
 20
-44.375971754
 30
0.0
  0
VERTEX
  5
87B
  8
0
  6
CONTINUOUS
 62
     7
 10
114.5572416115
 20
-44.906691511
 30
0.0
  0
VERTEX
  5
87C
  8
0
  6
CONTINUOUS
 62
     7
 10
115.8169738579
 20
-45.4040032373
 30
0.0
  0
VERTEX
  5
87D
  8
0
  6
CONTINUOUS
 62
     7
 10
116.9547550011
 20
-45.8474915967
 30
0.0
  0
VERTEX
  5
87E
  8
0
  6
CONTINUOUS
 62
     7
 10
117.9360262681
 20
-46.214739655
 30
0.0
  0
VERTEX
  5
87F
  8
0
  6
CONTINUOUS
 62
     7
 10
118.7438659001
 20
-46.4899082229
 30
0.0
  0
VERTEX
  5
880
  8
0
  6
CONTINUOUS
 62
     7
 10
119.2691795159
 20
-46.6317087904
 30
0.0
  0
SEQEND
  5
A0A
  8
0
  6
CONTINUOUS
 62
     7
  0
ARC
  5
326
  8
0
  6
CONTINUOUS
 62
     7
 10
86.2466476489
 20
-110.1238551796
 30
0.0
 40
71.04948569214042
 50
68.9152735458
 51
111.0847264542
  0
POLYLINE
  5
327
  8
0
  6
CONTINUOUS
 62
     7
 66
     1
 10
0.0
 20
0.0
 30
0.0
  0
VERTEX
  5
881
  8
0
  6
CONTINUOUS
 62
     7
 10
53.2694331933
 20
-46.6253012911
 30
0.0
  0
VERTEX
  5
882
  8
0
  6
CONTINUOUS
 62
     7
 10
53.2726995278
 20
-46.6247588888
 30
0.0
  0
VERTEX
  5
883
  8
0
  6
CONTINUOUS
 62
     7
 10
53.9410344887
 20
-46.4282539234
 30
0.0
  0
VERTEX
  5
884
  8
0
  6
CONTINUOUS
 62
     7
 10
54.7984473038
 20
-46.1268049226
 30
0.0
  0
VERTEX
  5
885
  8
0
  6
CONTINUOUS
 62
     7
 10
55.826663189
 20
-45.7362734274
 30
0.0
  0
VERTEX
  5
886
  8
0
  6
CONTINUOUS
 62
     7
 10
56.9984428216
 20
-45.2770028756
 30
0.0
  0
VERTEX
  5
887
  8
0
  6
CONTINUOUS
 62
     7
 10
58.2816354562
 20
-44.7704427437
 30
0.0
  0
VERTEX
  5
888
  8
0
  6
CONTINUOUS
 62
     7
 10
59.6436135102
 20
-44.2358598605
 30
0.0
  0
VERTEX
  5
889
  8
0
  6
CONTINUOUS
 62
     7
 10
60.6867305566
 20
-43.8311703996
 30
0.0
  0
SEQEND
  5
A09
  8
0
  6
CONTINUOUS
 62
     7
  0
ARC
  5
328
  8
0
  6
CONTINUOUS
 62
     7
 10
55.4754960423
 20
-42.9130578867
 30
0.0
 40
4.728352285342575
 50
205.8792491546
 51
229.8544965553
  0
POLYLINE
  5
329
  8
0
  6
CONTINUOUS
 62
     7
 66
     1
 10
0.0
 20
0.0
 30
0.0
  0
VERTEX
  5
88A
  8
0
  6
CONTINUOUS
 62
     7
 10
58.0240361024
 20
-39.521930416
 30
0.0
  0
VERTEX
  5
88B
  8
0
  6
CONTINUOUS
 62
     7
 10
56.7966572571
 20
-40.0744982556
 30
0.0
  0
VERTEX
  5
88C
  8
0
  6
CONTINUOUS
 62
     7
 10
55.6231967736
 20
-40.6854346887
 30
0.0
  0
VERTEX
  5
88D
  8
0
  6
CONTINUOUS
 62
     7
 10
54.5374385644
 20
-41.3375422851
 30
0.0
  0
VERTEX
  5
88E
  8
0
  6
CONTINUOUS
 62
     7
 10
53.5681120682
 20
-42.0081556336
 30
0.0
  0
VERTEX
  5
88F
  8
0
  6
CONTINUOUS
 62
     7
 10
52.7464381982
 20
-42.6701263086
 30
0.0
  0
VERTEX
  5
890
  8
0
  6
CONTINUOUS
 62
     7
 10
52.0846359063
 20
-43.3013931409
 30
0.0
  0
VERTEX
  5
891
  8
0
  6
CONTINUOUS
 62
     7
 10
51.5983573723
 20
-43.876950492
 30
0.0
  0
VERTEX
  5
892
  8
0
  6
CONTINUOUS
 62
     7
 10
51.2956134606
 20
-44.3714105085
 30
0.0
  0
VERTEX
  5
893
  8
0
  6
CONTINUOUS
 62
     7
 10
51.1865846444
 20
-44.7185926632
 30
0.0
  0
VERTEX
  5
894
  8
0
  6
CONTINUOUS
 62
     7
 10
51.2213222314
 20
-44.9768700198
 30
0.0
  0
SEQEND
  5
A08
  8
0
  6
CONTINUOUS
 62
     7
  0
ARC
  5
32A
  8
0
  6
CONTINUOUS
 62
     7
 10
86.2466494018
 20
-107.3514441689
 30
0.0
 40
73.46671925029354
 50
67.4086611322
 51
112.5912965159
  0
POLYLINE
  5
32B
  8
0
  6
CONTINUOUS
 62
     7
 66
     1
 10
0.0
 20
0.0
 30
0.0
  0
VERTEX
  5
895
  8
0
  6
CONTINUOUS
 62
     7
 10
50.6340734292
 20
-43.9695030943
 30
0.0
  0
VERTEX
  5
896
  8
0
  6
CONTINUOUS
 62
     7
 10
50.6040326882
 20
-43.6669223503
 30
0.0
  0
VERTEX
  5
897
  8
0
  6
CONTINUOUS
 62
     7
 10
50.7631532479
 20
-43.2489671305
 30
0.0
  0
VERTEX
  5
898
  8
0
  6
CONTINUOUS
 62
     7
 10
51.1125437546
 20
-42.7310973898
 30
0.0
  0
VERTEX
  5
899
  8
0
  6
CONTINUOUS
 62
     7
 10
51.6445032883
 20
-42.1374917523
 30
0.0
  0
VERTEX
  5
89A
  8
0
  6
CONTINUOUS
 62
     7
 10
52.3522011567
 20
-41.4920427398
 30
0.0
  0
VERTEX
  5
89B
  8
0
  6
CONTINUOUS
 62
     7
 10
53.2168738175
 20
-40.8218503491
 30
0.0
  0
VERTEX
  5
89C
  8
0
  6
CONTINUOUS
 62
     7
 10
54.2156330872
 20
-40.1547424988
 30
0.0
  0
VERTEX
  5
89D
  8
0
  6
CONTINUOUS
 62
     7
 10
55.3228251267
 20
-39.5114094511
 30
0.0
  0
VERTEX
  5
89E
  8
0
  6
CONTINUOUS
 62
     7
 10
56.3498131562
 20
-38.988798906
 30
0.0
  0
VERTEX
  5
89F
  8
0
  6
CONTINUOUS
 62
     7
 10
57.4142090607
 20
-38.5113426045
 30
0.0
  0
SEQEND
  5
A07
  8
0
  6
CONTINUOUS
 62
     7
  0
POLYLINE
  5
32C
  8
0
  6
CONTINUOUS
 62
     7
 66
     1
 10
0.0
 20
0.0
 30
0.0
  0
VERTEX
  5
8A0
  8
0
  6
CONTINUOUS
 62
     7
 10
115.0791339207
 20
-38.511361976
 30
0.0
  0
VERTEX
  5
8A1
  8
0
  6
CONTINUOUS
 62
     7
 10
116.3050405312
 20
-39.066975613
 30
0.0
  0
VERTEX
  5
8A2
  8
0
  6
CONTINUOUS
 62
     7
 10
117.4766711522
 20
-39.6803483859
 30
0.0
  0
VERTEX
  5
8A3
  8
0
  6
CONTINUOUS
 62
     7
 10
118.5602835942
 20
-40.3341867522
 30
0.0
  0
VERTEX
  5
8A4
  8
0
  6
CONTINUOUS
 62
     7
 10
119.5272497464
 20
-41.0058290259
 30
0.0
  0
VERTEX
  5
8A5
  8
0
  6
CONTINUOUS
 62
     7
 10
120.3465990353
 20
-41.668288459
 30
0.0
  0
VERTEX
  5
8A6
  8
0
  6
CONTINUOUS
 62
     7
 10
121.005909853
 20
-42.2994174556
 30
0.0
  0
VERTEX
  5
8A7
  8
0
  6
CONTINUOUS
 62
     7
 10
121.4895657826
 20
-42.8742483751
 30
0.0
  0
VERTEX
  5
8A8
  8
0
  6
CONTINUOUS
 62
     7
 10
121.7896036435
 20
-43.36746936
 30
0.0
  0
VERTEX
  5
8A9
  8
0
  6
CONTINUOUS
 62
     7
 10
121.8962423135
 20
-43.7131174401
 30
0.0
  0
VERTEX
  5
8AA
  8
0
  6
CONTINUOUS
 62
     7
 10
121.8592218686
 20
-43.969614853
 30
0.0
  0
SEQEND
  5
A06
  8
0
  6
CONTINUOUS
 62
     7
  0
ARC
  5
32D
  8
0
  6
CONTINUOUS
 62
     7
 10
86.2466483837
 20
-107.2960084533
 30
0.0
 40
74.58310675512385
 50
67.2580129375
 51
112.7419485675
  0
ARC
  5
32E
  8
0
  6
CONTINUOUS
 62
     7
 10
221.8179497235
 20
-34.3565733674
 30
0.0
 40
1.001325577889847
 50
30.2903213797
 51
90.0801256805
  0
LINE
  5
32F
  8
0
  6
CONTINUOUS
 62
     7
 10
190.6767494608
 20
-33.3552487687
 30
0.0
 11
196.6670564938
 21
-33.3552487687
 31
0.0
  0
LINE
  5
330
  8
0
  6
CONTINUOUS
 62
     7
 10
215.8262423802
 20
-33.3552487687
 30
0.0
 11
221.8165494133
 21
-33.3552487687
 31
0.0
  0
ARC
  5
331
  8
0
  6
CONTINUOUS
 62
     7
 10
190.6753491505
 20
-34.3565733674
 30
0.0
 40
1.001325577889711
 50
89.9198743195
 51
149.7096786203
  0
LINE
  5
332
  8
0
  6
CONTINUOUS
 62
     7
 10
189.3277920414
 20
-34.6817486481
 30
0.0
 11
189.8107237745
 21
-33.8515230016
 31
0.0
  0
LINE
  5
333
  8
0
  6
CONTINUOUS
 62
     7
 10
188.526030593
 20
-34.8690353826
 30
0.0
 11
189.4643135
 21
-33.2559951142
 31
0.0
  0
ARC
  5
334
  8
0
  6
CONTINUOUS
 62
     7
 10
190.328938876
 20
-33.7610454801
 30
0.0
 40
1.001325577889832
 50
89.9198743195
 51
149.7096786203
  0
LINE
  5
335
  8
0
  6
CONTINUOUS
 62
     7
 10
190.3303391863
 20
-32.7597208814
 30
0.0
 11
203.4488942105
 21
-32.7597208814
 31
0.0
  0
ARC
  5
336
  8
0
  6
CONTINUOUS
 62
     7
 10
204.2344036301
 20
-32.1608608766
 30
0.0
 40
0.9877541969110553
 50
180.0217080282
 51
217.3213262934
  0
LINE
  5
337
  8
0
  6
CONTINUOUS
 62
     7
 10
203.2466495041
 20
-32.1612351135
 30
0.0
 11
203.2466495041
 21
-28.1910501913
 31
0.0
  0
ARC
  5
338
  8
0
  6
CONTINUOUS
 62
     7
 10
204.2429377387
 20
-28.1947915611
 30
0.0
 40
0.9962952596054582
 50
89.7865414901
 51
179.7848376744
  0
LINE
  5
339
  8
0
  6
CONTINUOUS
 62
     7
 10
208.2466493923
 20
-27.1985032157
 30
0.0
 11
204.2466494817
 21
-27.1985032157
 31
0.0
  0
ARC
  5
33A
  8
0
  6
CONTINUOUS
 62
     7
 10
208.2503611353
 20
-28.1947915611
 30
0.0
 40
0.9962952596054011
 50
0.2151623256
 51
90.2134585099
  0
LINE
  5
33B
  8
0
  6
CONTINUOUS
 62
     7
 10
209.24664937
 20
-32.1612351135
 30
0.0
 11
209.24664937
 21
-28.1910501913
 31
0.0
  0
ARC
  5
33C
  8
0
  6
CONTINUOUS
 62
     7
 10
208.2588952439
 20
-32.1608608766
 30
0.0
 40
0.9877541969109626
 50
322.6786737066
 51
359.9782919718
  0
LINE
  5
33D
  8
0
  6
CONTINUOUS
 62
     7
 10
209.0444046635
 20
-32.7597208814
 30
0.0
 11
222.1629596878
 21
-32.7597208814
 31
0.0
  0
ARC
  5
33E
  8
0
  6
CONTINUOUS
 62
     7
 10
222.164359998
 20
-33.7610454801
 30
0.0
 40
1.001325577889768
 50
30.2903213797
 51
90.0801256805
  0
LINE
  5
33F
  8
0
  6
CONTINUOUS
 62
     7
 10
223.028985374
 20
-33.2559951142
 30
0.0
 11
223.967268281
 21
-34.8690353826
 31
0.0
  0
LINE
  5
340
  8
0
  6
CONTINUOUS
 62
     7
 10
222.6825750995
 20
-33.8515230016
 30
0.0
 11
223.1655068327
 21
-34.6817486481
 31
0.0
  0
ARC
  5
341
  8
0
  6
CONTINUOUS
 62
     7
 10
221.8179528251
 20
-35.0877858425
 30
0.0
 40
1.001321686253604
 50
30.2902920238
 51
90.0803034654
  0
ARC
  5
342
  8
0
  6
CONTINUOUS
 62
     7
 10
190.6753460489
 20
-35.0877858425
 30
0.0
 40
1.001321686253474
 50
89.9196965346
 51
149.7097079762
  0
LINE
  5
343
  8
0
  6
CONTINUOUS
 62
     7
 10
190.6767494608
 20
-34.0864651398
 30
0.0
 11
192.0952908326
 21
-34.0864651398
 31
0.0
  0
LINE
  5
344
  8
0
  6
CONTINUOUS
 62
     7
 10
220.3980080414
 20
-34.0864651398
 30
0.0
 11
221.8165494133
 21
-34.0864651398
 31
0.0
  0
LINE
  5
345
  8
0
  6
CONTINUOUS
 62
     7
 10
203.2466495041
 20
-32.7597208814
 30
0.0
 11
203.2466495041
 21
-32.1612351135
 31
0.0
  0
LINE
  5
346
  8
0
  6
CONTINUOUS
 62
     7
 10
209.24664937
 20
-32.1612351135
 30
0.0
 11
209.24664937
 21
-32.7597208814
 31
0.0
  0
LINE
  5
347
  8
0
  6
CONTINUOUS
 62
     7
 10
209.24664937
 20
-39.1655140117
 30
0.0
 11
209.24664937
 21
-44.3694822983
 31
0.0
  0
LINE
  5
348
  8
0
  6
CONTINUOUS
 62
     7
 10
203.2466495041
 20
-44.3694822983
 30
0.0
 11
203.2466495041
 21
-39.1655140117
 31
0.0
  0
ARC
  5
349
  8
0
  6
CONTINUOUS
 62
     7
 10
204.246649437
 20
-44.8564507202
 30
0.0
 40
1.0
 50
180.0
 51
270.0
  0
LINE
  5
34A
  8
0
  6
CONTINUOUS
 62
     7
 10
203.2466495041
 20
-44.856450756
 30
0.0
 11
203.2466495041
 21
-44.3694822983
 31
0.0
  0
LINE
  5
34B
  8
0
  6
CONTINUOUS
 62
     7
 10
208.2466493923
 20
-45.8564505473
 30
0.0
 11
204.2466494817
 21
-45.8564505473
 31
0.0
  0
ARC
  5
34C
  8
0
  6
CONTINUOUS
 62
     7
 10
208.246649437
 20
-44.8564507202
 30
0.0
 40
1.0
 50
270.0
 51
0.0
  0
LINE
  5
34D
  8
0
  6
CONTINUOUS
 62
     7
 10
209.24664937
 20
-44.3694822983
 30
0.0
 11
209.24664937
 21
-44.856450756
 31
0.0
  0
LINE
  5
34E
  8
0
  6
CONTINUOUS
 62
     7
 10
209.24664937
 20
-45.8564505473
 30
0.0
 11
224.2466501523
 21
-45.8564505473
 31
0.0
  0
LINE
  5
34F
  8
0
  6
CONTINUOUS
 62
     7
 10
224.2466501523
 20
-45.8564505473
 30
0.0
 11
224.2466501523
 21
-46.8564507113
 31
0.0
  0
LINE
  5
350
  8
0
  6
CONTINUOUS
 62
     7
 10
224.2466501523
 20
-56.0564507291
 30
0.0
 11
224.2466501523
 21
-52.4981637978
 31
0.0
  0
LINE
  5
351
  8
0
  6
CONTINUOUS
 62
     7
 10
224.2466501523
 20
-47.6991229252
 30
0.0
 11
224.2466501523
 21
-46.8564507113
 31
0.0
  0
LINE
  5
352
  8
0
  6
CONTINUOUS
 62
     7
 10
188.2466487218
 20
-56.0564507291
 30
0.0
 11
188.2466487218
 21
-52.490160291
 31
0.0
  0
LINE
  5
353
  8
0
  6
CONTINUOUS
 62
     7
 10
188.2466487218
 20
-47.6987943546
 30
0.0
 11
188.2466487218
 21
-46.8564507113
 31
0.0
  0
LINE
  5
354
  8
0
  6
CONTINUOUS
 62
     7
 10
203.2466495041
 20
-46.8564507113
 30
0.0
 11
203.2466495041
 21
-44.856450756
 31
0.0
  0
LINE
  5
355
  8
0
  6
CONTINUOUS
 62
     7
 10
209.24664937
 20
-44.856450756
 30
0.0
 11
209.24664937
 21
-46.8564507113
 31
0.0
  0
LINE
  5
356
  8
0
  6
CONTINUOUS
 62
     7
 10
188.2466487218
 20
-46.8564507113
 30
0.0
 11
188.2466487218
 21
-45.8564505473
 31
0.0
  0
LINE
  5
357
  8
0
  6
CONTINUOUS
 62
     7
 10
188.2466487218
 20
-45.8564505473
 30
0.0
 11
203.2466495041
 21
-45.8564505473
 31
0.0
  0
LINE
  5
358
  8
0
  6
CONTINUOUS
 62
     7
 10
224.2466501523
 20
-57.0564508931
 30
0.0
 11
188.2466487218
 21
-57.0564508931
 31
0.0
  0
LINE
  5
359
  8
0
  6
CONTINUOUS
 62
     7
 10
224.2466501523
 20
-56.0564507291
 30
0.0
 11
224.2466501523
 21
-57.0564508931
 31
0.0
  0
LINE
  5
35A
  8
0
  6
CONTINUOUS
 62
     7
 10
188.2466487218
 20
-57.0564508931
 30
0.0
 11
188.2466487218
 21
-56.0564507291
 31
0.0
  0
ARC
  5
35B
  8
0
  6
CONTINUOUS
 62
     7
 10
101.8179484038
 20
-34.3565803343
 30
0.0
 40
1.001332547433162
 50
30.2905500975
 51
90.0802371884
  0
LINE
  5
35C
  8
0
  6
CONTINUOUS
 62
     7
 10
70.6767432023
 20
-33.3552487687
 30
0.0
 11
76.6670576859
 21
-33.3552487687
 31
0.0
  0
LINE
  5
35D
  8
0
  6
CONTINUOUS
 62
     7
 10
95.8262435723
 20
-33.3552487687
 30
0.0
 11
101.816546135
 21
-33.3552487687
 31
0.0
  0
ARC
  5
35E
  8
0
  6
CONTINUOUS
 62
     7
 10
70.6753454154
 20
-34.3565673864
 30
0.0
 40
1.001319593307524
 50
89.9200182297
 51
149.7098749392
  0
LINE
  5
35F
  8
0
  6
CONTINUOUS
 62
     7
 10
69.3277947236
 20
-34.6817486481
 30
0.0
 11
69.8107234765
 21
-33.8515230016
 31
0.0
  0
LINE
  5
360
  8
0
  6
CONTINUOUS
 62
     7
 10
68.5260288048
 20
-34.8690353826
 30
0.0
 11
69.464313202
 21
-33.2559951142
 31
0.0
  0
ARC
  5
361
  8
0
  6
CONTINUOUS
 62
     7
 10
70.3289351409
 20
-33.761039499
 30
0.0
 40
1.001319593307637
 50
89.9200182297
 51
149.7098749392
  0
LINE
  5
362
  8
0
  6
CONTINUOUS
 62
     7
 10
70.3303329278
 20
-32.7597208814
 30
0.0
 11
83.4488980103
 21
-32.7597208814
 31
0.0
  0
ARC
  5
363
  8
0
  6
CONTINUOUS
 62
     7
 10
84.2344321901
 20
-32.1608429793
 30
0.0
 40
0.987784738299551
 50
180.0227454777
 51
217.3212811101
  0
LINE
  5
364
  8
0
  6
CONTINUOUS
 62
     7
 10
83.2466475297
 20
-32.1612351135
 30
0.0
 11
83.2466475297
 21
-28.1910501913
 31
0.0
  0
ARC
  5
365
  8
0
  6
CONTINUOUS
 62
     7
 10
84.2429434609
 20
-28.194799319
 30
0.0
 40
0.9963029853185005
 50
89.787039327
 51
179.784393197
  0
LINE
  5
366
  8
0
  6
CONTINUOUS
 62
     7
 10
88.2466546822
 20
-27.1985032157
 30
0.0
 11
84.246646576
 21
-27.1985032157
 31
0.0
  0
ARC
  5
367
  8
0
  6
CONTINUOUS
 62
     7
 10
88.250352859
 20
-28.1948042944
 30
0.0
 40
0.9963079423291976
 50
0.2158918575
 51
90.2126756186
  0
LINE
  5
368
  8
0
  6
CONTINUOUS
 62
     7
 10
89.2466537286
 20
-32.1612351135
 30
0.0
 11
89.2466537286
 21
-28.1910501913
 31
0.0
  0
ARC
  5
369
  8
0
  6
CONTINUOUS
 62
     7
 10
88.2588690681
 20
-32.1608429793
 30
0.0
 40
0.9877847382995735
 50
322.6787188899
 51
359.9772545223
  0
LINE
  5
36A
  8
0
  6
CONTINUOUS
 62
     7
 10
89.0444032479
 20
-32.7597208814
 30
0.0
 11
102.1629564095
 21
-32.7597208814
 31
0.0
  0
ARC
  5
36B
  8
0
  6
CONTINUOUS
 62
     7
 10
102.1643586783
 20
-33.7610524469
 30
0.0
 40
1.001332547433212
 50
30.2905500975
 51
90.0802371884
  0
LINE
  5
36C
  8
0
  6
CONTINUOUS
 62
     7
 10
103.0289880562
 20
-33.2559951142
 30
0.0
 11
103.9672724534
 21
-34.8690353826
 31
0.0
  0
LINE
  5
36D
  8
0
  6
CONTINUOUS
 62
     7
 10
102.6825777817
 20
-33.8515230016
 30
0.0
 11
103.1655065346
 21
-34.6817486481
 31
0.0
  0
ARC
  5
36E
  8
0
  6
CONTINUOUS
 62
     7
 10
70.6753423138
 20
-35.0877798614
 30
0.0
 40
1.001315701579107
 50
89.9198404409
 51
149.7099042986
  0
ARC
  5
36F
  8
0
  6
CONTINUOUS
 62
     7
 10
101.8179515052
 20
-35.0877928095
 30
0.0
 40
1.00132865599108
 50
30.2905207486
 51
90.0804149658
  0
LINE
  5
370
  8
0
  6
CONTINUOUS
 62
     7
 10
70.6767432023
 20
-34.0864651398
 30
0.0
 11
72.0952860642
 21
-34.0864651398
 31
0.0
  0
LINE
  5
371
  8
0
  6
CONTINUOUS
 62
     7
 10
100.3980032731
 20
-34.0864651398
 30
0.0
 11
101.816546135
 21
-34.0864651398
 31
0.0
  0
LINE
  5
372
  8
0
  6
CONTINUOUS
 62
     7
 10
83.2466475297
 20
-32.7597208814
 30
0.0
 11
83.2466475297
 21
-32.1612351135
 31
0.0
  0
LINE
  5
373
  8
0
  6
CONTINUOUS
 62
     7
 10
89.2466537286
 20
-32.1612351135
 30
0.0
 11
89.2466537286
 21
-32.7597208814
 31
0.0
  0
LINE
  5
374
  8
0
  6
CONTINUOUS
 62
     7
 10
89.2466537286
 20
-39.1655140117
 30
0.0
 11
89.2466537286
 21
-44.3694822983
 31
0.0
  0
LINE
  5
375
  8
0
  6
CONTINUOUS
 62
     7
 10
83.2466475297
 20
-44.3694822983
 30
0.0
 11
83.2466475297
 21
-39.1655140117
 31
0.0
  0
ARC
  5
376
  8
0
  6
CONTINUOUS
 62
     7
 10
84.246649437
 20
-44.8564507202
 30
0.0
 40
1.000000000000014
 50
180.0
 51
270.0
  0
LINE
  5
377
  8
0
  6
CONTINUOUS
 62
     7
 10
83.2466475297
 20
-44.856450756
 30
0.0
 11
83.2466475297
 21
-44.3694822983
 31
0.0
  0
ARC
  5
378
  8
0
  6
CONTINUOUS
 62
     7
 10
88.246649437
 20
-44.8564507202
 30
0.0
 40
1.0
 50
270.0
 51
0.0
  0
LINE
  5
379
  8
0
  6
CONTINUOUS
 62
     7
 10
89.2466537286
 20
-44.3694822983
 30
0.0
 11
89.2466537286
 21
-44.856450756
 31
0.0
  0
LINE
  5
37A
  8
0
  6
CONTINUOUS
 62
     7
 10
88.2466546822
 20
-45.8564505473
 30
0.0
 11
84.246646576
 21
-45.8564505473
 31
0.0
  0
LINE
  5
37B
  8
0
  6
CONTINUOUS
 62
     7
 10
68.2466499139
 20
-56.0564507291
 30
0.0
 11
68.2466499139
 21
-52.490160291
 31
0.0
  0
LINE
  5
37C
  8
0
  6
CONTINUOUS
 62
     7
 10
68.2466499139
 20
-47.6987943546
 30
0.0
 11
68.2466499139
 21
-46.8564507113
 31
0.0
  0
LINE
  5
37D
  8
0
  6
CONTINUOUS
 62
     7
 10
104.2466513444
 20
-56.0564507291
 30
0.0
 11
104.2466513444
 21
-52.4981637978
 31
0.0
  0
LINE
  5
37E
  8
0
  6
CONTINUOUS
 62
     7
 10
104.2466513444
 20
-47.6991229252
 30
0.0
 11
104.2466513444
 21
-46.8564507113
 31
0.0
  0
LINE
  5
37F
  8
0
  6
CONTINUOUS
 62
     7
 10
89.2466537286
 20
-44.856450756
 30
0.0
 11
89.2466537286
 21
-46.8564507113
 31
0.0
  0
LINE
  5
380
  8
0
  6
CONTINUOUS
 62
     7
 10
83.2466475297
 20
-46.8564507113
 30
0.0
 11
83.2466475297
 21
-44.856450756
 31
0.0
  0
LINE
  5
381
  8
0
  6
CONTINUOUS
 62
     7
 10
68.2466499139
 20
-46.8564507113
 30
0.0
 11
68.2466499139
 21
-45.8564505473
 31
0.0
  0
LINE
  5
382
  8
0
  6
CONTINUOUS
 62
     7
 10
68.2466499139
 20
-45.8564505473
 30
0.0
 11
83.2466475297
 21
-45.8564505473
 31
0.0
  0
LINE
  5
383
  8
0
  6
CONTINUOUS
 62
     7
 10
89.2466537286
 20
-45.8564505473
 30
0.0
 11
104.2466513444
 21
-45.8564505473
 31
0.0
  0
LINE
  5
384
  8
0
  6
CONTINUOUS
 62
     7
 10
104.2466513444
 20
-45.8564505473
 30
0.0
 11
104.2466513444
 21
-46.8564507113
 31
0.0
  0
LINE
  5
385
  8
0
  6
CONTINUOUS
 62
     7
 10
104.2466513444
 20
-57.0564508931
 30
0.0
 11
68.2466499139
 21
-57.0564508931
 31
0.0
  0
LINE
  5
386
  8
0
  6
CONTINUOUS
 62
     7
 10
68.2466499139
 20
-57.0564508931
 30
0.0
 11
68.2466499139
 21
-56.0564507291
 31
0.0
  0
LINE
  5
387
  8
0
  6
CONTINUOUS
 62
     7
 10
104.2466513444
 20
-56.0564507291
 30
0.0
 11
104.2466513444
 21
-57.0564508931
 31
0.0
  0
ARC
  5
388
  8
0
  6
CONTINUOUS
 62
     7
 10
341.8179534586
 20
-34.3565673864
 30
0.0
 40
1.00131959330755
 50
30.2901250608
 51
90.0799817703
  0
LINE
  5
389
  8
0
  6
CONTINUOUS
 62
     7
 10
310.676752739
 20
-33.3552487687
 30
0.0
 11
316.6670553017
 21
-33.3552487687
 31
0.0
  0
LINE
  5
38A
  8
0
  6
CONTINUOUS
 62
     7
 10
335.8262411881
 20
-33.3552487687
 30
0.0
 11
341.8165556718
 21
-33.3552487687
 31
0.0
  0
ARC
  5
38B
  8
0
  6
CONTINUOUS
 62
     7
 10
310.6753504703
 20
-34.3565803343
 30
0.0
 40
1.001332547433162
 50
89.9197628116
 51
149.7094499025
  0
LINE
  5
38C
  8
0
  6
CONTINUOUS
 62
     7
 10
309.3277923394
 20
-34.6817486481
 30
0.0
 11
309.8107210923
 21
-33.8515230016
 31
0.0
  0
LINE
  5
38D
  8
0
  6
CONTINUOUS
 62
     7
 10
308.5260264207
 20
-34.8690353826
 30
0.0
 11
309.4643108178
 21
-33.2559951142
 31
0.0
  0
ARC
  5
38E
  8
0
  6
CONTINUOUS
 62
     7
 10
310.3289401957
 20
-33.7610524469
 30
0.0
 40
1.001332547433376
 50
89.9197628116
 51
149.7094499025
  0
LINE
  5
38F
  8
0
  6
CONTINUOUS
 62
     7
 10
310.3303424645
 20
-32.7597208814
 30
0.0
 11
323.4488956261
 21
-32.7597208814
 31
0.0
  0
ARC
  5
390
  8
0
  6
CONTINUOUS
 62
     7
 10
324.2344298059
 20
-32.1608429793
 30
0.0
 40
0.9877847382991903
 50
180.0227454777
 51
217.3212811101
  0
LINE
  5
391
  8
0
  6
CONTINUOUS
 62
     7
 10
323.2466451455
 20
-32.1612351135
 30
0.0
 11
323.2466451455
 21
-28.1910501913
 31
0.0
  0
ARC
  5
392
  8
0
  6
CONTINUOUS
 62
     7
 10
324.242946015
 20
-28.1948042944
 30
0.0
 40
0.9963079423291263
 50
89.7873243814
 51
179.7841081426
  0
LINE
  5
393
  8
0
  6
CONTINUOUS
 62
     7
 10
328.246652298
 20
-27.1985032157
 30
0.0
 11
324.2466441918
 21
-27.1985032157
 31
0.0
  0
ARC
  5
394
  8
0
  6
CONTINUOUS
 62
     7
 10
328.2503554131
 20
-28.194799319
 30
0.0
 40
0.9963029853185121
 50
0.215606803
 51
90.212960673
  0
LINE
  5
395
  8
0
  6
CONTINUOUS
 62
     7
 10
329.2466513444
 20
-32.1612351135
 30
0.0
 11
329.2466513444
 21
-28.1910501913
 31
0.0
  0
ARC
  5
396
  8
0
  6
CONTINUOUS
 62
     7
 10
328.2588666839
 20
-32.1608429793
 30
0.0
 40
0.9877847382995735
 50
322.6787188899
 51
359.9772545223
  0
LINE
  5
397
  8
0
  6
CONTINUOUS
 62
     7
 10
329.0444008637
 20
-32.7597208814
 30
0.0
 11
342.1629659463
 21
-32.7597208814
 31
0.0
  0
ARC
  5
398
  8
0
  6
CONTINUOUS
 62
     7
 10
342.1643637331
 20
-33.761039499
 30
0.0
 40
1.001319593307596
 50
30.2901250608
 51
90.0799817703
  0
LINE
  5
399
  8
0
  6
CONTINUOUS
 62
     7
 10
343.0289856721
 20
-33.2559951142
 30
0.0
 11
343.9672700692
 21
-34.8690353826
 31
0.0
  0
LINE
  5
39A
  8
0
  6
CONTINUOUS
 62
     7
 10
342.6825753976
 20
-33.8515230016
 30
0.0
 11
343.1655041505
 21
-34.6817486481
 31
0.0
  0
ARC
  5
39B
  8
0
  6
CONTINUOUS
 62
     7
 10
310.6753473688
 20
-35.0877928095
 30
0.0
 40
1.00132865599108
 50
89.9195850342
 51
149.7094792514
  0
ARC
  5
39C
  8
0
  6
CONTINUOUS
 62
     7
 10
341.8179565603
 20
-35.0877798614
 30
0.0
 40
1.001315701579137
 50
30.2900957014
 51
90.0801595591
  0
LINE
  5
39D
  8
0
  6
CONTINUOUS
 62
     7
 10
310.676752739
 20
-34.0864651398
 30
0.0
 11
312.095295601
 21
-34.0864651398
 31
0.0
  0
LINE
  5
39E
  8
0
  6
CONTINUOUS
 62
     7
 10
340.3980128098
 20
-34.0864651398
 30
0.0
 11
341.8165556718
 21
-34.0864651398
 31
0.0
  0
LINE
  5
39F
  8
0
  6
CONTINUOUS
 62
     7
 10
329.2466513444
 20
-32.1612351135
 30
0.0
 11
329.2466513444
 21
-32.7597208814
 31
0.0
  0
LINE
  5
3A0
  8
0
  6
CONTINUOUS
 62
     7
 10
323.2466451455
 20
-32.7597208814
 30
0.0
 11
323.2466451455
 21
-32.1612351135
 31
0.0
  0
LINE
  5
3A1
  8
0
  6
CONTINUOUS
 62
     7
 10
329.2466513444
 20
-39.1655140117
 30
0.0
 11
329.2466513444
 21
-44.3694822983
 31
0.0
  0
LINE
  5
3A2
  8
0
  6
CONTINUOUS
 62
     7
 10
323.2466451455
 20
-44.3694822983
 30
0.0
 11
323.2466451455
 21
-39.1655140117
 31
0.0
  0
LINE
  5
3A3
  8
0
  6
CONTINUOUS
 62
     7
 10
328.246652298
 20
-45.8564505473
 30
0.0
 11
324.2466441918
 21
-45.8564505473
 31
0.0
  0
ARC
  5
3A4
  8
0
  6
CONTINUOUS
 62
     7
 10
328.246649437
 20
-44.8564507202
 30
0.0
 40
1.0
 50
270.0
 51
0.0
  0
LINE
  5
3A5
  8
0
  6
CONTINUOUS
 62
     7
 10
329.2466513444
 20
-44.3694822983
 30
0.0
 11
329.2466513444
 21
-44.856450756
 31
0.0
  0
ARC
  5
3A6
  8
0
  6
CONTINUOUS
 62
     7
 10
324.246649437
 20
-44.8564507202
 30
0.0
 40
1.0
 50
180.0
 51
270.0
  0
LINE
  5
3A7
  8
0
  6
CONTINUOUS
 62
     7
 10
323.2466451455
 20
-44.856450756
 30
0.0
 11
323.2466451455
 21
-44.3694822983
 31
0.0
  0
LINE
  5
3A8
  8
0
  6
CONTINUOUS
 62
     7
 10
308.2466475297
 20
-56.0564507291
 30
0.0
 11
308.2466475297
 21
-46.8564507113
 31
0.0
  0
LINE
  5
3A9
  8
0
  6
CONTINUOUS
 62
     7
 10
344.2466489602
 20
-56.0564507291
 30
0.0
 11
344.2466489602
 21
-46.8564507113
 31
0.0
  0
LINE
  5
3AA
  8
0
  6
CONTINUOUS
 62
     7
 10
323.2466451455
 20
-46.8564507113
 30
0.0
 11
323.2466451455
 21
-44.856450756
 31
0.0
  0
LINE
  5
3AB
  8
0
  6
CONTINUOUS
 62
     7
 10
329.2466513444
 20
-44.856450756
 30
0.0
 11
329.2466513444
 21
-46.8564507113
 31
0.0
  0
LINE
  5
3AC
  8
0
  6
CONTINUOUS
 62
     7
 10
329.2466513444
 20
-45.8564505473
 30
0.0
 11
344.2466489602
 21
-45.8564505473
 31
0.0
  0
LINE
  5
3AD
  8
0
  6
CONTINUOUS
 62
     7
 10
344.2466489602
 20
-45.8564505473
 30
0.0
 11
344.2466489602
 21
-46.8564507113
 31
0.0
  0
LINE
  5
3AE
  8
0
  6
CONTINUOUS
 62
     7
 10
308.2466475297
 20
-45.8564505473
 30
0.0
 11
323.2466451455
 21
-45.8564505473
 31
0.0
  0
LINE
  5
3AF
  8
0
  6
CONTINUOUS
 62
     7
 10
308.2466475297
 20
-46.8564507113
 30
0.0
 11
308.2466475297
 21
-45.8564505473
 31
0.0
  0
LINE
  5
3B0
  8
0
  6
CONTINUOUS
 62
     7
 10
344.2466489602
 20
-57.0564508931
 30
0.0
 11
339.889740162
 21
-57.0564508931
 31
0.0
  0
LINE
  5
3B1
  8
0
  6
CONTINUOUS
 62
     7
 10
312.7268544961
 20
-57.0564508931
 30
0.0
 11
308.2466475297
 21
-57.0564508931
 31
0.0
  0
LINE
  5
3B2
  8
0
  6
CONTINUOUS
 62
     7
 10
308.2466475297
 20
-57.0564508931
 30
0.0
 11
308.2466475297
 21
-56.0564507291
 31
0.0
  0
LINE
  5
3B3
  8
0
  6
CONTINUOUS
 62
     7
 10
344.2466489602
 20
-56.0564507291
 30
0.0
 11
344.2466489602
 21
-57.0564508931
 31
0.0
  0
POLYLINE
  5
3B4
  8
0
  6
CONTINUOUS
 62
     7
 66
     1
 10
0.0
 20
0.0
 30
0.0
  0
VERTEX
  5
8AB
  8
0
  6
CONTINUOUS
 62
     7
 10
48.646580391
 20
-47.6173989967
 30
0.0
  0
VERTEX
  5
8AC
  8
0
  6
CONTINUOUS
 62
     7
 10
48.6466161538
 20
-47.450462778
 30
0.0
  0
VERTEX
  5
8AD
  8
0
  6
CONTINUOUS
 62
     7
 10
48.646747284
 20
-47.3386824623
 30
0.0
  0
VERTEX
  5
8AE
  8
0
  6
CONTINUOUS
 62
     7
 10
48.6471883584
 20
-47.2411145017
 30
0.0
  0
VERTEX
  5
8AF
  8
0
  6
CONTINUOUS
 62
     7
 10
48.6473790932
 20
-47.2470112637
 30
0.0
  0
SEQEND
  5
A05
  8
0
  6
CONTINUOUS
 62
     7
  0
POLYLINE
  5
3B5
  8
0
  6
CONTINUOUS
 62
     7
 66
     1
 10
0.0
 20
0.0
 30
0.0
  0
VERTEX
  5
8B0
  8
0
  6
CONTINUOUS
 62
     7
 10
54.7341458131
 20
-51.1471233357
 30
0.0
  0
VERTEX
  5
8B1
  8
0
  6
CONTINUOUS
 62
     7
 10
53.6314360429
 20
-50.9410424185
 30
0.0
  0
VERTEX
  5
8B2
  8
0
  6
CONTINUOUS
 62
     7
 10
52.5628678132
 20
-50.5996767924
 30
0.0
  0
VERTEX
  5
8B3
  8
0
  6
CONTINUOUS
 62
     7
 10
51.7553560067
 20
-50.2413190462
 30
0.0
  0
VERTEX
  5
8B4
  8
0
  6
CONTINUOUS
 62
     7
 10
51.0176412392
 20
-49.8305731014
 30
0.0
  0
VERTEX
  5
8B5
  8
0
  6
CONTINUOUS
 62
     7
 10
50.2596966553
 20
-49.3155492962
 30
0.0
  0
VERTEX
  5
8B6
  8
0
  6
CONTINUOUS
 62
     7
 10
49.6215812493
 20
-48.796531421
 30
0.0
  0
VERTEX
  5
8B7
  8
0
  6
CONTINUOUS
 62
     7
 10
49.0905873109
 20
-48.2858837143
 30
0.0
  0
VERTEX
  5
8B8
  8
0
  6
CONTINUOUS
 62
     7
 10
48.8910667229
 20
-48.0632070944
 30
0.0
  0
VERTEX
  5
8B9
  8
0
  6
CONTINUOUS
 62
     7
 10
48.7483135987
 20
-47.8738092378
 30
0.0
  0
VERTEX
  5
8BA
  8
0
  6
CONTINUOUS
 62
     7
 10
48.6465565491
 20
-47.617396389
 30
0.0
  0
SEQEND
  5
A04
  8
0
  6
CONTINUOUS
 62
     7
  0
POLYLINE
  5
3B6
  8
0
  6
CONTINUOUS
 62
     7
 66
     1
 10
0.0
 20
0.0
 30
0.0
  0
VERTEX
  5
8BB
  8
0
  6
CONTINUOUS
 62
     7
 10
117.7591494847
 20
-51.1471233357
 30
0.0
  0
VERTEX
  5
8BC
  8
0
  6
CONTINUOUS
 62
     7
 10
110.7159189511
 20
-51.9331444547
 30
0.0
  0
VERTEX
  5
8BD
  8
0
  6
CONTINUOUS
 62
     7
 10
103.6452762414
 20
-52.550687597
 30
0.0
  0
VERTEX
  5
8BE
  8
0
  6
CONTINUOUS
 62
     7
 10
96.5196720887
 20
-52.9728085295
 30
0.0
  0
VERTEX
  5
8BF
  8
0
  6
CONTINUOUS
 62
     7
 10
89.3800727654
 20
-53.1812815488
 30
0.0
  0
VERTEX
  5
8C0
  8
0
  6
CONTINUOUS
 62
     7
 10
83.6062065888
 20
-53.1868899734
 30
0.0
  0
VERTEX
  5
8C1
  8
0
  6
CONTINUOUS
 62
     7
 10
77.8334490586
 20
-53.047930871
 30
0.0
  0
VERTEX
  5
8C2
  8
0
  6
CONTINUOUS
 62
     7
 10
72.0696083832
 20
-52.7676082709
 30
0.0
  0
VERTEX
  5
8C3
  8
0
  6
CONTINUOUS
 62
     7
 10
66.274379902
 20
-52.3470246725
 30
0.0
  0
VERTEX
  5
8C4
  8
0
  6
CONTINUOUS
 62
     7
 10
60.4943506051
 20
-51.801427829
 30
0.0
  0
VERTEX
  5
8C5
  8
0
  6
CONTINUOUS
 62
     7
 10
54.7341458131
 20
-51.1471233357
 30
0.0
  0
SEQEND
  5
A03
  8
0
  6
CONTINUOUS
 62
     7
  0
POLYLINE
  5
3B7
  8
0
  6
CONTINUOUS
 62
     7
 66
     1
 10
0.0
 20
0.0
 30
0.0
  0
VERTEX
  5
8C6
  8
0
  6
CONTINUOUS
 62
     7
 10
123.8467447091
 20
-47.6175573216
 30
0.0
  0
VERTEX
  5
8C7
  8
0
  6
CONTINUOUS
 62
     7
 10
123.7608901787
 20
-47.848825951
 30
0.0
  0
VERTEX
  5
8C8
  8
0
  6
CONTINUOUS
 62
     7
 10
123.5017709065
 20
-48.178739895
 30
0.0
  0
VERTEX
  5
8C9
  8
0
  6
CONTINUOUS
 62
     7
 10
123.1074682999
 20
-48.5806732
 30
0.0
  0
VERTEX
  5
8CA
  8
0
  6
CONTINUOUS
 62
     7
 10
122.5707463551
 20
-49.0521723897
 30
0.0
  0
VERTEX
  5
8CB
  8
0
  6
CONTINUOUS
 62
     7
 10
121.847664528
 20
-49.5903764412
 30
0.0
  0
VERTEX
  5
8CC
  8
0
  6
CONTINUOUS
 62
     7
 10
120.9598295022
 20
-50.1265326076
 30
0.0
  0
VERTEX
  5
8CD
  8
0
  6
CONTINUOUS
 62
     7
 10
120.0945131112
 20
-50.5341492154
 30
0.0
  0
VERTEX
  5
8CE
  8
0
  6
CONTINUOUS
 62
     7
 10
119.1092542935
 20
-50.8748019141
 30
0.0
  0
VERTEX
  5
8CF
  8
0
  6
CONTINUOUS
 62
     7
 10
118.4507660199
 20
-51.0346910943
 30
0.0
  0
VERTEX
  5
8D0
  8
0
  6
CONTINUOUS
 62
     7
 10
117.7591494847
 20
-51.1471233357
 30
0.0
  0
SEQEND
  5
A02
  8
0
  6
CONTINUOUS
 62
     7
  0
POLYLINE
  5
3B8
  8
0
  6
CONTINUOUS
 62
     7
 66
     1
 10
0.0
 20
0.0
 30
0.0
  0
VERTEX
  5
8D1
  8
0
  6
CONTINUOUS
 62
     7
 10
123.8458983231
 20
-47.2410452113
 30
0.0
  0
VERTEX
  5
8D2
  8
0
  6
CONTINUOUS
 62
     7
 10
123.8459698487
 20
-47.2353302435
 30
0.0
  0
VERTEX
  5
8D3
  8
0
  6
CONTINUOUS
 62
     7
 10
123.846345358
 20
-47.2718850271
 30
0.0
  0
VERTEX
  5
8D4
  8
0
  6
CONTINUOUS
 62
     7
 10
123.8466254998
 20
-47.3882746444
 30
0.0
  0
VERTEX
  5
8D5
  8
0
  6
CONTINUOUS
 62
     7
 10
123.8467208672
 20
-47.6175595567
 30
0.0
  0
SEQEND
  5
A01
  8
0
  6
CONTINUOUS
 62
     7
  0
POLYLINE
  5
3B9
  8
0
  6
CONTINUOUS
 62
     7
 66
     1
 10
0.0
 20
0.0
 30
0.0
  0
VERTEX
  5
8D6
  8
0
  6
CONTINUOUS
 62
     7
 10
51.0403029252
 20
-46.2417688713
 30
0.0
  0
VERTEX
  5
8D7
  8
0
  6
CONTINUOUS
 62
     7
 10
50.2659193803
 20
-46.2397665278
 30
0.0
  0
VERTEX
  5
8D8
  8
0
  6
CONTINUOUS
 62
     7
 10
50.0698320199
 20
-46.2388877318
 30
0.0
  0
SEQEND
  5
A00
  8
0
  6
CONTINUOUS
 62
     7
  0
POLYLINE
  5
3BA
  8
0
  6
CONTINUOUS
 62
     7
 66
     1
 10
0.0
 20
0.0
 30
0.0
  0
VERTEX
  5
8D9
  8
0
  6
CONTINUOUS
 62
     7
 10
48.793231659
 20
-46.0841425256
 30
0.0
  0
VERTEX
  5
8DA
  8
0
  6
CONTINUOUS
 62
     7
 10
48.7833492089
 20
-46.1370055125
 30
0.0
  0
VERTEX
  5
8DB
  8
0
  6
CONTINUOUS
 62
     7
 10
48.7548462678
 20
-46.3928357259
 30
0.0
  0
SEQEND
  5
9FF
  8
0
  6
CONTINUOUS
 62
     7
  0
ARC
  5
3BB
  8
0
  6
CONTINUOUS
 62
     7
 10
50.6862982141
 20
-53.9414364361
 30
0.0
 40
7.707763478103606
 50
77.9966696785
 51
87.367663159
  0
LINE
  5
3BC
  8
0
  6
CONTINUOUS
 62
     7
 10
53.3137194443
 20
-46.6127001242
 30
0.0
 11
53.4759036828
 21
-46.6480821863
 31
0.0
  0
LINE
  5
3BD
  8
0
  6
CONTINUOUS
 62
     7
 10
118.9013830949
 20
-46.6733847306
 30
0.0
 11
119.1901974011
 21
-46.610388209
 31
0.0
  0
ARC
  5
3BE
  8
0
  6
CONTINUOUS
 62
     7
 10
121.8135991737
 20
-54.0464563862
 30
0.0
 40
7.812976025805651
 50
92.6453308787
 51
101.8766545475
  0
POLYLINE
  5
3BF
  8
0
  6
CONTINUOUS
 62
     7
 66
     1
 10
0.0
 20
0.0
 30
0.0
  0
VERTEX
  5
8DC
  8
0
  6
CONTINUOUS
 62
     7
 10
121.4530042935
 20
-46.2418072418
 30
0.0
  0
VERTEX
  5
8DD
  8
0
  6
CONTINUOUS
 62
     7
 10
122.3107747365
 20
-46.2394368396
 30
0.0
  0
VERTEX
  5
8DE
  8
0
  6
CONTINUOUS
 62
     7
 10
122.4310032654
 20
-46.2389011428
 30
0.0
  0
SEQEND
  5
9FE
  8
0
  6
CONTINUOUS
 62
     7
  0
POLYLINE
  5
3C0
  8
0
  6
CONTINUOUS
 62
     7
 66
     1
 10
0.0
 20
0.0
 30
0.0
  0
VERTEX
  5
8DF
  8
0
  6
CONTINUOUS
 62
     7
 10
123.6589006711
 20
-46.2423854069
 30
0.0
  0
VERTEX
  5
8E0
  8
0
  6
CONTINUOUS
 62
     7
 10
123.6684254933
 20
-46.2540373699
 30
0.0
  0
VERTEX
  5
8E1
  8
0
  6
CONTINUOUS
 62
     7
 10
123.6809067059
 20
-46.2298673139
 30
0.0
  0
VERTEX
  5
8E2
  8
0
  6
CONTINUOUS
 62
     7
 10
123.6824206639
 20
-46.1723924176
 30
0.0
  0
VERTEX
  5
8E3
  8
0
  6
CONTINUOUS
 62
     7
 10
123.6838809777
 20
-46.1015079663
 30
0.0
  0
SEQEND
  5
9FD
  8
0
  6
CONTINUOUS
 62
     7
  0
POLYLINE
  5
3C1
  8
0
  6
CONTINUOUS
 62
     7
 66
     1
 10
0.0
 20
0.0
 30
0.0
  0
VERTEX
  5
8E4
  8
0
  6
CONTINUOUS
 62
     7
 10
123.6856631566
 20
-46.0780840859
 30
0.0
  0
VERTEX
  5
8E5
  8
0
  6
CONTINUOUS
 62
     7
 10
123.6876897145
 20
-46.0514471427
 30
0.0
  0
VERTEX
  5
8E6
  8
0
  6
CONTINUOUS
 62
     7
 10
123.6964158345
 20
-46.0579086588
 30
0.0
  0
VERTEX
  5
8E7
  8
0
  6
CONTINUOUS
 62
     7
 10
123.7127117444
 20
-46.1574197308
 30
0.0
  0
VERTEX
  5
8E8
  8
0
  6
CONTINUOUS
 62
     7
 10
123.7384549905
 20
-46.3928360984
 30
0.0
  0
SEQEND
  5
9FC
  8
0
  6
CONTINUOUS
 62
     7
  0
POLYLINE
  5
3C2
  8
0
  6
CONTINUOUS
 62
     7
 66
     1
 10
0.0
 20
0.0
 30
0.0
  0
VERTEX
  5
8E9
  8
0
  6
CONTINUOUS
 62
     7
 10
123.7384549905
 20
-46.3928357259
 30
0.0
  0
VERTEX
  5
8EA
  8
0
  6
CONTINUOUS
 62
     7
 10
123.6670426655
 20
-46.6030918554
 30
0.0
  0
VERTEX
  5
8EB
  8
0
  6
CONTINUOUS
 62
     7
 10
123.4194568921
 20
-46.9007611767
 30
0.0
  0
VERTEX
  5
8EC
  8
0
  6
CONTINUOUS
 62
     7
 10
123.023145609
 20
-47.2672872738
 30
0.0
  0
VERTEX
  5
8ED
  8
0
  6
CONTINUOUS
 62
     7
 10
122.4736325074
 20
-47.7043774471
 30
0.0
  0
VERTEX
  5
8EE
  8
0
  6
CONTINUOUS
 62
     7
 10
121.7531434823
 20
-48.1934488312
 30
0.0
  0
VERTEX
  5
8EF
  8
0
  6
CONTINUOUS
 62
     7
 10
120.8701364327
 20
-48.6858342335
 30
0.0
  0
VERTEX
  5
8F0
  8
0
  6
CONTINUOUS
 62
     7
 10
119.9915043641
 20
-49.0718419225
 30
0.0
  0
VERTEX
  5
8F1
  8
0
  6
CONTINUOUS
 62
     7
 10
118.9927331734
 20
-49.3952580289
 30
0.0
  0
VERTEX
  5
8F2
  8
0
  6
CONTINUOUS
 62
     7
 10
118.336903267
 20
-49.5447207735
 30
0.0
  0
VERTEX
  5
8F3
  8
0
  6
CONTINUOUS
 62
     7
 10
117.6498107243
 20
-49.6499605969
 30
0.0
  0
SEQEND
  5
9FB
  8
0
  6
CONTINUOUS
 62
     7
  0
POLYLINE
  5
3C3
  8
0
  6
CONTINUOUS
 62
     7
 66
     1
 10
0.0
 20
0.0
 30
0.0
  0
VERTEX
  5
8F4
  8
0
  6
CONTINUOUS
 62
     7
 10
117.6498107243
 20
-49.6499637634
 30
0.0
  0
VERTEX
  5
8F5
  8
0
  6
CONTINUOUS
 62
     7
 10
112.5852040578
 20
-50.1997437821
 30
0.0
  0
VERTEX
  5
8F6
  8
0
  6
CONTINUOUS
 62
     7
 10
107.6071016122
 20
-50.6635977448
 30
0.0
  0
VERTEX
  5
8F7
  8
0
  6
CONTINUOUS
 62
     7
 10
102.6147834588
 20
-51.0428189792
 30
0.0
  0
VERTEX
  5
8F8
  8
0
  6
CONTINUOUS
 62
     7
 10
97.5683085252
 20
-51.3304418562
 30
0.0
  0
VERTEX
  5
8F9
  8
0
  6
CONTINUOUS
 62
     7
 10
92.548929863
 20
-51.5153050042
 30
0.0
  0
VERTEX
  5
8FA
  8
0
  6
CONTINUOUS
 62
     7
 10
87.5065795708
 20
-51.5956189044
 30
0.0
  0
VERTEX
  5
8FB
  8
0
  6
CONTINUOUS
 62
     7
 10
82.4769965935
 20
-51.5689666759
 30
0.0
  0
VERTEX
  5
8FC
  8
0
  6
CONTINUOUS
 62
     7
 10
77.8549424935
 20
-51.4509307215
 30
0.0
  0
VERTEX
  5
8FD
  8
0
  6
CONTINUOUS
 62
     7
 10
73.2533685494
 20
-51.2462259297
 30
0.0
  0
VERTEX
  5
8FE
  8
0
  6
CONTINUOUS
 62
     7
 10
68.6538092423
 20
-50.9582100929
 30
0.0
  0
VERTEX
  5
8FF
  8
0
  6
CONTINUOUS
 62
     7
 10
64.0434495736
 20
-50.5908618242
 30
0.0
  0
VERTEX
  5
900
  8
0
  6
CONTINUOUS
 62
     7
 10
59.4974152375
 20
-50.157942579
 30
0.0
  0
VERTEX
  5
901
  8
0
  6
CONTINUOUS
 62
     7
 10
54.8434845734
 20
-49.6499637634
 30
0.0
  0
SEQEND
  5
9FA
  8
0
  6
CONTINUOUS
 62
     7
  0
POLYLINE
  5
3C4
  8
0
  6
CONTINUOUS
 62
     7
 66
     1
 10
0.0
 20
0.0
 30
0.0
  0
VERTEX
  5
902
  8
0
  6
CONTINUOUS
 62
     7
 10
54.8434845734
 20
-49.6499637634
 30
0.0
  0
VERTEX
  5
903
  8
0
  6
CONTINUOUS
 62
     7
 10
54.4118873406
 20
-49.5898448423
 30
0.0
  0
VERTEX
  5
904
  8
0
  6
CONTINUOUS
 62
     7
 10
53.9783946801
 20
-49.5088769615
 30
0.0
  0
VERTEX
  5
905
  8
0
  6
CONTINUOUS
 62
     7
 10
53.5455457497
 20
-49.4070675716
 30
0.0
  0
VERTEX
  5
906
  8
0
  6
CONTINUOUS
 62
     7
 10
53.153692894
 20
-49.2962340385
 30
0.0
  0
VERTEX
  5
907
  8
0
  6
CONTINUOUS
 62
     7
 10
52.7582279969
 20
-49.1661632926
 30
0.0
  0
VERTEX
  5
908
  8
0
  6
CONTINUOUS
 62
     7
 10
52.3618690301
 20
-49.0169289083
 30
0.0
  0
VERTEX
  5
909
  8
0
  6
CONTINUOUS
 62
     7
 10
52.0544997979
 20
-48.8876788438
 30
0.0
  0
VERTEX
  5
90A
  8
0
  6
CONTINUOUS
 62
     7
 10
51.750766449
 20
-48.7480894224
 30
0.0
  0
VERTEX
  5
90B
  8
0
  6
CONTINUOUS
 62
     7
 10
51.4631859589
 20
-48.6046918229
 30
0.0
  0
VERTEX
  5
90C
  8
0
  6
CONTINUOUS
 62
     7
 10
51.1902682114
 20
-48.4581938506
 30
0.0
  0
VERTEX
  5
90D
  8
0
  6
CONTINUOUS
 62
     7
 10
50.9241334725
 20
-48.3052433029
 30
0.0
  0
VERTEX
  5
90E
  8
0
  6
CONTINUOUS
 62
     7
 10
50.6979696084
 20
-48.1670506791
 30
0.0
  0
VERTEX
  5
90F
  8
0
  6
CONTINUOUS
 62
     7
 10
50.4349104691
 20
-47.9965866104
 30
0.0
  0
VERTEX
  5
910
  8
0
  6
CONTINUOUS
 62
     7
 10
50.1391760636
 20
-47.791586493
 30
0.0
  0
VERTEX
  5
911
  8
0
  6
CONTINUOUS
 62
     7
 10
49.9278299142
 20
-47.6356529192
 30
0.0
  0
VERTEX
  5
912
  8
0
  6
CONTINUOUS
 62
     7
 10
49.7175566483
 20
-47.4720564232
 30
0.0
  0
VERTEX
  5
913
  8
0
  6
CONTINUOUS
 62
     7
 10
49.5063297082
 20
-47.2983610377
 30
0.0
  0
VERTEX
  5
914
  8
0
  6
CONTINUOUS
 62
     7
 10
49.3302456666
 20
-47.1447375164
 30
0.0
  0
VERTEX
  5
915
  8
0
  6
CONTINUOUS
 62
     7
 10
49.1857520867
 20
-47.0109932617
 30
0.0
  0
VERTEX
  5
916
  8
0
  6
CONTINUOUS
 62
     7
 10
48.8561384011
 20
-46.647769262
 30
0.0
  0
VERTEX
  5
917
  8
0
  6
CONTINUOUS
 62
     7
 10
48.7548462678
 20
-46.3928360984
 30
0.0
  0
SEQEND
  5
9F9
  8
0
  6
CONTINUOUS
 62
     7
  0
ARC
  5
3C5
  8
0
  6
CONTINUOUS
 62
     7
 10
326.2466472812
 20
-129.6875785659
 30
0.0
 40
73.90416181334574
 50
89.9999946319
 51
115.0850157941
  0
LINE
  5
3C6
  8
0
  6
CONTINUOUS
 62
     7
 10
294.517248087
 20
-62.9412651554
 30
0.0
 11
294.9140481282
 21
-62.7540790037
 31
0.0
  0
LINE
  5
3C7
  8
0
  6
CONTINUOUS
 62
     7
 10
357.9760543633
 20
-62.9412651554
 30
0.0
 11
357.5792543221
 21
-62.7540790037
 31
0.0
  0
ARC
  5
3C8
  8
0
  6
CONTINUOUS
 62
     7
 10
326.2466461276
 20
-129.6876192066
 30
0.0
 40
73.90420245397756
 50
64.9149912154
 51
89.9999937375
  0
ARC
  5
3C9
  8
0
  6
CONTINUOUS
 62
     7
 10
354.7574950024
 20
-69.5219285433
 30
0.0
 40
7.325588384424223
 50
15.5163675505
 51
63.9370433426
  0
ARC
  5
3CA
  8
0
  6
CONTINUOUS
 62
     7
 10
354.3870623582
 20
-69.3549357268
 30
0.0
 40
7.332216514347159
 50
15.4883465363
 51
64.1914651291
  0
ARC
  5
3CB
  8
0
  6
CONTINUOUS
 62
     7
 10
298.0764731095
 20
-69.3300996673
 30
0.0
 40
7.296915754606177
 50
115.6830189983
 51
164.6371693363
  0
ARC
  5
3CC
  8
0
  6
CONTINUOUS
 62
     7
 10
297.7180802637
 20
-69.5071971883
 30
0.0
 40
7.304572561104937
 50
115.9888152977
 51
164.5577738092
  0
POLYLINE
  5
3CD
  8
0
  6
CONTINUOUS
 62
     7
 66
     1
 10
0.0
 20
0.0
 30
0.0
  0
VERTEX
  5
918
  8
0
  6
CONTINUOUS
 62
     7
 10
288.6465780068
 20
-122.2454123691
 30
0.0
  0
VERTEX
  5
919
  8
0
  6
CONTINUOUS
 62
     7
 10
288.6466137696
 20
-121.0411064819
 30
0.0
  0
VERTEX
  5
91A
  8
0
  6
CONTINUOUS
 62
     7
 10
288.6467448998
 20
-119.827526112
 30
0.0
  0
VERTEX
  5
91B
  8
0
  6
CONTINUOUS
 62
     7
 10
288.6471919347
 20
-117.5223999218
 30
0.0
  0
VERTEX
  5
91C
  8
0
  6
CONTINUOUS
 62
     7
 10
288.6475853253
 20
-115.2144663528
 30
0.0
  0
VERTEX
  5
91D
  8
0
  6
CONTINUOUS
 62
     7
 10
288.6466495324
 20
-110.5842106537
 30
0.0
  0
SEQEND
  5
9F8
  8
0
  6
CONTINUOUS
 62
     7
  0
LINE
  5
3CE
  8
0
  6
CONTINUOUS
 62
     7
 10
288.6466495324
 20
-110.5842106537
 30
0.0
 11
288.6466495324
 21
-100.584843059
 31
0.0
  0
LINE
  5
3CF
  8
0
  6
CONTINUOUS
 62
     7
 10
288.6466495324
 20
-100.584843059
 30
0.0
 11
288.6497430134
 21
-99.5454095796
 31
0.0
  0
LINE
  5
3D0
  8
0
  6
CONTINUOUS
 62
     7
 10
288.6466495324
 20
-90.5834250645
 30
0.0
 11
288.6466495324
 21
-82.4686192468
 31
0.0
  0
POLYLINE
  5
3D1
  8
0
  6
CONTINUOUS
 62
     7
 66
     1
 10
0.0
 20
0.0
 30
0.0
  0
VERTEX
  5
91E
  8
0
  6
CONTINUOUS
 62
     7
 10
290.1779286195
 20
-69.3623446421
 30
0.0
  0
VERTEX
  5
91F
  8
0
  6
CONTINUOUS
 62
     7
 10
290.482389145
 20
-68.2391860083
 30
0.0
  0
VERTEX
  5
920
  8
0
  6
CONTINUOUS
 62
     7
 10
290.6772069264
 20
-67.5622337059
 30
0.0
  0
SEQEND
  5
9F7
  8
0
  6
CONTINUOUS
 62
     7
  0
POLYLINE
  5
3D2
  8
0
  6
CONTINUOUS
 62
     7
 66
     1
 10
0.0
 20
0.0
 30
0.0
  0
VERTEX
  5
921
  8
0
  6
CONTINUOUS
 62
     7
 10
291.040300541
 20
-67.3969261841
 30
0.0
  0
VERTEX
  5
922
  8
0
  6
CONTINUOUS
 62
     7
 10
290.2659169961
 20
-70.1234989361
 30
0.0
  0
VERTEX
  5
923
  8
0
  6
CONTINUOUS
 62
     7
 10
289.6922520924
 20
-72.8306226925
 30
0.0
  0
VERTEX
  5
924
  8
0
  6
CONTINUOUS
 62
     7
 10
289.3308095265
 20
-75.5495198563
 30
0.0
  0
VERTEX
  5
925
  8
0
  6
CONTINUOUS
 62
     7
 10
289.0831760693
 20
-78.2747887567
 30
0.0
  0
VERTEX
  5
926
  8
0
  6
CONTINUOUS
 62
     7
 10
288.9312438298
 20
-81.0009561972
 30
0.0
  0
VERTEX
  5
927
  8
0
  6
CONTINUOUS
 62
     7
 10
288.8629011441
 20
-85.5498813585
 30
0.0
  0
VERTEX
  5
928
  8
0
  6
CONTINUOUS
 62
     7
 10
288.8961784173
 20
-90.1005588964
 30
0.0
  0
VERTEX
  5
929
  8
0
  6
CONTINUOUS
 62
     7
 10
288.8963333893
 20
-94.6468018488
 30
0.0
  0
VERTEX
  5
92A
  8
0
  6
CONTINUOUS
 62
     7
 10
288.8608447838
 20
-99.1977625088
 30
0.0
  0
VERTEX
  5
92B
  8
0
  6
CONTINUOUS
 62
     7
 10
288.8297430802
 20
-103.7580781177
 30
0.0
  0
VERTEX
  5
92C
  8
0
  6
CONTINUOUS
 62
     7
 10
288.8148180772
 20
-108.2909755901
 30
0.0
  0
VERTEX
  5
92D
  8
0
  6
CONTINUOUS
 62
     7
 10
288.8117722798
 20
-110.5377071098
 30
0.0
  0
VERTEX
  5
92E
  8
0
  6
CONTINUOUS
 62
     7
 10
288.8103417683
 20
-112.7858274177
 30
0.0
  0
VERTEX
  5
92F
  8
0
  6
CONTINUOUS
 62
     7
 10
288.8076178361
 20
-115.0612168506
 30
0.0
  0
VERTEX
  5
930
  8
0
  6
CONTINUOUS
 62
     7
 10
288.7998990346
 20
-117.3745029167
 30
0.0
  0
VERTEX
  5
931
  8
0
  6
CONTINUOUS
 62
     7
 10
288.7833527852
 20
-119.7355740265
 30
0.0
  0
VERTEX
  5
932
  8
0
  6
CONTINUOUS
 62
     7
 10
288.7548438836
 20
-122.157763739
 30
0.0
  0
SEQEND
  5
9F6
  8
0
  6
CONTINUOUS
 62
     7
  0
LINE
  5
3D3
  8
0
  6
CONTINUOUS
 62
     7
 10
288.6466495324
 20
-82.4686192468
 30
0.0
 11
288.6495820809
 21
-82.0775263504
 31
0.0
  0
POLYLINE
  5
3D4
  8
0
  6
CONTINUOUS
 62
     7
 66
     1
 10
0.0
 20
0.0
 30
0.0
  0
VERTEX
  5
933
  8
0
  6
CONTINUOUS
 62
     7
 10
361.4530078698
 20
-67.3969246939
 30
0.0
  0
VERTEX
  5
934
  8
0
  6
CONTINUOUS
 62
     7
 10
362.3107783127
 20
-70.4482891158
 30
0.0
  0
VERTEX
  5
935
  8
0
  6
CONTINUOUS
 62
     7
 10
362.9027597237
 20
-73.4820344046
 30
0.0
  0
VERTEX
  5
936
  8
0
  6
CONTINUOUS
 62
     7
 10
363.2625810433
 20
-76.530479689
 30
0.0
  0
VERTEX
  5
937
  8
0
  6
CONTINUOUS
 62
     7
 10
363.4952179719
 20
-79.5831792549
 30
0.0
  0
VERTEX
  5
938
  8
0
  6
CONTINUOUS
 62
     7
 10
363.6080853272
 20
-82.637935181
 30
0.0
  0
VERTEX
  5
939
  8
0
  6
CONTINUOUS
 62
     7
 10
363.6256925393
 20
-86.6421990589
 30
0.0
  0
VERTEX
  5
93A
  8
0
  6
CONTINUOUS
 62
     7
 10
363.5939471055
 20
-90.6463407472
 30
0.0
  0
VERTEX
  5
93B
  8
0
  6
CONTINUOUS
 62
     7
 10
363.5969631005
 20
-94.6468018488
 30
0.0
  0
VERTEX
  5
93C
  8
0
  6
CONTINUOUS
 62
     7
 10
363.6370770264
 20
-99.745025535
 30
0.0
  0
VERTEX
  5
93D
  8
0
  6
CONTINUOUS
 62
     7
 10
363.6684290696
 20
-104.8496656612
 30
0.0
  0
VERTEX
  5
93E
  8
0
  6
CONTINUOUS
 62
     7
 10
363.6809102822
 20
-109.9102907375
 30
0.0
  0
VERTEX
  5
93F
  8
0
  6
CONTINUOUS
 62
     7
 10
363.6824242402
 20
-111.8841521934
 30
0.0
  0
VERTEX
  5
940
  8
0
  6
CONTINUOUS
 62
     7
 10
363.6838785935
 20
-113.8739400104
 30
0.0
  0
VERTEX
  5
941
  8
0
  6
CONTINUOUS
 62
     7
 10
363.6876813698
 20
-115.8891015247
 30
0.0
  0
VERTEX
  5
942
  8
0
  6
CONTINUOUS
 62
     7
 10
363.6964194108
 20
-117.9364614681
 30
0.0
  0
VERTEX
  5
943
  8
0
  6
CONTINUOUS
 62
     7
 10
363.7127033997
 20
-120.0225107864
 30
0.0
  0
VERTEX
  5
944
  8
0
  6
CONTINUOUS
 62
     7
 10
363.7384526063
 20
-122.157763739
 30
0.0
  0
SEQEND
  5
9F5
  8
0
  6
CONTINUOUS
 62
     7
  0
ARC
  5
3D5
  8
0
  6
CONTINUOUS
 62
     7
 10
356.9800748992
 20
-122.3736481977
 30
0.0
 40
6.761824852140997
 50
275.6843031171
 51
1.8295905284
  0
ARC
  5
3D6
  8
0
  6
CONTINUOUS
 62
     7
 10
326.2466512252
 20
203.0502601108
 30
0.0
 40
333.6336778024235
 50
264.5990580919
 51
275.4009419081
  0
POLYLINE
  5
3D7
  8
0
  6
CONTINUOUS
 62
     7
 66
     1
 10
0.0
 20
0.0
 30
0.0
  0
VERTEX
  5
945
  8
0
  6
CONTINUOUS
 62
     7
 10
294.8434881497
 20
-129.1022234157
 30
0.0
  0
VERTEX
  5
946
  8
0
  6
CONTINUOUS
 62
     7
 10
294.4118849564
 20
-129.0476255611
 30
0.0
  0
VERTEX
  5
947
  8
0
  6
CONTINUOUS
 62
     7
 10
293.9783922959
 20
-128.9643221096
 30
0.0
  0
VERTEX
  5
948
  8
0
  6
CONTINUOUS
 62
     7
 10
293.545549326
 20
-128.8512819008
 30
0.0
  0
VERTEX
  5
949
  8
0
  6
CONTINUOUS
 62
     7
 10
293.1536964703
 20
-128.7216298775
 30
0.0
  0
VERTEX
  5
94A
  8
0
  6
CONTINUOUS
 62
     7
 10
292.7582315732
 20
-128.5625093178
 30
0.0
  0
VERTEX
  5
94B
  8
0
  6
CONTINUOUS
 62
     7
 10
292.3618666459
 20
-128.3720009521
 30
0.0
  0
VERTEX
  5
94C
  8
0
  6
CONTINUOUS
 62
     7
 10
292.0544914532
 20
-128.20078661
 30
0.0
  0
VERTEX
  5
94D
  8
0
  6
CONTINUOUS
 62
     7
 10
291.7507640649
 20
-128.0093424515
 30
0.0
  0
VERTEX
  5
94E
  8
0
  6
CONTINUOUS
 62
     7
 10
291.4631835747
 20
-127.8054290012
 30
0.0
  0
VERTEX
  5
94F
  8
0
  6
CONTINUOUS
 62
     7
 10
291.1902658272
 20
-127.5890701011
 30
0.0
  0
VERTEX
  5
950
  8
0
  6
CONTINUOUS
 62
     7
 10
290.9241310883
 20
-127.3537748054
 30
0.0
  0
VERTEX
  5
951
  8
0
  6
CONTINUOUS
 62
     7
 10
290.6979672242
 20
-127.1322243408
 30
0.0
  0
VERTEX
  5
952
  8
0
  6
CONTINUOUS
 62
     7
 10
290.4349080849
 20
-126.8454365925
 30
0.0
  0
VERTEX
  5
953
  8
0
  6
CONTINUOUS
 62
     7
 10
290.139167719
 20
-126.4778368667
 30
0.0
  0
VERTEX
  5
954
  8
0
  6
CONTINUOUS
 62
     7
 10
289.92782753
 20
-126.178609629
 30
0.0
  0
VERTEX
  5
955
  8
0
  6
CONTINUOUS
 62
     7
 10
289.7175542641
 20
-125.8421592907
 30
0.0
  0
VERTEX
  5
956
  8
0
  6
CONTINUOUS
 62
     7
 10
289.5063332844
 20
-125.4530065254
 30
0.0
  0
VERTEX
  5
957
  8
0
  6
CONTINUOUS
 62
     7
 10
289.3302432824
 20
-125.0741594032
 30
0.0
  0
VERTEX
  5
958
  8
0
  6
CONTINUOUS
 62
     7
 10
289.185755663
 20
-124.7095160679
 30
0.0
  0
VERTEX
  5
959
  8
0
  6
CONTINUOUS
 62
     7
 10
288.8561419774
 20
-123.4641425804
 30
0.0
  0
VERTEX
  5
95A
  8
0
  6
CONTINUOUS
 62
     7
 10
288.7548438836
 20
-122.157763739
 30
0.0
  0
SEQEND
  5
9F4
  8
0
  6
CONTINUOUS
 62
     7
  0
LINE
  5
3D8
  8
0
  6
CONTINUOUS
 62
     7
 10
363.8466469575
 20
-90.5834250645
 30
0.0
 11
363.8466469575
 21
-82.4686192468
 31
0.0
  0
POLYLINE
  5
3D9
  8
0
  6
CONTINUOUS
 62
     7
 66
     1
 10
0.0
 20
0.0
 30
0.0
  0
VERTEX
  5
95B
  8
0
  6
CONTINUOUS
 62
     7
 10
363.8448111344
 20
-99.5447867111
 30
0.0
  0
VERTEX
  5
95C
  8
0
  6
CONTINUOUS
 62
     7
 10
363.8466469575
 20
-100.584843059
 30
0.0
  0
VERTEX
  5
95D
  8
0
  6
CONTINUOUS
 62
     7
 10
363.8502113152
 20
-103.0153744415
 30
0.0
  0
VERTEX
  5
95E
  8
0
  6
CONTINUOUS
 62
     7
 10
363.8488046456
 20
-107.8766577438
 30
0.0
  0
VERTEX
  5
95F
  8
0
  6
CONTINUOUS
 62
     7
 10
363.8461939622
 20
-111.4684276775
 30
0.0
  0
VERTEX
  5
960
  8
0
  6
CONTINUOUS
 62
     7
 10
363.8457052041
 20
-115.0599055485
 30
0.0
  0
VERTEX
  5
961
  8
0
  6
CONTINUOUS
 62
     7
 10
363.8459674645
 20
-116.8548040584
 30
0.0
  0
VERTEX
  5
962
  8
0
  6
CONTINUOUS
 62
     7
 10
363.8463489342
 20
-118.6492018894
 30
0.0
  0
VERTEX
  5
963
  8
0
  6
CONTINUOUS
 62
     7
 10
363.8466231156
 20
-120.4536669449
 30
0.0
  0
VERTEX
  5
964
  8
0
  6
CONTINUOUS
 62
     7
 10
363.846718483
 20
-122.2463660435
 30
0.0
  0
SEQEND
  5
9F3
  8
0
  6
CONTINUOUS
 62
     7
  0
LINE
  5
3DA
  8
0
  6
CONTINUOUS
 62
     7
 10
361.8160955239
 20
-67.5622337059
 30
0.0
 11
362.3228542138
 21
-69.3603821591
 31
0.0
  0
LINE
  5
3DB
  8
0
  6
CONTINUOUS
 62
     7
 10
363.8466469575
 20
-82.4686192468
 30
0.0
 11
363.8437859345
 21
-82.086478968
 31
0.0
  0
LINE
  5
3DC
  8
0
  6
CONTINUOUS
 62
     7
 10
357.6498143006
 20
-129.1022234157
 30
0.0
 11
357.759153061
 21
-129.0918641285
 31
0.0
  0
ARC
  5
3DD
  8
0
  6
CONTINUOUS
 62
     7
 10
357.0939772684
 20
-122.3707885779
 30
0.0
 40
6.753911118137542
 50
275.6520804084
 51
1.0555288193
  0
LINE
  5
3DE
  8
0
  6
CONTINUOUS
 62
     7
 10
294.7341493893
 20
-129.0918641285
 30
0.0
 11
294.8434881497
 21
-129.1022234157
 31
0.0
  0
LINE
  5
3DF
  8
0
  6
CONTINUOUS
 62
     7
 10
294.7341493893
 20
-129.0918641285
 30
0.0
 11
294.6668497849
 21
-129.0798776344
 31
0.0
  0
POLYLINE
  5
3E0
  8
0
  6
CONTINUOUS
 62
     7
 66
     1
 10
0.0
 20
0.0
 30
0.0
  0
VERTEX
  5
965
  8
0
  6
CONTINUOUS
 62
     7
 10
293.8931934167
 20
-128.9420716957
 30
0.0
  0
VERTEX
  5
966
  8
0
  6
CONTINUOUS
 62
     7
 10
293.6314336587
 20
-128.8954489425
 30
0.0
  0
VERTEX
  5
967
  8
0
  6
CONTINUOUS
 62
     7
 10
292.5628713895
 20
-128.5135083393
 30
0.0
  0
VERTEX
  5
968
  8
0
  6
CONTINUOUS
 62
     7
 10
291.7553536225
 20
-128.0741267399
 30
0.0
  0
VERTEX
  5
969
  8
0
  6
CONTINUOUS
 62
     7
 10
291.017638855
 20
-127.5264792637
 30
0.0
  0
VERTEX
  5
96A
  8
0
  6
CONTINUOUS
 62
     7
 10
290.2596942712
 20
-126.7598085598
 30
0.0
  0
VERTEX
  5
96B
  8
0
  6
CONTINUOUS
 62
     7
 10
289.6215848256
 20
-125.8562677101
 30
0.0
  0
VERTEX
  5
96C
  8
0
  6
CONTINUOUS
 62
     7
 10
289.0905908871
 20
-124.7365586952
 30
0.0
  0
VERTEX
  5
96D
  8
0
  6
CONTINUOUS
 62
     7
 10
288.8910583783
 20
-124.1082601742
 30
0.0
  0
VERTEX
  5
96E
  8
0
  6
CONTINUOUS
 62
     7
 10
288.7483112145
 20
-123.4541468815
 30
0.0
  0
VERTEX
  5
96F
  8
0
  6
CONTINUOUS
 62
     7
 10
288.646554165
 20
-122.2454123691
 30
0.0
  0
SEQEND
  5
9F2
  8
0
  6
CONTINUOUS
 62
     7
  0
POLYLINE
  5
3E1
  8
0
  6
CONTINUOUS
 62
     7
 66
     1
 10
0.0
 20
0.0
 30
0.0
  0
VERTEX
  5
970
  8
0
  6
CONTINUOUS
 62
     7
 10
168.6465791989
 20
-47.6173989967
 30
0.0
  0
VERTEX
  5
971
  8
0
  6
CONTINUOUS
 62
     7
 10
168.6466119815
 20
-47.450462778
 30
0.0
  0
VERTEX
  5
972
  8
0
  6
CONTINUOUS
 62
     7
 10
168.6467460919
 20
-47.3386824623
 30
0.0
  0
VERTEX
  5
973
  8
0
  6
CONTINUOUS
 62
     7
 10
168.6471931267
 20
-47.2411145017
 30
0.0
  0
VERTEX
  5
974
  8
0
  6
CONTINUOUS
 62
     7
 10
168.6473808814
 20
-47.2470112637
 30
0.0
  0
SEQEND
  5
9F1
  8
0
  6
CONTINUOUS
 62
     7
  0
POLYLINE
  5
3E2
  8
0
  6
CONTINUOUS
 62
     7
 66
     1
 10
0.0
 20
0.0
 30
0.0
  0
VERTEX
  5
975
  8
0
  6
CONTINUOUS
 62
     7
 10
174.7341476012
 20
-51.1471233357
 30
0.0
  0
VERTEX
  5
976
  8
0
  6
CONTINUOUS
 62
     7
 10
173.6314348508
 20
-50.9410424185
 30
0.0
  0
VERTEX
  5
977
  8
0
  6
CONTINUOUS
 62
     7
 10
172.5628696013
 20
-50.5996767924
 30
0.0
  0
VERTEX
  5
978
  8
0
  6
CONTINUOUS
 62
     7
 10
171.7553518344
 20
-50.2413190462
 30
0.0
  0
VERTEX
  5
979
  8
0
  6
CONTINUOUS
 62
     7
 10
171.0176370669
 20
-49.8305731014
 30
0.0
  0
VERTEX
  5
97A
  8
0
  6
CONTINUOUS
 62
     7
 10
170.2596984435
 20
-49.3155492962
 30
0.0
  0
VERTEX
  5
97B
  8
0
  6
CONTINUOUS
 62
     7
 10
169.6215860177
 20
-48.796531421
 30
0.0
  0
VERTEX
  5
97C
  8
0
  6
CONTINUOUS
 62
     7
 10
169.090589099
 20
-48.2858837143
 30
0.0
  0
VERTEX
  5
97D
  8
0
  6
CONTINUOUS
 62
     7
 10
168.8910595704
 20
-48.0632070944
 30
0.0
  0
VERTEX
  5
97E
  8
0
  6
CONTINUOUS
 62
     7
 10
168.7483094264
 20
-47.8738092378
 30
0.0
  0
VERTEX
  5
97F
  8
0
  6
CONTINUOUS
 62
     7
 10
168.6465523768
 20
-47.617396389
 30
0.0
  0
SEQEND
  5
9F0
  8
0
  6
CONTINUOUS
 62
     7
  0
POLYLINE
  5
3E3
  8
0
  6
CONTINUOUS
 62
     7
 66
     1
 10
0.0
 20
0.0
 30
0.0
  0
VERTEX
  5
980
  8
0
  6
CONTINUOUS
 62
     7
 10
237.7591512728
 20
-51.1471233357
 30
0.0
  0
VERTEX
  5
981
  8
0
  6
CONTINUOUS
 62
     7
 10
230.7159162689
 20
-51.9331444547
 30
0.0
  0
VERTEX
  5
982
  8
0
  6
CONTINUOUS
 62
     7
 10
223.6452705789
 20
-52.550687597
 30
0.0
  0
VERTEX
  5
983
  8
0
  6
CONTINUOUS
 62
     7
 10
216.5196776021
 20
-52.9728085295
 30
0.0
  0
VERTEX
  5
984
  8
0
  6
CONTINUOUS
 62
     7
 10
209.3800697107
 20
-53.1812815488
 30
0.0
  0
VERTEX
  5
985
  8
0
  6
CONTINUOUS
 62
     7
 10
203.6062111709
 20
-53.1868899734
 30
0.0
  0
VERTEX
  5
986
  8
0
  6
CONTINUOUS
 62
     7
 10
197.8334486116
 20
-53.047930871
 30
0.0
  0
VERTEX
  5
987
  8
0
  6
CONTINUOUS
 62
     7
 10
192.0696071912
 20
-52.7676082709
 30
0.0
  0
VERTEX
  5
988
  8
0
  6
CONTINUOUS
 62
     7
 10
186.2743816901
 20
-52.3470246725
 30
0.0
  0
VERTEX
  5
989
  8
0
  6
CONTINUOUS
 62
     7
 10
180.4943523932
 20
-51.801427829
 30
0.0
  0
VERTEX
  5
98A
  8
0
  6
CONTINUOUS
 62
     7
 10
174.7341476012
 20
-51.1471233357
 30
0.0
  0
SEQEND
  5
9EF
  8
0
  6
CONTINUOUS
 62
     7
  0
POLYLINE
  5
3E4
  8
0
  6
CONTINUOUS
 62
     7
 66
     1
 10
0.0
 20
0.0
 30
0.0
  0
VERTEX
  5
98B
  8
0
  6
CONTINUOUS
 62
     7
 10
243.8467464972
 20
-47.6175573216
 30
0.0
  0
VERTEX
  5
98C
  8
0
  6
CONTINUOUS
 62
     7
 10
243.7608889867
 20
-47.848825951
 30
0.0
  0
VERTEX
  5
98D
  8
0
  6
CONTINUOUS
 62
     7
 10
243.5017697144
 20
-48.178739895
 30
0.0
  0
VERTEX
  5
98E
  8
0
  6
CONTINUOUS
 62
     7
 10
243.1074671078
 20
-48.5806732
 30
0.0
  0
VERTEX
  5
98F
  8
0
  6
CONTINUOUS
 62
     7
 10
242.5707481433
 20
-49.0521723897
 30
0.0
  0
VERTEX
  5
990
  8
0
  6
CONTINUOUS
 62
     7
 10
241.8476603556
 20
-49.5903764412
 30
0.0
  0
VERTEX
  5
991
  8
0
  6
CONTINUOUS
 62
     7
 10
240.9598283101
 20
-50.1265326076
 30
0.0
  0
VERTEX
  5
992
  8
0
  6
CONTINUOUS
 62
     7
 10
240.0945119191
 20
-50.5341492154
 30
0.0
  0
VERTEX
  5
993
  8
0
  6
CONTINUOUS
 62
     7
 10
239.1092531014
 20
-50.8748019141
 30
0.0
  0
VERTEX
  5
994
  8
0
  6
CONTINUOUS
 62
     7
 10
238.4507648278
 20
-51.0346910943
 30
0.0
  0
VERTEX
  5
995
  8
0
  6
CONTINUOUS
 62
     7
 10
237.7591512728
 20
-51.1471233357
 30
0.0
  0
SEQEND
  5
9EE
  8
0
  6
CONTINUOUS
 62
     7
  0
POLYLINE
  5
3E5
  8
0
  6
CONTINUOUS
 62
     7
 66
     1
 10
0.0
 20
0.0
 30
0.0
  0
VERTEX
  5
996
  8
0
  6
CONTINUOUS
 62
     7
 10
243.8459001113
 20
-47.2410452113
 30
0.0
  0
VERTEX
  5
997
  8
0
  6
CONTINUOUS
 62
     7
 10
243.8459716368
 20
-47.2353302435
 30
0.0
  0
VERTEX
  5
998
  8
0
  6
CONTINUOUS
 62
     7
 10
243.8463441659
 20
-47.2718850271
 30
0.0
  0
VERTEX
  5
999
  8
0
  6
CONTINUOUS
 62
     7
 10
243.8466243077
 20
-47.3882746444
 30
0.0
  0
VERTEX
  5
99A
  8
0
  6
CONTINUOUS
 62
     7
 10
243.8467196751
 20
-47.6175595567
 30
0.0
  0
SEQEND
  5
9ED
  8
0
  6
CONTINUOUS
 62
     7
  0
POLYLINE
  5
3E6
  8
0
  6
CONTINUOUS
 62
     7
 66
     1
 10
0.0
 20
0.0
 30
0.0
  0
VERTEX
  5
99B
  8
0
  6
CONTINUOUS
 62
     7
 10
171.0403017331
 20
-46.2417688713
 30
0.0
  0
VERTEX
  5
99C
  8
0
  6
CONTINUOUS
 62
     7
 10
170.2659152079
 20
-46.2397665278
 30
0.0
  0
VERTEX
  5
99D
  8
0
  6
CONTINUOUS
 62
     7
 10
170.0698278475
 20
-46.2388877318
 30
0.0
  0
SEQEND
  5
9EC
  8
0
  6
CONTINUOUS
 62
     7
  0
POLYLINE
  5
3E7
  8
0
  6
CONTINUOUS
 62
     7
 66
     1
 10
0.0
 20
0.0
 30
0.0
  0
VERTEX
  5
99E
  8
0
  6
CONTINUOUS
 62
     7
 10
168.7932334471
 20
-46.0841425256
 30
0.0
  0
VERTEX
  5
99F
  8
0
  6
CONTINUOUS
 62
     7
 10
168.7833539773
 20
-46.1370055125
 30
0.0
  0
VERTEX
  5
9A0
  8
0
  6
CONTINUOUS
 62
     7
 10
168.7548450757
 20
-46.3928357259
 30
0.0
  0
SEQEND
  5
9EB
  8
0
  6
CONTINUOUS
 62
     7
  0
ARC
  5
3E8
  8
0
  6
CONTINUOUS
 62
     7
 10
170.6863262538
 20
-53.9411724477
 30
0.0
 40
7.707498562683367
 50
77.996495776
 51
87.367767973
  0
LINE
  5
3E9
  8
0
  6
CONTINUOUS
 62
     7
 10
173.3137182522
 20
-46.6127001242
 30
0.0
 11
173.4759054709
 21
-46.6480821863
 31
0.0
  0
LINE
  5
3EA
  8
0
  6
CONTINUOUS
 62
     7
 10
238.9013819028
 20
-46.6733847306
 30
0.0
 11
239.190196209
 21
-46.610388209
 31
0.0
  0
ARC
  5
3EB
  8
0
  6
CONTINUOUS
 62
     7
 10
241.81361627
 20
-54.0466066872
 30
0.0
 40
7.81312687311596
 50
92.6453921481
 51
101.8765589521
  0
POLYLINE
  5
3EC
  8
0
  6
CONTINUOUS
 62
     7
 66
     1
 10
0.0
 20
0.0
 30
0.0
  0
VERTEX
  5
9A1
  8
0
  6
CONTINUOUS
 62
     7
 10
241.4530031014
 20
-46.2418072418
 30
0.0
  0
VERTEX
  5
9A2
  8
0
  6
CONTINUOUS
 62
     7
 10
242.3107765246
 20
-46.2394368396
 30
0.0
  0
VERTEX
  5
9A3
  8
0
  6
CONTINUOUS
 62
     7
 10
242.4310050536
 20
-46.2389011428
 30
0.0
  0
SEQEND
  5
9EA
  8
0
  6
CONTINUOUS
 62
     7
  0
POLYLINE
  5
3ED
  8
0
  6
CONTINUOUS
 62
     7
 66
     1
 10
0.0
 20
0.0
 30
0.0
  0
VERTEX
  5
9A4
  8
0
  6
CONTINUOUS
 62
     7
 10
243.658899479
 20
-46.2423854069
 30
0.0
  0
VERTEX
  5
9A5
  8
0
  6
CONTINUOUS
 62
     7
 10
243.6684243012
 20
-46.2540373699
 30
0.0
  0
VERTEX
  5
9A6
  8
0
  6
CONTINUOUS
 62
     7
 10
243.6809055138
 20
-46.2298673139
 30
0.0
  0
VERTEX
  5
9A7
  8
0
  6
CONTINUOUS
 62
     7
 10
243.682422452
 20
-46.1723924176
 30
0.0
  0
VERTEX
  5
9A8
  8
0
  6
CONTINUOUS
 62
     7
 10
243.6838797856
 20
-46.1015079663
 30
0.0
  0
SEQEND
  5
9E9
  8
0
  6
CONTINUOUS
 62
     7
  0
POLYLINE
  5
3EE
  8
0
  6
CONTINUOUS
 62
     7
 66
     1
 10
0.0
 20
0.0
 30
0.0
  0
VERTEX
  5
9A9
  8
0
  6
CONTINUOUS
 62
     7
 10
243.6856619645
 20
-46.0780840859
 30
0.0
  0
VERTEX
  5
9AA
  8
0
  6
CONTINUOUS
 62
     7
 10
243.6876885224
 20
-46.0514471427
 30
0.0
  0
VERTEX
  5
9AB
  8
0
  6
CONTINUOUS
 62
     7
 10
243.6964176226
 20
-46.0579086588
 30
0.0
  0
VERTEX
  5
9AC
  8
0
  6
CONTINUOUS
 62
     7
 10
243.7127105523
 20
-46.1574197308
 30
0.0
  0
VERTEX
  5
9AD
  8
0
  6
CONTINUOUS
 62
     7
 10
243.7384537984
 20
-46.3928360984
 30
0.0
  0
SEQEND
  5
9E8
  8
0
  6
CONTINUOUS
 62
     7
  0
POLYLINE
  5
3EF
  8
0
  6
CONTINUOUS
 62
     7
 66
     1
 10
0.0
 20
0.0
 30
0.0
  0
VERTEX
  5
9AE
  8
0
  6
CONTINUOUS
 62
     7
 10
243.7384537984
 20
-46.3928357259
 30
0.0
  0
VERTEX
  5
9AF
  8
0
  6
CONTINUOUS
 62
     7
 10
243.6670414735
 20
-46.6030918554
 30
0.0
  0
VERTEX
  5
9B0
  8
0
  6
CONTINUOUS
 62
     7
 10
243.4194557
 20
-46.9007611767
 30
0.0
  0
VERTEX
  5
9B1
  8
0
  6
CONTINUOUS
 62
     7
 10
243.0231444169
 20
-47.2672872738
 30
0.0
  0
VERTEX
  5
9B2
  8
0
  6
CONTINUOUS
 62
     7
 10
242.4736342955
 20
-47.7043774471
 30
0.0
  0
VERTEX
  5
9B3
  8
0
  6
CONTINUOUS
 62
     7
 10
241.7531452704
 20
-48.1934488312
 30
0.0
  0
VERTEX
  5
9B4
  8
0
  6
CONTINUOUS
 62
     7
 10
240.8701382209
 20
-48.6858342335
 30
0.0
  0
VERTEX
  5
9B5
  8
0
  6
CONTINUOUS
 62
     7
 10
239.991503172
 20
-49.0718419225
 30
0.0
  0
VERTEX
  5
9B6
  8
0
  6
CONTINUOUS
 62
     7
 10
238.9927290011
 20
-49.3952580289
 30
0.0
  0
VERTEX
  5
9B7
  8
0
  6
CONTINUOUS
 62
     7
 10
238.3369050551
 20
-49.5447207735
 30
0.0
  0
VERTEX
  5
9B8
  8
0
  6
CONTINUOUS
 62
     7
 10
237.6498125125
 20
-49.6499605969
 30
0.0
  0
SEQEND
  5
9E7
  8
0
  6
CONTINUOUS
 62
     7
  0
POLYLINE
  5
3F0
  8
0
  6
CONTINUOUS
 62
     7
 66
     1
 10
0.0
 20
0.0
 30
0.0
  0
VERTEX
  5
9B9
  8
0
  6
CONTINUOUS
 62
     7
 10
237.6498125125
 20
-49.6499637634
 30
0.0
  0
VERTEX
  5
9BA
  8
0
  6
CONTINUOUS
 62
     7
 10
232.5852028657
 20
-50.1997437821
 30
0.0
  0
VERTEX
  5
9BB
  8
0
  6
CONTINUOUS
 62
     7
 10
227.6071019102
 20
-50.6635977448
 30
0.0
  0
VERTEX
  5
9BC
  8
0
  6
CONTINUOUS
 62
     7
 10
222.6147807766
 20
-51.0428189792
 30
0.0
  0
VERTEX
  5
9BD
  8
0
  6
CONTINUOUS
 62
     7
 10
217.5683080781
 20
-51.3304418562
 30
0.0
  0
VERTEX
  5
9BE
  8
0
  6
CONTINUOUS
 62
     7
 10
212.5489309061
 20
-51.5153050042
 30
0.0
  0
VERTEX
  5
9BF
  8
0
  6
CONTINUOUS
 62
     7
 10
207.5065823834
 20
-51.5956189044
 30
0.0
  0
VERTEX
  5
9C0
  8
0
  6
CONTINUOUS
 62
     7
 10
202.4769976366
 20
-51.5689666759
 30
0.0
  0
VERTEX
  5
9C1
  8
0
  6
CONTINUOUS
 62
     7
 10
197.8549427915
 20
-51.4509307215
 30
0.0
  0
VERTEX
  5
9C2
  8
0
  6
CONTINUOUS
 62
     7
 10
193.2533733178
 20
-51.2462259297
 30
0.0
  0
VERTEX
  5
9C3
  8
0
  6
CONTINUOUS
 62
     7
 10
188.6538035799
 20
-50.9582100929
 30
0.0
  0
VERTEX
  5
9C4
  8
0
  6
CONTINUOUS
 62
     7
 10
184.0434468914
 20
-50.5908618242
 30
0.0
  0
VERTEX
  5
9C5
  8
0
  6
CONTINUOUS
 62
     7
 10
179.4974170256
 20
-50.157942579
 30
0.0
  0
VERTEX
  5
9C6
  8
0
  6
CONTINUOUS
 62
     7
 10
174.8434863616
 20
-49.6499637634
 30
0.0
  0
SEQEND
  5
9E6
  8
0
  6
CONTINUOUS
 62
     7
  0
POLYLINE
  5
3F1
  8
0
  6
CONTINUOUS
 62
     7
 66
     1
 10
0.0
 20
0.0
 30
0.0
  0
VERTEX
  5
9C7
  8
0
  6
CONTINUOUS
 62
     7
 10
174.8434863616
 20
-49.6499637634
 30
0.0
  0
VERTEX
  5
9C8
  8
0
  6
CONTINUOUS
 62
     7
 10
174.4118861485
 20
-49.5898448423
 30
0.0
  0
VERTEX
  5
9C9
  8
0
  6
CONTINUOUS
 62
     7
 10
173.9783964682
 20
-49.5088769615
 30
0.0
  0
VERTEX
  5
9CA
  8
0
  6
CONTINUOUS
 62
     7
 10
173.5455475379
 20
-49.4070675716
 30
0.0
  0
VERTEX
  5
9CB
  8
0
  6
CONTINUOUS
 62
     7
 10
173.1536946822
 20
-49.2962340385
 30
0.0
  0
VERTEX
  5
9CC
  8
0
  6
CONTINUOUS
 62
     7
 10
172.758229785
 20
-49.1661632926
 30
0.0
  0
VERTEX
  5
9CD
  8
0
  6
CONTINUOUS
 62
     7
 10
172.3618648577
 20
-49.0169289083
 30
0.0
  0
VERTEX
  5
9CE
  8
0
  6
CONTINUOUS
 62
     7
 10
172.0544926453
 20
-48.8876788438
 30
0.0
  0
VERTEX
  5
9CF
  8
0
  6
CONTINUOUS
 62
     7
 10
171.7507652569
 20
-48.7480894224
 30
0.0
  0
VERTEX
  5
9D0
  8
0
  6
CONTINUOUS
 62
     7
 10
171.4631847668
 20
-48.6046918229
 30
0.0
  0
VERTEX
  5
9D1
  8
0
  6
CONTINUOUS
 62
     7
 10
171.1902640391
 20
-48.4581938506
 30
0.0
  0
VERTEX
  5
9D2
  8
0
  6
CONTINUOUS
 62
     7
 10
170.9241293002
 20
-48.3052433029
 30
0.0
  0
VERTEX
  5
9D3
  8
0
  6
CONTINUOUS
 62
     7
 10
170.697965436
 20
-48.1670506791
 30
0.0
  0
VERTEX
  5
9D4
  8
0
  6
CONTINUOUS
 62
     7
 10
170.4349062968
 20
-47.9965866104
 30
0.0
  0
VERTEX
  5
9D5
  8
0
  6
CONTINUOUS
 62
     7
 10
170.1391718913
 20
-47.791586493
 30
0.0
  0
VERTEX
  5
9D6
  8
0
  6
CONTINUOUS
 62
     7
 10
169.9278257418
 20
-47.6356529192
 30
0.0
  0
VERTEX
  5
9D7
  8
0
  6
CONTINUOUS
 62
     7
 10
169.717552476
 20
-47.4720564232
 30
0.0
  0
VERTEX
  5
9D8
  8
0
  6
CONTINUOUS
 62
     7
 10
169.5063344765
 20
-47.2983610377
 30
0.0
  0
VERTEX
  5
9D9
  8
0
  6
CONTINUOUS
 62
     7
 10
169.3302414942
 20
-47.1447375164
 30
0.0
  0
VERTEX
  5
9DA
  8
0
  6
CONTINUOUS
 62
     7
 10
169.1857568551
 20
-47.0109932617
 30
0.0
  0
VERTEX
  5
9DB
  8
0
  6
CONTINUOUS
 62
     7
 10
168.8561401892
 20
-46.647769262
 30
0.0
  0
VERTEX
  5
9DC
  8
0
  6
CONTINUOUS
 62
     7
 10
168.7548450757
 20
-46.3928360984
 30
0.0
  0
SEQEND
  5
9E5
  8
0
  6
CONTINUOUS
 62
     7
  0
LINE
  5
3F2
  8
0
  6
CONTINUOUS
 62
     7
 10
49.3466488648
 20
-48.5321311773
 30
0.0
 11
49.3466488648
 21
-49.6501455576
 31
0.0
  0
LINE
  5
3F3
  8
0
  6
CONTINUOUS
 62
     7
 10
48.5466472436
 20
-49.6501455576
 30
0.0
 11
48.5466472436
 21
-47.9564507053
 31
0.0
  0
LINE
  5
3F4
  8
0
  6
CONTINUOUS
 62
     7
 10
48.6311904717
 20
-47.4226851509
 30
0.0
 11
48.5466472436
 21
-47.9564507053
 31
0.0
  0
LINE
  5
3F5
  8
0
  6
CONTINUOUS
 62
     7
 10
48.5466472436
 20
-51.5749888521
 30
0.0
 11
48.5466472436
 21
-49.6501455576
 31
0.0
  0
LINE
  5
3F6
  8
0
  6
CONTINUOUS
 62
     7
 10
49.3466488648
 20
-51.5749888521
 30
0.0
 11
49.3466488648
 21
-49.6501455576
 31
0.0
  0
LINE
  5
3F7
  8
0
  6
CONTINUOUS
 62
     7
 10
48.5466472436
 20
-57.5875264154
 30
0.0
 11
48.5466472436
 21
-51.5749888521
 31
0.0
  0
LINE
  5
3F8
  8
0
  6
CONTINUOUS
 62
     7
 10
49.3466488648
 20
-57.5875264154
 30
0.0
 11
49.3466488648
 21
-51.5749888521
 31
0.0
  0
LINE
  5
3F9
  8
0
  6
CONTINUOUS
 62
     7
 10
64.9466506768
 20
-47.5177936748
 30
0.0
 11
64.9466506768
 21
-45.4564508543
 31
0.0
  0
LINE
  5
3FA
  8
0
  6
CONTINUOUS
 62
     7
 10
64.9466506768
 20
-57.6564506189
 30
0.0
 11
64.9466506768
 21
-52.2250981097
 31
0.0
  0
LINE
  5
3FB
  8
0
  6
CONTINUOUS
 62
     7
 10
48.5466472436
 20
-47.9564507053
 30
0.0
 11
48.5466472436
 21
-45.4564508543
 31
0.0
  0
LINE
  5
3FC
  8
0
  6
CONTINUOUS
 62
     7
 10
48.5466472436
 20
-57.6564506189
 30
0.0
 11
48.5466472436
 21
-57.5875264154
 31
0.0
  0
POLYLINE
  5
3FD
  8
0
  6
CONTINUOUS
 62
     7
 66
     1
 10
0.0
 20
0.0
 30
0.0
  0
VERTEX
  5
9DD
  8
0
  6
CONTINUOUS
 62
     7
 10
288.5466508198
 20
-56.4808797584
 30
0.0
  0
VERTEX
  5
9DE
  8
0
  6
CONTINUOUS
 62
     7
 10
288.5597459603
 20
-56.4193591968
 30
0.0
  0
VERTEX
  5
9DF
  8
0
  6
CONTINUOUS
 62
     7
 10
288.5726742078
 20
-56.356450592
 30
0.0
  0
SEQEND
  5
9E4
  8
0
  6
CONTINUOUS
 62
     7
  0
LINE
  5
3FE
  8
0
  6
CONTINUOUS
 62
     7
 10
304.9466482926
 20
-57.6564506189
 30
0.0
 11
304.9466482926
 21
-45.4564508543
 31
0.0
  0
LINE
  5
3FF
  8
0
  6
CONTINUOUS
 62
     7
 10
288.5466508198
 20
-56.4808797584
 30
0.0
 11
288.5466508198
 21
-45.4564508543
 31
0.0
  0
LINE
  5
400
  8
0
  6
CONTINUOUS
 62
     7
 10
288.671796732
 20
-99.5564513401
 30
0.0
 11
288.6895648766
 21
-99.5564513401
 31
0.0
  0
LINE
  5
401
  8
0
  6
CONTINUOUS
 62
     7
 10
288.671796732
 20
-56.356450592
 30
0.0
 11
288.671796732
 21
-99.5564513401
 31
0.0
  0
ARC
  5
402
  8
0
  6
CONTINUOUS
 62
     7
 10
305.5687102977
 20
87.1190074603
 30
0.0
 40
144.4675034079558
 50
263.6006838942
 51
264.7013199386
  0
LINE
  5
403
  8
0
  6
CONTINUOUS
 62
     7
 10
292.2274760533
 20
-56.7311611519
 30
0.0
 11
292.2274760533
 21
-62.8288753823
 31
0.0
  0
ARC
  5
404
  8
0
  6
CONTINUOUS
 62
     7
 10
293.4253203138
 20
-62.8339503963
 30
0.0
 40
1.197855011365068
 50
179.7572512941
 51
249.5365545004
  0
LINE
  5
405
  8
0
  6
CONTINUOUS
 62
     7
 10
288.671796732
 20
-56.356450592
 30
0.0
 11
289.4717983533
 21
-56.356450592
 31
0.0
  0
LINE
  5
406
  8
0
  6
CONTINUOUS
 62
     7
 10
288.671796732
 20
-99.5564513401
 30
0.0
 11
288.5466508198
 21
-99.5564513401
 31
0.0
  0
LINE
  5
407
  8
0
  6
CONTINUOUS
 62
     7
 10
288.5726742078
 20
-56.356450592
 30
0.0
 11
288.671796732
 21
-56.356450592
 31
0.0
  0
LINE
  5
408
  8
0
  6
CONTINUOUS
 62
     7
 10
288.5466508198
 20
-99.5564513401
 30
0.0
 11
288.5466508198
 21
-56.4808797584
 31
0.0
  0
LINE
  5
409
  8
0
  6
CONTINUOUS
 62
     7
 10
169.346650653
 20
-48.5321311773
 30
0.0
 11
169.346650653
 21
-49.6501455576
 31
0.0
  0
LINE
  5
40A
  8
0
  6
CONTINUOUS
 62
     7
 10
168.5466490317
 20
-49.6501455576
 30
0.0
 11
168.5466490317
 21
-47.9564507053
 31
0.0
  0
LINE
  5
40B
  8
0
  6
CONTINUOUS
 62
     7
 10
168.6311892796
 20
-47.4226851509
 30
0.0
 11
168.5466490317
 21
-47.9564507053
 31
0.0
  0
LINE
  5
40C
  8
0
  6
CONTINUOUS
 62
     7
 10
168.5466490317
 20
-51.5749888521
 30
0.0
 11
168.5466490317
 21
-49.6501455576
 31
0.0
  0
LINE
  5
40D
  8
0
  6
CONTINUOUS
 62
     7
 10
169.346650653
 20
-51.5749888521
 30
0.0
 11
169.346650653
 21
-49.6501455576
 31
0.0
  0
LINE
  5
40E
  8
0
  6
CONTINUOUS
 62
     7
 10
168.5466490317
 20
-57.5875264154
 30
0.0
 11
168.5466490317
 21
-51.5749888521
 31
0.0
  0
LINE
  5
40F
  8
0
  6
CONTINUOUS
 62
     7
 10
169.346650653
 20
-57.5875264154
 30
0.0
 11
169.346650653
 21
-51.5749888521
 31
0.0
  0
LINE
  5
410
  8
0
  6
CONTINUOUS
 62
     7
 10
184.9466494847
 20
-47.5177936748
 30
0.0
 11
184.9466494847
 21
-45.4564508543
 31
0.0
  0
LINE
  5
411
  8
0
  6
CONTINUOUS
 62
     7
 10
184.9466494847
 20
-57.6564506189
 30
0.0
 11
184.9466494847
 21
-52.2250981097
 31
0.0
  0
LINE
  5
412
  8
0
  6
CONTINUOUS
 62
     7
 10
168.5466490317
 20
-47.9564507053
 30
0.0
 11
168.5466490317
 21
-45.4564508543
 31
0.0
  0
LINE
  5
413
  8
0
  6
CONTINUOUS
 62
     7
 10
168.5466490317
 20
-57.6564506189
 30
0.0
 11
168.5466490317
 21
-57.5875264154
 31
0.0
  0
POLYLINE
  5
414
  8
0
  6
CONTINUOUS
 62
     7
 66
     1
 10
0.0
 20
0.0
 30
0.0
  0
VERTEX
  5
9E0
  8
0
  6
CONTINUOUS
 62
     7
 10
363.9206282426
 20
-56.356450592
 30
0.0
  0
VERTEX
  5
9E1
  8
0
  6
CONTINUOUS
 62
     7
 10
363.9335505295
 20
-56.4193591968
 30
0.0
  0
VERTEX
  5
9E2
  8
0
  6
CONTINUOUS
 62
     7
 10
363.9466516305
 20
-56.4808797584
 30
0.0
  0
SEQEND
  5
9E3
  8
0
  6
CONTINUOUS
 62
     7
  0
LINE
  5
415
  8
0
  6
CONTINUOUS
 62
     7
 10
363.9466516305
 20
-45.4564508543
 30
0.0
 11
363.9466516305
 21
-56.4808797584
 31
0.0
  0
LINE
  5
416
  8
0
  6
CONTINUOUS
 62
     7
 10
347.5466481972
 20
-45.4564508543
 30
0.0
 11
347.5466481972
 21
-57.6564506189
 31
0.0
  0
LINE
  5
417
  8
0
  6
CONTINUOUS
 62
     7
 10
363.8037316132
 20
-99.5564513401
 30
0.0
 11
363.8215057183
 21
-99.5564513401
 31
0.0
  0
ARC
  5
418
  8
0
  6
CONTINUOUS
 62
     7
 10
359.0681796409
 20
-62.834053379
 30
0.0
 40
1.197657949531146
 50
290.0298692716
 51
0.247715368
  0
LINE
  5
419
  8
0
  6
CONTINUOUS
 62
     7
 10
360.265826397
 20
-62.8288753823
 30
0.0
 11
360.265826397
 21
-56.7311611519
 31
0.0
  0
ARC
  5
41A
  8
0
  6
CONTINUOUS
 62
     7
 10
347.0628413715
 20
85.7691130592
 30
0.0
 40
143.1106109406525
 50
275.2934758275
 51
276.4045454211
  0
LINE
  5
41B
  8
0
  6
CONTINUOUS
 62
     7
 10
363.0215040971
 20
-56.356450592
 30
0.0
 11
363.8215057183
 21
-56.356450592
 31
0.0
  0
LINE
  5
41C
  8
0
  6
CONTINUOUS
 62
     7
 10
363.8215057183
 20
-99.5564513401
 30
0.0
 11
363.8215057183
 21
-56.356450592
 31
0.0
  0
LINE
  5
41D
  8
0
  6
CONTINUOUS
 62
     7
 10
363.8215057183
 20
-99.5564513401
 30
0.0
 11
363.9466516305
 21
-99.5564513401
 31
0.0
  0
LINE
  5
41E
  8
0
  6
CONTINUOUS
 62
     7
 10
363.8215057183
 20
-56.356450592
 30
0.0
 11
363.9206282426
 21
-56.356450592
 31
0.0
  0
LINE
  5
41F
  8
0
  6
CONTINUOUS
 62
     7
 10
363.9466516305
 20
-56.4808797584
 30
0.0
 11
363.9466516305
 21
-99.5564513401
 31
0.0
  0
LINE
  5
420
  8
0
  6
CONTINUOUS
 62
     7
 10
123.8892785836
 20
-47.5942153976
 30
0.0
 11
123.9466480542
 21
-47.9564507053
 31
0.0
  0
LINE
  5
421
  8
0
  6
CONTINUOUS
 62
     7
 10
123.9466480542
 20
-47.9564507053
 30
0.0
 11
123.9466480542
 21
-49.6501455576
 31
0.0
  0
LINE
  5
422
  8
0
  6
CONTINUOUS
 62
     7
 10
123.1466523934
 20
-49.6501455576
 30
0.0
 11
123.1466523934
 21
-48.5407319412
 31
0.0
  0
LINE
  5
423
  8
0
  6
CONTINUOUS
 62
     7
 10
123.9466480542
 20
-49.6501455576
 30
0.0
 11
123.9466480542
 21
-51.5749888521
 31
0.0
  0
LINE
  5
424
  8
0
  6
CONTINUOUS
 62
     7
 10
123.1466523934
 20
-49.6501455576
 30
0.0
 11
123.1466523934
 21
-51.5749888521
 31
0.0
  0
LINE
  5
425
  8
0
  6
CONTINUOUS
 62
     7
 10
123.9466480542
 20
-51.5749888521
 30
0.0
 11
123.9466480542
 21
-57.5875264154
 31
0.0
  0
LINE
  5
426
  8
0
  6
CONTINUOUS
 62
     7
 10
123.1466523934
 20
-51.5749888521
 30
0.0
 11
123.1466523934
 21
-57.5875264154
 31
0.0
  0
LINE
  5
427
  8
0
  6
CONTINUOUS
 62
     7
 10
107.5466505814
 20
-45.4564508543
 30
0.0
 11
107.5466505814
 21
-47.5218285368
 31
0.0
  0
LINE
  5
428
  8
0
  6
CONTINUOUS
 62
     7
 10
107.5466505814
 20
-52.2128683542
 30
0.0
 11
107.5466505814
 21
-57.6564506189
 31
0.0
  0
LINE
  5
429
  8
0
  6
CONTINUOUS
 62
     7
 10
123.9466480542
 20
-57.5875264154
 30
0.0
 11
123.9466480542
 21
-57.6564506189
 31
0.0
  0
LINE
  5
42A
  8
0
  6
CONTINUOUS
 62
     7
 10
123.9466480542
 20
-45.4564508543
 30
0.0
 11
123.9466480542
 21
-47.9564507053
 31
0.0
  0
LINE
  5
42B
  8
0
  6
CONTINUOUS
 62
     7
 10
243.8576094437
 20
-47.3942798123
 30
0.0
 11
243.9466498423
 21
-47.9564507053
 31
0.0
  0
LINE
  5
42C
  8
0
  6
CONTINUOUS
 62
     7
 10
243.9466498423
 20
-47.9564507053
 30
0.0
 11
243.9466498423
 21
-49.6501455576
 31
0.0
  0
LINE
  5
42D
  8
0
  6
CONTINUOUS
 62
     7
 10
243.1466482211
 20
-49.6501455576
 30
0.0
 11
243.1466482211
 21
-48.5407319412
 31
0.0
  0
LINE
  5
42E
  8
0
  6
CONTINUOUS
 62
     7
 10
243.9466498423
 20
-49.6501455576
 30
0.0
 11
243.9466498423
 21
-51.5749888521
 31
0.0
  0
LINE
  5
42F
  8
0
  6
CONTINUOUS
 62
     7
 10
243.1466482211
 20
-49.6501455576
 30
0.0
 11
243.1466482211
 21
-51.5749888521
 31
0.0
  0
LINE
  5
430
  8
0
  6
CONTINUOUS
 62
     7
 10
243.9466498423
 20
-51.5749888521
 30
0.0
 11
243.9466498423
 21
-57.5875264154
 31
0.0
  0
LINE
  5
431
  8
0
  6
CONTINUOUS
 62
     7
 10
243.1466482211
 20
-51.5749888521
 30
0.0
 11
243.1466482211
 21
-57.5875264154
 31
0.0
  0
LINE
  5
432
  8
0
  6
CONTINUOUS
 62
     7
 10
227.5466493893
 20
-45.4564508543
 30
0.0
 11
227.5466493893
 21
-47.5218285368
 31
0.0
  0
LINE
  5
433
  8
0
  6
CONTINUOUS
 62
     7
 10
227.5466493893
 20
-52.2128683542
 30
0.0
 11
227.5466493893
 21
-57.6564506189
 31
0.0
  0
LINE
  5
434
  8
0
  6
CONTINUOUS
 62
     7
 10
243.9466498423
 20
-57.5875264154
 30
0.0
 11
243.9466498423
 21
-57.6564506189
 31
0.0
  0
LINE
  5
435
  8
0
  6
CONTINUOUS
 62
     7
 10
243.9466498423
 20
-45.4564508543
 30
0.0
 11
243.9466498423
 21
-47.9564507053
 31
0.0
  0
LINE
  5
436
  8
0
  6
CONTINUOUS
 62
     7
 10
364.2466537286
 20
-45.9426437066
 30
0.0
 11
364.2466537286
 21
-57.9564504818
 31
0.0
  0
LINE
  5
437
  8
0
  6
CONTINUOUS
 62
     7
 10
367.6466457177
 20
-45.9426437066
 30
0.0
 11
367.6466457177
 21
-57.9564504818
 31
0.0
  0
LINE
  5
438
  8
0
  6
CONTINUOUS
 62
     7
 10
346.846651249
 20
-45.5564506844
 30
0.0
 11
346.846651249
 21
-57.5564507887
 31
0.0
  0
LINE
  5
439
  8
0
  6
CONTINUOUS
 62
     7
 10
364.2466537286
 20
-42.9564506308
 30
0.0
 11
364.2466537286
 21
-45.9426437066
 31
0.0
  0
LINE
  5
43A
  8
0
  6
CONTINUOUS
 62
     7
 10
367.6466457177
 20
-42.9564506308
 30
0.0
 11
367.6466457177
 21
-45.9426437066
 31
0.0
  0
LINE
  5
43B
  8
0
  6
CONTINUOUS
 62
     7
 10
124.2466501523
 20
-45.9426437066
 30
0.0
 11
124.2466501523
 21
-57.9564504818
 31
0.0
  0
LINE
  5
43C
  8
0
  6
CONTINUOUS
 62
     7
 10
127.6466481019
 20
-45.9426437066
 30
0.0
 11
127.6466481019
 21
-57.9564504818
 31
0.0
  0
LINE
  5
43D
  8
0
  6
CONTINUOUS
 62
     7
 10
106.8466476727
 20
-45.5564506844
 30
0.0
 11
106.8466476727
 21
-47.5678094224
 31
0.0
  0
LINE
  5
43E
  8
0
  6
CONTINUOUS
 62
     7
 10
106.8466476727
 20
-52.2725871325
 30
0.0
 11
106.8466476727
 21
-57.5564507887
 31
0.0
  0
LINE
  5
43F
  8
0
  6
CONTINUOUS
 62
     7
 10
124.2466501523
 20
-42.9564506308
 30
0.0
 11
124.2466501523
 21
-45.9426437066
 31
0.0
  0
LINE
  5
440
  8
0
  6
CONTINUOUS
 62
     7
 10
127.6466481019
 20
-42.9564506308
 30
0.0
 11
127.6466481019
 21
-45.9426437066
 31
0.0
  0
LINE
  5
441
  8
0
  6
CONTINUOUS
 62
     7
 10
244.2466489602
 20
-45.9426437066
 30
0.0
 11
244.2466489602
 21
-57.9564504818
 31
0.0
  0
LINE
  5
442
  8
0
  6
CONTINUOUS
 62
     7
 10
247.64664989
 20
-45.9426437066
 30
0.0
 11
247.64664989
 21
-57.9564504818
 31
0.0
  0
LINE
  5
443
  8
0
  6
CONTINUOUS
 62
     7
 10
226.8466494609
 20
-45.5564506844
 30
0.0
 11
226.8466494609
 21
-47.5678094224
 31
0.0
  0
LINE
  5
444
  8
0
  6
CONTINUOUS
 62
     7
 10
226.8466494609
 20
-52.2725871325
 30
0.0
 11
226.8466494609
 21
-57.5564507887
 31
0.0
  0
LINE
  5
445
  8
0
  6
CONTINUOUS
 62
     7
 10
244.2466489602
 20
-42.9564506308
 30
0.0
 11
244.2466489602
 21
-45.9426437066
 31
0.0
  0
LINE
  5
446
  8
0
  6
CONTINUOUS
 62
     7
 10
247.64664989
 20
-42.9564506308
 30
0.0
 11
247.64664989
 21
-45.9426437066
 31
0.0
  0
LINE
  5
447
  8
0
  6
CONTINUOUS
 62
     7
 10
288.2466487218
 20
-45.9426437066
 30
0.0
 11
288.2466487218
 21
-57.9564504818
 31
0.0
  0
LINE
  5
448
  8
0
  6
CONTINUOUS
 62
     7
 10
284.8466507722
 20
-45.9426437066
 30
0.0
 11
284.8466507722
 21
-57.9564504818
 31
0.0
  0
LINE
  5
449
  8
0
  6
CONTINUOUS
 62
     7
 10
305.6466512013
 20
-45.5564506844
 30
0.0
 11
305.6466512013
 21
-57.5564507887
 31
0.0
  0
LINE
  5
44A
  8
0
  6
CONTINUOUS
 62
     7
 10
288.2466487218
 20
-42.9564506308
 30
0.0
 11
288.2466487218
 21
-45.9426437066
 31
0.0
  0
LINE
  5
44B
  8
0
  6
CONTINUOUS
 62
     7
 10
284.8466507722
 20
-42.9564506308
 30
0.0
 11
284.8466507722
 21
-45.9426437066
 31
0.0
  0
LINE
  5
44C
  8
0
  6
CONTINUOUS
 62
     7
 10
164.846648984
 20
-45.9426437066
 30
0.0
 11
164.846648984
 21
-57.9564504818
 31
0.0
  0
LINE
  5
44D
  8
0
  6
CONTINUOUS
 62
     7
 10
168.2466499139
 20
-45.9426437066
 30
0.0
 11
168.2466499139
 21
-57.9564504818
 31
0.0
  0
LINE
  5
44E
  8
0
  6
CONTINUOUS
 62
     7
 10
185.6466494132
 20
-45.5564506844
 30
0.0
 11
185.6466494132
 21
-47.5679472581
 31
0.0
  0
LINE
  5
44F
  8
0
  6
CONTINUOUS
 62
     7
 10
185.6466494132
 20
-52.289206677
 30
0.0
 11
185.6466494132
 21
-57.5564507887
 31
0.0
  0
LINE
  5
450
  8
0
  6
CONTINUOUS
 62
     7
 10
164.846648984
 20
-42.9564506308
 30
0.0
 11
164.846648984
 21
-45.9426437066
 31
0.0
  0
LINE
  5
451
  8
0
  6
CONTINUOUS
 62
     7
 10
168.2466499139
 20
-42.9564506308
 30
0.0
 11
168.2466499139
 21
-45.9426437066
 31
0.0
  0
LINE
  5
452
  8
0
  6
CONTINUOUS
 62
     7
 10
48.2466451455
 20
-45.9426437066
 30
0.0
 11
48.2466451455
 21
-57.9564504818
 31
0.0
  0
LINE
  5
453
  8
0
  6
CONTINUOUS
 62
     7
 10
44.8466531563
 20
-45.9426437066
 30
0.0
 11
44.8466531563
 21
-57.9564504818
 31
0.0
  0
LINE
  5
454
  8
0
  6
CONTINUOUS
 62
     7
 10
65.646647625
 20
-45.5564506844
 30
0.0
 11
65.646647625
 21
-47.5679472581
 31
0.0
  0
LINE
  5
455
  8
0
  6
CONTINUOUS
 62
     7
 10
65.646647625
 20
-52.289206677
 30
0.0
 11
65.646647625
 21
-57.5564507887
 31
0.0
  0
LINE
  5
456
  8
0
  6
CONTINUOUS
 62
     7
 10
48.2466451455
 20
-42.9564506308
 30
0.0
 11
48.2466451455
 21
-45.9426437066
 31
0.0
  0
LINE
  5
457
  8
0
  6
CONTINUOUS
 62
     7
 10
44.8466531563
 20
-42.9564506308
 30
0.0
 11
44.8466531563
 21
-45.9426437066
 31
0.0
  0
ENDSEC
  0
EOF
