  0
SECTION
  2
HEADER
  9
$ACADVER
  1
AC1009
  9
$DWGCODEPAGE
  3
ansi_1252
  9
$INSBASE
 10
0.0
 20
0.0
 30
0.0
  9
$EXTMIN
 10
0.0
 20
0.0
 30
0.0
  9
$EXTMAX
 10
420.0
 20
297.0
 30
0.0
  9
$LIMMIN
 10
0.0
 20
0.0
  9
$LIMMAX
 10
420.0
 20
297.0
  9
$ORTHOMODE
 70
     0
  9
$REGENMODE
 70
     1
  9
$FILLMODE
 70
     1
  9
$QTEXTMODE
 70
     0
  9
$MIRRTEXT
 70
     1
  9
$DRAGMODE
 70
     2
  9
$LTSCALE
 40
1.0
  9
$OSMODE
 70
    37
  9
$ATTMODE
 70
     1
  9
$TEXTSIZE
 40
3.5
  9
$TRACEWID
 40
1.0
  9
$TEXTSTYLE
  7
STANDARD
  9
$CLAYER
  8
0
  9
$CELTYPE
  6
BYLAYER
  9
$CECOLOR
 62
   256
  9
$DIMSCALE
 40
1.0
  9
$DIMASZ
 40
4.0
  9
$DIMEXO
 40
0.0
  9
$DIMDLI
 40
3.75
  9
$DIMRND
 40
0.0
  9
$DIMDLE
 40
0.0
  9
$DIMEXE
 40
2.0
  9
$DIMTP
 40
0.0
  9
$DIMTM
 40
0.0
  9
$DIMTXT
 40
3.5
  9
$DIMCEN
 40
2.5
  9
$DIMTSZ
 40
0.0
  9
$DIMTOL
 70
     0
  9
$DIMLIM
 70
     0
  9
$DIMTIH
 70
     1
  9
$DIMTOH
 70
     1
  9
$DIMSE1
 70
     0
  9
$DIMSE2
 70
     0
  9
$DIMTAD
 70
     1
  9
$DIMZIN
 70
     0
  9
$DIMBLK
  1

  9
$DIMASO
 70
     1
  9
$DIMSHO
 70
     1
  9
$DIMPOST
  1

  9
$DIMAPOST
  1

  9
$DIMALT
 70
     0
  9
$DIMALTD
 70
     3
  9
$DIMALTF
 40
0.0393700787
  9
$DIMLFAC
 40
5.0
  9
$DIMTOFL
 70
     1
  9
$DIMTVP
 40
0.0
  9
$DIMTIX
 70
     0
  9
$DIMSOXD
 70
     0
  9
$DIMSAH
 70
     0
  9
$DIMBLK1
  1

  9
$DIMBLK2
  1

  9
$DIMSTYLE
  2
ISO-25
  9
$DIMCLRD
 70
     0
  9
$DIMCLRE
 70
     0
  9
$DIMCLRT
 70
     0
  9
$DIMTFAC
 40
1.0
  9
$DIMGAP
 40
1.524
  9
$LUNITS
 70
     2
  9
$LUPREC
 70
     2
  9
$SKETCHINC
 40
1.0
  9
$FILLETRAD
 40
10.0
  9
$AUNITS
 70
     0
  9
$AUPREC
 70
     2
  9
$MENU
  1
.
  9
$ELEVATION
 40
0.0
  9
$PELEVATION
 40
0.0
  9
$THICKNESS
 40
0.0
  9
$LIMCHECK
 70
     0
  9
$CHAMFERA
 40
10.0
  9
$CHAMFERB
 40
10.0
  9
$SKPOLY
 70
     0
  9
$TDCREATE
 40
2457802.341213067
  9
$TDUPDATE
 40
2457802.341213276
  9
$TDINDWG
 40
0.0000000116
  9
$TDUSRTIMER
 40
0.0000000116
  9
$USRTIMER
 70
     1
  9
$ANGBASE
 50
0.0
  9
$ANGDIR
 70
     0
  9
$PDMODE
 70
     0
  9
$PDSIZE
 40
-1.0
  9
$PLINEWID
 40
0.0
  9
$COORDS
 70
     1
  9
$SPLFRAME
 70
     0
  9
$SPLINETYPE
 70
     6
  9
$SPLINESEGS
 70
     8
  9
$ATTDIA
 70
     0
  9
$ATTREQ
 70
     1
  9
$HANDLING
 70
     1
  9
$HANDSEED
  5
56A
  9
$SURFTAB1
 70
     6
  9
$SURFTAB2
 70
     6
  9
$SURFTYPE
 70
     6
  9
$SURFU
 70
     6
  9
$SURFV
 70
     6
  9
$UCSNAME
  2

  9
$UCSORG
 10
0.0
 20
0.0
 30
0.0
  9
$UCSXDIR
 10
1.0
 20
0.0
 30
0.0
  9
$UCSYDIR
 10
0.0
 20
1.0
 30
0.0
  9
$PUCSNAME
  2

  9
$PUCSORG
 10
0.0
 20
0.0
 30
0.0
  9
$PUCSXDIR
 10
1.0
 20
0.0
 30
0.0
  9
$PUCSYDIR
 10
0.0
 20
1.0
 30
0.0
  9
$USERI1
 70
     0
  9
$USERI2
 70
     0
  9
$USERI3
 70
     0
  9
$USERI4
 70
     0
  9
$USERI5
 70
     0
  9
$USERR1
 40
0.0
  9
$USERR2
 40
0.0
  9
$USERR3
 40
0.0
  9
$USERR4
 40
0.0
  9
$USERR5
 40
0.0
  9
$WORLDVIEW
 70
     1
  9
$SHADEDGE
 70
     3
  9
$SHADEDIF
 70
    70
  9
$TILEMODE
 70
     1
  9
$MAXACTVP
 70
    64
  9
$PLIMCHECK
 70
     0
  9
$PEXTMIN
 10
1.0000000000E+20
 20
1.0000000000E+20
 30
1.0000000000E+20
  9
$PEXTMAX
 10
-1.0000000000E+20
 20
-1.0000000000E+20
 30
-1.0000000000E+20
  9
$PLIMMIN
 10
0.0
 20
0.0
  9
$PLIMMAX
 10
420.0
 20
297.0
  9
$UNITMODE
 70
     0
  9
$VISRETAIN
 70
     1
  9
$PLINEGEN
 70
     0
  9
$PSLTSCALE
 70
     1
  0
ENDSEC
  0
SECTION
  2
TABLES
  0
TABLE
  2
VPORT
 70
     1
  0
VPORT
  2
*ACTIVE
 70
     0
 10
0.0
 20
0.0
 11
1.0
 21
1.0
 12
210.0
 22
148.5
 13
0.0
 23
0.0
 14
10.0
 24
10.0
 15
10.0
 25
10.0
 16
0.0
 26
0.0
 36
1.0
 17
0.0
 27
0.0
 37
0.0
 40
297.0
 41
1.4141414141
 42
50.0
 43
0.0
 44
0.0
 50
0.0
 51
0.0
 71
     0
 72
  2000
 73
     1
 74
     3
 75
     0
 76
     0
 77
     0
 78
     0
  0
ENDTAB
  0
TABLE
  2
LTYPE
 70
     6
  0
LTYPE
  2
CONTINUOUS
 70
     0
  3
Solid line
 72
    65
 73
     0
 40
0.0
  0
LTYPE
  2
HIDDEN
 70
     0
  3
Hidden __ __ __ __ __ __ __ __ __ __ __ __ __ __
 72
    65
 73
     2
 40
1.905
 49
1.27
 49
-0.635
  0
LTYPE
  2
PHANTOM
 70
     0
  3
Phantom ______  __  __  ______  __  __  ______
 72
    65
 73
     6
 40
12.7
 49
6.35
 49
-1.27
 49
1.27
 49
-1.27
 49
1.27
 49
-1.27
  0
LTYPE
  2
CENTER
 70
     0
  3
Center ____ _ ____ _ ____ _ ____ _ ____ _ ____
 72
    65
 73
     4
 40
10.16
 49
6.35
 49
-1.27
 49
1.27
 49
-1.27
  0
LTYPE
  2
CENTERX2
 70
     0
  3
Center (2x) ________  __  ________  __  _____
 72
    65
 73
     4
 40
20.32
 49
12.7
 49
-2.54
 49
2.54
 49
-2.54
  0
LTYPE
  2
DOT2
 70
     0
  3
Dot (.5x) ........................................
 72
    65
 73
     2
 40
0.635
 49
0.0
 49
-0.635
  0
ENDTAB
  0
TABLE
  2
LAYER
 70
     2
  0
LAYER
  2
0
 70
     0
 62
     7
  6
CONTINUOUS
  0
LAYER
  2
FORMAT
 70
     0
 62
     7
  6
CONTINUOUS
  0
ENDTAB
  0
TABLE
  2
STYLE
 70
     1
  0
STYLE
  2
STANDARD
 70
     0
 40
0.0
 41
1.0
 50
0.0
 71
     0
 42
3.5
  3
txt
  4

  0
ENDTAB
  0
TABLE
  2
VIEW
 70
     0
  0
ENDTAB
  0
TABLE
  2
UCS
 70
     0
  0
ENDTAB
  0
TABLE
  2
APPID
 70
     1
  0
APPID
  2
ACAD
 70
     0
  0
ENDTAB
  0
TABLE
  2
DIMSTYLE
 70
     1
  0
DIMSTYLE
  2
ISO-25
 70
     0
  3

  4

  5

  6

  7

 40
1.0
 41
2.5
 42
0.625
 43
3.75
 44
1.25
 45
0.0
 46
0.0
 47
0.0
 48
0.0
140
2.5
141
2.5
142
0.0
143
0.0393700787
144
1.0
145
0.0
146
1.0
147
0.625
 71
     0
 72
     0
 73
     0
 74
     0
 75
     0
 76
     0
 77
     1
 78
     8
170
     0
171
     3
172
     1
173
     0
174
     0
175
     0
176
     0
177
     0
178
     0
  0
ENDTAB
  0
ENDSEC
  0
SECTION
  2
BLOCKS
  0
BLOCK
  8
0
  2
$MODEL_SPACE
 70
     0
 10
0.0
 20
0.0
 30
0.0
  3
$MODEL_SPACE
  1

  0
ENDBLK
  5
21
  8
0
  0
BLOCK
 67
     1
  8
0
  2
$PAPER_SPACE
 70
     0
 10
0.0
 20
0.0
 30
0.0
  3
$PAPER_SPACE
  1

  0
ENDBLK
  5
1D
 67
     1
  8
0
  0
ENDSEC
  0
SECTION
  2
ENTITIES
  0
POLYLINE
  5
45
  8
0
  6
CONTINUOUS
 62
     7
 66
     1
 10
0.0
 20
0.0
 30
0.0
  0
VERTEX
  5
268
  8
0
  6
CONTINUOUS
 62
     7
 10
241.6526571047
 20
159.9041130128
 30
0.0
  0
VERTEX
  5
269
  8
0
  6
CONTINUOUS
 62
     7
 10
240.665049864
 20
159.7722436967
 30
0.0
  0
VERTEX
  5
26A
  8
0
  6
CONTINUOUS
 62
     7
 10
239.4555345309
 20
159.6163298669
 30
0.0
  0
VERTEX
  5
26B
  8
0
  6
CONTINUOUS
 62
     7
 10
238.4714201224
 20
159.4934370103
 30
0.0
  0
VERTEX
  5
26C
  8
0
  6
CONTINUOUS
 62
     7
 10
237.7130106222
 20
159.4011451784
 30
0.0
  0
VERTEX
  5
26D
  8
0
  6
CONTINUOUS
 62
     7
 10
237.1073261034
 20
159.3298520627
 30
0.0
  0
VERTEX
  5
26E
  8
0
  6
CONTINUOUS
 62
     7
 10
236.5111485255
 20
159.2637207094
 30
0.0
  0
VERTEX
  5
26F
  8
0
  6
CONTINUOUS
 62
     7
 10
235.6276586783
 20
159.1733660283
 30
0.0
  0
VERTEX
  5
270
  8
0
  6
CONTINUOUS
 62
     7
 10
234.7571864855
 20
159.0929593625
 30
0.0
  0
VERTEX
  5
271
  8
0
  6
CONTINUOUS
 62
     7
 10
233.8998749983
 20
159.02106424
 30
0.0
  0
VERTEX
  5
272
  8
0
  6
CONTINUOUS
 62
     7
 10
233.0559924376
 20
158.9552607122
 30
0.0
  0
VERTEX
  5
273
  8
0
  6
CONTINUOUS
 62
     7
 10
232.2206393015
 20
158.891018826
 30
0.0
  0
VERTEX
  5
274
  8
0
  6
CONTINUOUS
 62
     7
 10
231.3664868605
 20
158.8225271287
 30
0.0
  0
VERTEX
  5
275
  8
0
  6
CONTINUOUS
 62
     7
 10
230.4892495405
 20
158.7533380571
 30
0.0
  0
VERTEX
  5
276
  8
0
  6
CONTINUOUS
 62
     7
 10
229.5886471998
 20
158.6867537084
 30
0.0
  0
VERTEX
  5
277
  8
0
  6
CONTINUOUS
 62
     7
 10
228.6645069849
 20
158.6232926431
 30
0.0
  0
VERTEX
  5
278
  8
0
  6
CONTINUOUS
 62
     7
 10
227.7168229353
 20
158.5627283636
 30
0.0
  0
VERTEX
  5
279
  8
0
  6
CONTINUOUS
 62
     7
 10
226.8358484041
 20
158.510133225
 30
0.0
  0
VERTEX
  5
27A
  8
0
  6
CONTINUOUS
 62
     7
 10
226.1723056567
 20
158.4724630895
 30
0.0
  0
VERTEX
  5
27B
  8
0
  6
CONTINUOUS
 62
     7
 10
225.6724909079
 20
158.4451403203
 30
0.0
  0
VERTEX
  5
27C
  8
0
  6
CONTINUOUS
 62
     7
 10
225.0563278925
 20
158.4126021448
 30
0.0
  0
VERTEX
  5
27D
  8
0
  6
CONTINUOUS
 62
     7
 10
224.2837146056
 20
158.3734955373
 30
0.0
  0
VERTEX
  5
27E
  8
0
  6
CONTINUOUS
 62
     7
 10
223.3545795214
 20
158.3288635793
 30
0.0
  0
VERTEX
  5
27F
  8
0
  6
CONTINUOUS
 62
     7
 10
222.2688868773
 20
158.2799341264
 30
0.0
  0
VERTEX
  5
280
  8
0
  6
CONTINUOUS
 62
     7
 10
220.610280348
 20
158.2116689268
 30
0.0
  0
VERTEX
  5
281
  8
0
  6
CONTINUOUS
 62
     7
 10
218.6911121142
 20
158.1421401086
 30
0.0
  0
VERTEX
  5
282
  8
0
  6
CONTINUOUS
 62
     7
 10
216.6891709101
 20
158.0799009386
 30
0.0
  0
VERTEX
  5
283
  8
0
  6
CONTINUOUS
 62
     7
 10
211.2767234576
 20
157.9606797281
 30
0.0
  0
VERTEX
  5
284
  8
0
  6
CONTINUOUS
 62
     7
 10
205.7921961081
 20
157.9083170476
 30
0.0
  0
VERTEX
  5
285
  8
0
  6
CONTINUOUS
 62
     7
 10
202.2649899256
 20
157.9097654405
 30
0.0
  0
VERTEX
  5
286
  8
0
  6
CONTINUOUS
 62
     7
 10
198.709280802
 20
157.939043242
 30
0.0
  0
VERTEX
  5
287
  8
0
  6
CONTINUOUS
 62
     7
 10
195.2299073469
 20
157.995339829
 30
0.0
  0
VERTEX
  5
288
  8
0
  6
CONTINUOUS
 62
     7
 10
192.0017048847
 20
158.0729689184
 30
0.0
  0
VERTEX
  5
289
  8
0
  6
CONTINUOUS
 62
     7
 10
190.4120996725
 20
158.1205334249
 30
0.0
  0
VERTEX
  5
28A
  8
0
  6
CONTINUOUS
 62
     7
 10
188.8921931517
 20
158.1720258775
 30
0.0
  0
VERTEX
  5
28B
  8
0
  6
CONTINUOUS
 62
     7
 10
187.4419883024
 20
158.2268323484
 30
0.0
  0
VERTEX
  5
28C
  8
0
  6
CONTINUOUS
 62
     7
 10
186.0614910853
 20
158.2843925538
 30
0.0
  0
VERTEX
  5
28D
  8
0
  6
CONTINUOUS
 62
     7
 10
184.7506985199
 20
158.3441283288
 30
0.0
  0
VERTEX
  5
28E
  8
0
  6
CONTINUOUS
 62
     7
 10
183.5600987208
 20
158.4029044691
 30
0.0
  0
VERTEX
  5
28F
  8
0
  6
CONTINUOUS
 62
     7
 10
182.7398166191
 20
158.4460165086
 30
0.0
  0
VERTEX
  5
290
  8
0
  6
CONTINUOUS
 62
     7
 10
182.1031585467
 20
158.4810223165
 30
0.0
  0
VERTEX
  5
291
  8
0
  6
CONTINUOUS
 62
     7
 10
181.8536684048
 20
158.495118815
 30
0.0
  0
VERTEX
  5
292
  8
0
  6
CONTINUOUS
 62
     7
 10
181.6244915259
 20
158.5083212438
 30
0.0
  0
VERTEX
  5
293
  8
0
  6
CONTINUOUS
 62
     7
 10
181.3575819266
 20
158.5239972654
 30
0.0
  0
VERTEX
  5
294
  8
0
  6
CONTINUOUS
 62
     7
 10
181.0507282746
 20
158.5420515123
 30
0.0
  0
VERTEX
  5
295
  8
0
  6
CONTINUOUS
 62
     7
 10
180.4767146838
 20
158.5752393785
 30
0.0
  0
VERTEX
  5
296
  8
0
  6
CONTINUOUS
 62
     7
 10
179.8004880678
 20
158.6147632184
 30
0.0
  0
VERTEX
  5
297
  8
0
  6
CONTINUOUS
 62
     7
 10
179.0313914549
 20
158.6620356622
 30
0.0
  0
VERTEX
  5
298
  8
0
  6
CONTINUOUS
 62
     7
 10
178.2216653359
 20
158.7157573286
 30
0.0
  0
VERTEX
  5
299
  8
0
  6
CONTINUOUS
 62
     7
 10
177.3794338238
 20
158.77608915
 30
0.0
  0
VERTEX
  5
29A
  8
0
  6
CONTINUOUS
 62
     7
 10
175.903736068
 20
158.8926519933
 30
0.0
  0
VERTEX
  5
29B
  8
0
  6
CONTINUOUS
 62
     7
 10
174.3384406102
 20
159.0313758436
 30
0.0
  0
VERTEX
  5
29C
  8
0
  6
CONTINUOUS
 62
     7
 10
172.6758882534
 20
159.195574719
 30
0.0
  0
VERTEX
  5
29D
  8
0
  6
CONTINUOUS
 62
     7
 10
171.2951913607
 20
159.3447651449
 30
0.0
  0
VERTEX
  5
29E
  8
0
  6
CONTINUOUS
 62
     7
 10
169.7769656908
 20
159.5211054864
 30
0.0
  0
VERTEX
  5
29F
  8
0
  6
CONTINUOUS
 62
     7
 10
168.1215107572
 20
159.7268249574
 30
0.0
  0
VERTEX
  5
2A0
  8
0
  6
CONTINUOUS
 62
     7
 10
166.7759418618
 20
159.9047209802
 30
0.0
  0
SEQEND
  5
569
  8
0
  6
CONTINUOUS
 62
     7
  0
LINE
  5
46
  8
0
  6
CONTINUOUS
 62
     7
 10
166.6283011567
 20
158.8431384149
 30
0.0
 11
166.6139394176
 21
158.7798323217
 31
0.0
  0
LINE
  5
47
  8
0
  6
CONTINUOUS
 62
     7
 10
166.7620211971
 20
159.9076118055
 30
0.0
 11
166.758696748
 21
159.8806168619
 31
0.0
  0
POLYLINE
  5
48
  8
0
  6
CONTINUOUS
 62
     7
 66
     1
 10
0.0
 20
0.0
 30
0.0
  0
VERTEX
  5
2A1
  8
0
  6
CONTINUOUS
 62
     7
 10
166.726346327
 20
159.6179451528
 30
0.0
  0
VERTEX
  5
2A2
  8
0
  6
CONTINUOUS
 62
     7
 10
166.6908487809
 20
159.329726893
 30
0.0
  0
VERTEX
  5
2A3
  8
0
  6
CONTINUOUS
 62
     7
 10
166.6141450536
 20
158.7330069127
 30
0.0
  0
SEQEND
  5
568
  8
0
  6
CONTINUOUS
 62
     7
  0
POLYLINE
  5
49
  8
0
  6
CONTINUOUS
 62
     7
 66
     1
 10
0.0
 20
0.0
 30
0.0
  0
VERTEX
  5
2A4
  8
0
  6
CONTINUOUS
 62
     7
 10
241.8147936594
 20
158.7313975873
 30
0.0
  0
VERTEX
  5
2A5
  8
0
  6
CONTINUOUS
 62
     7
 10
241.7379811537
 20
159.3289341512
 30
0.0
  0
VERTEX
  5
2A6
  8
0
  6
CONTINUOUS
 62
     7
 10
241.7029991877
 20
159.612956244
 30
0.0
  0
SEQEND
  5
567
  8
0
  6
CONTINUOUS
 62
     7
  0
LINE
  5
4A
  8
0
  6
CONTINUOUS
 62
     7
 10
241.6689112913
 20
159.8897065702
 30
0.0
 11
241.6667059195
 21
159.9076118055
 31
0.0
  0
LINE
  5
4B
  8
0
  6
CONTINUOUS
 62
     7
 10
241.814787699
 20
158.7798323217
 30
0.0
 11
241.8004349005
 21
158.8430966916
 31
0.0
  0
LINE
  5
4C
  8
0
  6
CONTINUOUS
 62
     7
 10
166.514363898
 20
148.3892824235
 30
0.0
 11
167.3143640291
 21
148.3892824235
 31
0.0
  0
LINE
  5
4D
  8
0
  6
CONTINUOUS
 62
     7
 10
166.514363898
 20
148.3203615728
 30
0.0
 11
182.9143628609
 21
148.3203615728
 31
0.0
  0
LINE
  5
4E
  8
0
  6
CONTINUOUS
 62
     7
 10
182.9143628609
 20
160.5203594747
 30
0.0
 11
166.514363898
 21
160.5203594747
 31
0.0
  0
LINE
  5
4F
  8
0
  6
CONTINUOUS
 62
     7
 10
46.5143636
 20
148.3203615728
 30
0.0
 11
62.9143610728
 21
148.3203615728
 31
0.0
  0
LINE
  5
50
  8
0
  6
CONTINUOUS
 62
     7
 10
62.9143610728
 20
160.5203594747
 30
0.0
 11
47.3143652212
 21
160.5203594747
 31
0.0
  0
LINE
  5
51
  8
0
  6
CONTINUOUS
 62
     7
 10
61.4132836592
 20
162.8395106378
 30
0.0
 11
61.4773526919
 21
162.8395106378
 31
0.0
  0
LINE
  5
52
  8
0
  6
CONTINUOUS
 62
     7
 10
241.1143615973
 20
148.3892824235
 30
0.0
 11
241.9143632185
 21
148.3892824235
 31
0.0
  0
LINE
  5
53
  8
0
  6
CONTINUOUS
 62
     7
 10
241.9143632185
 20
160.5203594747
 30
0.0
 11
225.5143657458
 21
160.5203594747
 31
0.0
  0
LINE
  5
54
  8
0
  6
CONTINUOUS
 62
     7
 10
225.5143657458
 20
148.3203615728
 30
0.0
 11
241.9143632185
 21
148.3203615728
 31
0.0
  0
LINE
  5
55
  8
0
  6
CONTINUOUS
 62
     7
 10
121.1143627894
 20
160.5203594747
 30
0.0
 11
105.5143639576
 21
160.5203594747
 31
0.0
  0
LINE
  5
56
  8
0
  6
CONTINUOUS
 62
     7
 10
105.5143639576
 20
148.3203615728
 30
0.0
 11
121.9143629205
 21
148.3203615728
 31
0.0
  0
LINE
  5
57
  8
0
  6
CONTINUOUS
 62
     7
 10
106.9513753187
 20
162.8395106378
 30
0.0
 11
107.0154443514
 21
162.8395106378
 31
0.0
  0
LINE
  5
58
  8
0
  6
CONTINUOUS
 62
     7
 10
245.6143692267
 20
160.8203615728
 30
0.0
 11
242.2143653166
 21
160.8203615728
 31
0.0
  0
LINE
  5
59
  8
0
  6
CONTINUOUS
 62
     7
 10
242.2143653166
 20
160.4203607622
 30
0.0
 11
241.9143632185
 21
160.4203607622
 31
0.0
  0
LINE
  5
5A
  8
0
  6
CONTINUOUS
 62
     7
 10
225.5143657458
 20
160.4203607622
 30
0.0
 11
224.8143628371
 21
160.4203607622
 31
0.0
  0
LINE
  5
5B
  8
0
  6
CONTINUOUS
 62
     7
 10
224.8143628371
 20
148.4203602853
 30
0.0
 11
225.5143657458
 21
148.4203602853
 31
0.0
  0
LINE
  5
5C
  8
0
  6
CONTINUOUS
 62
     7
 10
241.9143632185
 20
148.4203602853
 30
0.0
 11
242.2143653166
 21
148.4203602853
 31
0.0
  0
LINE
  5
5D
  8
0
  6
CONTINUOUS
 62
     7
 10
125.6143629682
 20
160.8203615728
 30
0.0
 11
122.2143635285
 21
160.8203615728
 31
0.0
  0
LINE
  5
5E
  8
0
  6
CONTINUOUS
 62
     7
 10
122.2143635285
 20
160.4203607622
 30
0.0
 11
121.9143629205
 21
160.4203607622
 31
0.0
  0
LINE
  5
5F
  8
0
  6
CONTINUOUS
 62
     7
 10
105.5143639576
 20
160.4203607622
 30
0.0
 11
104.8143640291
 21
160.4203607622
 31
0.0
  0
LINE
  5
60
  8
0
  6
CONTINUOUS
 62
     7
 10
104.8143640291
 20
148.4203602853
 30
0.0
 11
105.5143639576
 21
148.4203602853
 31
0.0
  0
LINE
  5
61
  8
0
  6
CONTINUOUS
 62
     7
 10
121.9143629205
 20
148.4203602853
 30
0.0
 11
122.2143635285
 21
148.4203602853
 31
0.0
  0
LINE
  5
62
  8
0
  6
CONTINUOUS
 62
     7
 10
46.2143615019
 20
160.8203615728
 30
0.0
 11
42.8143575918
 21
160.8203615728
 31
0.0
  0
LINE
  5
63
  8
0
  6
CONTINUOUS
 62
     7
 10
46.2143615019
 20
148.4203602853
 30
0.0
 11
46.5143636
 21
148.4203602853
 31
0.0
  0
LINE
  5
64
  8
0
  6
CONTINUOUS
 62
     7
 10
62.9143610728
 20
148.4203602853
 30
0.0
 11
63.6143639815
 21
148.4203602853
 31
0.0
  0
LINE
  5
65
  8
0
  6
CONTINUOUS
 62
     7
 10
63.6143639815
 20
160.4203607622
 30
0.0
 11
62.9143610728
 21
160.4203607622
 31
0.0
  0
LINE
  5
66
  8
0
  6
CONTINUOUS
 62
     7
 10
46.5143636
 20
160.4203607622
 30
0.0
 11
46.2143615019
 21
160.4203607622
 31
0.0
  0
LINE
  5
67
  8
0
  6
CONTINUOUS
 62
     7
 10
166.2143632901
 20
160.8203615728
 30
0.0
 11
162.8143638503
 21
160.8203615728
 31
0.0
  0
LINE
  5
68
  8
0
  6
CONTINUOUS
 62
     7
 10
166.2143632901
 20
148.4203602853
 30
0.0
 11
166.514363898
 21
148.4203602853
 31
0.0
  0
LINE
  5
69
  8
0
  6
CONTINUOUS
 62
     7
 10
182.9143628609
 20
148.4203602853
 30
0.0
 11
183.6143627894
 21
148.4203602853
 31
0.0
  0
LINE
  5
6A
  8
0
  6
CONTINUOUS
 62
     7
 10
183.6143627894
 20
160.4203607622
 30
0.0
 11
182.9143628609
 21
160.4203607622
 31
0.0
  0
LINE
  5
6B
  8
0
  6
CONTINUOUS
 62
     7
 10
166.514363898
 20
160.4203607622
 30
0.0
 11
166.2143632901
 21
160.4203607622
 31
0.0
  0
LINE
  5
6C
  8
0
  6
CONTINUOUS
 62
     7
 10
65.8000782263
 20
67.8203608575
 30
0.0
 11
62.0414331686
 21
67.8203608575
 31
0.0
  0
LINE
  5
6D
  8
0
  6
CONTINUOUS
 62
     7
 10
62.0414331686
 20
69.020360868
 30
0.0
 11
65.8000782263
 21
69.020360868
 31
0.0
  0
LINE
  5
6E
  8
0
  6
CONTINUOUS
 62
     7
 10
65.8000782263
 20
67.8203608575
 30
0.0
 11
72.6286485922
 21
67.8203608575
 31
0.0
  0
LINE
  5
6F
  8
0
  6
CONTINUOUS
 62
     7
 10
65.8000782263
 20
69.020360868
 30
0.0
 11
72.6286485922
 21
69.020360868
 31
0.0
  0
LINE
  5
70
  8
0
  6
CONTINUOUS
 62
     7
 10
76.3872936499
 20
67.8203608575
 30
0.0
 11
72.6286485922
 21
67.8203608575
 31
0.0
  0
LINE
  5
71
  8
0
  6
CONTINUOUS
 62
     7
 10
72.6286485922
 20
69.020360868
 30
0.0
 11
76.3872936499
 21
69.020360868
 31
0.0
  0
LINE
  5
72
  8
0
  6
CONTINUOUS
 62
     7
 10
212.0414331686
 20
69.020360868
 30
0.0
 11
215.8000782263
 21
69.020360868
 31
0.0
  0
LINE
  5
73
  8
0
  6
CONTINUOUS
 62
     7
 10
215.8000782263
 20
67.8203608575
 30
0.0
 11
212.0414331686
 21
67.8203608575
 31
0.0
  0
LINE
  5
74
  8
0
  6
CONTINUOUS
 62
     7
 10
222.6286485922
 20
69.020360868
 30
0.0
 11
226.3872936499
 21
69.020360868
 31
0.0
  0
LINE
  5
75
  8
0
  6
CONTINUOUS
 62
     7
 10
226.3872936499
 20
67.8203608575
 30
0.0
 11
222.6286485922
 21
67.8203608575
 31
0.0
  0
LINE
  5
76
  8
0
  6
CONTINUOUS
 62
     7
 10
215.8000782263
 20
69.020360868
 30
0.0
 11
222.6286485922
 21
69.020360868
 31
0.0
  0
LINE
  5
77
  8
0
  6
CONTINUOUS
 62
     7
 10
215.8000782263
 20
67.8203608575
 30
0.0
 11
222.6286485922
 21
67.8203608575
 31
0.0
  0
LINE
  5
78
  8
0
  6
CONTINUOUS
 62
     7
 10
57.2143629324
 20
67.8203608575
 30
0.0
 11
57.2143629324
 21
69.020360868
 31
0.0
  0
LINE
  5
79
  8
0
  6
CONTINUOUS
 62
     7
 10
57.2143629324
 20
67.8203608575
 30
0.0
 11
62.0414331686
 21
67.8203608575
 31
0.0
  0
LINE
  5
7A
  8
0
  6
CONTINUOUS
 62
     7
 10
62.0414331686
 20
69.020360868
 30
0.0
 11
57.2143629324
 21
69.020360868
 31
0.0
  0
LINE
  5
7B
  8
0
  6
CONTINUOUS
 62
     7
 10
81.2143638861
 20
67.8203608575
 30
0.0
 11
81.2143638861
 21
69.020360868
 31
0.0
  0
LINE
  5
7C
  8
0
  6
CONTINUOUS
 62
     7
 10
76.3872936499
 20
67.8203608575
 30
0.0
 11
81.2143638861
 21
67.8203608575
 31
0.0
  0
LINE
  5
7D
  8
0
  6
CONTINUOUS
 62
     7
 10
81.2143638861
 20
69.020360868
 30
0.0
 11
76.3872936499
 21
69.020360868
 31
0.0
  0
LINE
  5
7E
  8
0
  6
CONTINUOUS
 62
     7
 10
207.2143629324
 20
67.8203608575
 30
0.0
 11
207.2143629324
 21
69.020360868
 31
0.0
  0
LINE
  5
7F
  8
0
  6
CONTINUOUS
 62
     7
 10
212.0414331686
 20
69.020360868
 30
0.0
 11
207.2143629324
 21
69.020360868
 31
0.0
  0
LINE
  5
80
  8
0
  6
CONTINUOUS
 62
     7
 10
207.2143629324
 20
67.8203608575
 30
0.0
 11
212.0414331686
 21
67.8203608575
 31
0.0
  0
LINE
  5
81
  8
0
  6
CONTINUOUS
 62
     7
 10
231.2143638861
 20
67.8203608575
 30
0.0
 11
231.2143638861
 21
69.020360868
 31
0.0
  0
LINE
  5
82
  8
0
  6
CONTINUOUS
 62
     7
 10
231.2143638861
 20
69.020360868
 30
0.0
 11
226.3872936499
 21
69.020360868
 31
0.0
  0
LINE
  5
83
  8
0
  6
CONTINUOUS
 62
     7
 10
226.3872936499
 20
67.8203608575
 30
0.0
 11
231.2143638861
 21
67.8203608575
 31
0.0
  0
POLYLINE
  5
84
  8
0
  6
CONTINUOUS
 62
     7
 66
     1
 10
0.0
 20
0.0
 30
0.0
  0
VERTEX
  5
2A7
  8
0
  6
CONTINUOUS
 62
     7
 10
64.2143622172
 20
133.0203618589
 30
0.0
  0
VERTEX
  5
2A8
  8
0
  6
CONTINUOUS
 62
     7
 10
64.2335787546
 20
133.0395783964
 30
0.0
  0
VERTEX
  5
2A9
  8
0
  6
CONTINUOUS
 62
     7
 10
64.290483309
 20
133.0964829507
 30
0.0
  0
VERTEX
  5
2AA
  8
0
  6
CONTINUOUS
 62
     7
 10
64.3828943503
 20
133.188893992
 30
0.0
  0
VERTEX
  5
2AB
  8
0
  6
CONTINUOUS
 62
     7
 10
64.5072594416
 20
133.3132531228
 30
0.0
  0
VERTEX
  5
2AC
  8
0
  6
CONTINUOUS
 62
     7
 10
64.65879233
 20
133.4647919717
 30
0.0
  0
VERTEX
  5
2AD
  8
0
  6
CONTINUOUS
 62
     7
 10
64.8316815626
 20
133.6376752439
 30
0.0
  0
VERTEX
  5
2AE
  8
0
  6
CONTINUOUS
 62
     7
 10
65.0192752611
 20
133.8252689424
 30
0.0
  0
VERTEX
  5
2AF
  8
0
  6
CONTINUOUS
 62
     7
 10
65.2143612635
 20
134.0203609052
 30
0.0
  0
SEQEND
  5
566
  8
0
  6
CONTINUOUS
 62
     7
  0
LINE
  5
85
  8
0
  6
CONTINUOUS
 62
     7
 10
64.2143622172
 20
133.0203618589
 30
0.0
 11
51.4861419928
 21
133.0203618589
 31
0.0
  0
LINE
  5
86
  8
0
  6
CONTINUOUS
 62
     7
 10
43.94257815
 20
133.0203618589
 30
0.0
 11
41.0143688452
 21
133.0203618589
 31
0.0
  0
LINE
  5
87
  8
0
  6
CONTINUOUS
 62
     7
 10
64.2143622172
 20
69.020360868
 30
0.0
 11
64.2143622172
 21
133.0203618589
 31
0.0
  0
LINE
  5
88
  8
0
  6
CONTINUOUS
 62
     7
 10
40.6143620741
 20
134.0203609052
 30
0.0
 11
40.6143620741
 21
142.0203592363
 31
0.0
  0
POLYLINE
  5
89
  8
0
  6
CONTINUOUS
 62
     7
 66
     1
 10
0.0
 20
0.0
 30
0.0
  0
VERTEX
  5
2B0
  8
0
  6
CONTINUOUS
 62
     7
 10
215.2143612635
 20
134.0203609052
 30
0.0
  0
VERTEX
  5
2B1
  8
0
  6
CONTINUOUS
 62
     7
 10
215.0192752611
 20
133.8252689424
 30
0.0
  0
VERTEX
  5
2B2
  8
0
  6
CONTINUOUS
 62
     7
 10
214.8316815626
 20
133.6376752439
 30
0.0
  0
VERTEX
  5
2B3
  8
0
  6
CONTINUOUS
 62
     7
 10
214.65879233
 20
133.4647919717
 30
0.0
  0
VERTEX
  5
2B4
  8
0
  6
CONTINUOUS
 62
     7
 10
214.5072594416
 20
133.3132531228
 30
0.0
  0
VERTEX
  5
2B5
  8
0
  6
CONTINUOUS
 62
     7
 10
214.3828943503
 20
133.188893992
 30
0.0
  0
VERTEX
  5
2B6
  8
0
  6
CONTINUOUS
 62
     7
 10
214.290483309
 20
133.0964829507
 30
0.0
  0
VERTEX
  5
2B7
  8
0
  6
CONTINUOUS
 62
     7
 10
214.2335787546
 20
133.0395783964
 30
0.0
  0
VERTEX
  5
2B8
  8
0
  6
CONTINUOUS
 62
     7
 10
214.2143622172
 20
133.0203618589
 30
0.0
  0
SEQEND
  5
565
  8
0
  6
CONTINUOUS
 62
     7
  0
LINE
  5
8A
  8
0
  6
CONTINUOUS
 62
     7
 10
214.2143622172
 20
133.0203618589
 30
0.0
 11
171.4861437809
 21
133.0203618589
 31
0.0
  0
LINE
  5
8B
  8
0
  6
CONTINUOUS
 62
     7
 10
163.9425829184
 20
133.0203618589
 30
0.0
 11
124.4861439001
 21
133.0203618589
 31
0.0
  0
LINE
  5
8C
  8
0
  6
CONTINUOUS
 62
     7
 10
116.9425830376
 20
133.0203618589
 30
0.0
 11
74.2143646014
 21
133.0203618589
 31
0.0
  0
POLYLINE
  5
8D
  8
0
  6
CONTINUOUS
 62
     7
 66
     1
 10
0.0
 20
0.0
 30
0.0
  0
VERTEX
  5
2B9
  8
0
  6
CONTINUOUS
 62
     7
 10
73.214365555
 20
134.0203609052
 30
0.0
  0
VERTEX
  5
2BA
  8
0
  6
CONTINUOUS
 62
     7
 10
73.4094515574
 20
133.8252689424
 30
0.0
  0
VERTEX
  5
2BB
  8
0
  6
CONTINUOUS
 62
     7
 10
73.5970452559
 20
133.6376752439
 30
0.0
  0
VERTEX
  5
2BC
  8
0
  6
CONTINUOUS
 62
     7
 10
73.7699344885
 20
133.4647919717
 30
0.0
  0
VERTEX
  5
2BD
  8
0
  6
CONTINUOUS
 62
     7
 10
73.9214673769
 20
133.3132531228
 30
0.0
  0
VERTEX
  5
2BE
  8
0
  6
CONTINUOUS
 62
     7
 10
74.0458324683
 20
133.188893992
 30
0.0
  0
VERTEX
  5
2BF
  8
0
  6
CONTINUOUS
 62
     7
 10
74.1382435095
 20
133.0964829507
 30
0.0
  0
VERTEX
  5
2C0
  8
0
  6
CONTINUOUS
 62
     7
 10
74.1951480639
 20
133.0395783964
 30
0.0
  0
VERTEX
  5
2C1
  8
0
  6
CONTINUOUS
 62
     7
 10
74.2143646014
 20
133.0203618589
 30
0.0
  0
SEQEND
  5
564
  8
0
  6
CONTINUOUS
 62
     7
  0
LINE
  5
8E
  8
0
  6
CONTINUOUS
 62
     7
 10
40.6143620741
 20
133.4203626695
 30
0.0
 11
40.6143620741
 21
134.0203609052
 31
0.0
  0
ARC
  5
8F
  8
0
  6
CONTINUOUS
 62
     7
 10
41.0143634093
 20
133.4203608575
 30
0.0
 40
0.3999999999999986
 50
180.0
 51
270.0
  0
POLYLINE
  5
90
  8
0
  6
CONTINUOUS
 62
     7
 66
     1
 10
0.0
 20
0.0
 30
0.0
  0
VERTEX
  5
2C2
  8
0
  6
CONTINUOUS
 62
     7
 10
224.2143646014
 20
133.0203618589
 30
0.0
  0
VERTEX
  5
2C3
  8
0
  6
CONTINUOUS
 62
     7
 10
224.1951480639
 20
133.0395783964
 30
0.0
  0
VERTEX
  5
2C4
  8
0
  6
CONTINUOUS
 62
     7
 10
224.1382435095
 20
133.0964829507
 30
0.0
  0
VERTEX
  5
2C5
  8
0
  6
CONTINUOUS
 62
     7
 10
224.0458324683
 20
133.188893992
 30
0.0
  0
VERTEX
  5
2C6
  8
0
  6
CONTINUOUS
 62
     7
 10
223.9214673769
 20
133.3132531228
 30
0.0
  0
VERTEX
  5
2C7
  8
0
  6
CONTINUOUS
 62
     7
 10
223.7699344885
 20
133.4647919717
 30
0.0
  0
VERTEX
  5
2C8
  8
0
  6
CONTINUOUS
 62
     7
 10
223.5970452559
 20
133.6376752439
 30
0.0
  0
VERTEX
  5
2C9
  8
0
  6
CONTINUOUS
 62
     7
 10
223.4094515574
 20
133.8252689424
 30
0.0
  0
VERTEX
  5
2CA
  8
0
  6
CONTINUOUS
 62
     7
 10
223.214365555
 20
134.0203609052
 30
0.0
  0
SEQEND
  5
563
  8
0
  6
CONTINUOUS
 62
     7
  0
LINE
  5
91
  8
0
  6
CONTINUOUS
 62
     7
 10
247.4143579733
 20
133.0203618589
 30
0.0
 11
244.4861486685
 21
133.0203618589
 31
0.0
  0
LINE
  5
92
  8
0
  6
CONTINUOUS
 62
     7
 10
236.9425848257
 20
133.0203618589
 30
0.0
 11
224.2143646014
 21
133.0203618589
 31
0.0
  0
LINE
  5
93
  8
0
  6
CONTINUOUS
 62
     7
 10
74.2143646014
 20
133.0203618589
 30
0.0
 11
74.2143646014
 21
69.020360868
 31
0.0
  0
LINE
  5
94
  8
0
  6
CONTINUOUS
 62
     7
 10
247.8143647444
 20
134.0203609052
 30
0.0
 11
247.8143647444
 21
133.4203626695
 31
0.0
  0
ARC
  5
95
  8
0
  6
CONTINUOUS
 62
     7
 10
247.4143634093
 20
133.4203608575
 30
0.0
 40
0.4000000000000341
 50
270.0
 51
0.0
  0
LINE
  5
96
  8
0
  6
CONTINUOUS
 62
     7
 10
214.2143622172
 20
69.020360868
 30
0.0
 11
214.2143622172
 21
133.0203618589
 31
0.0
  0
ARC
  5
97
  8
0
  6
CONTINUOUS
 62
     7
 10
247.4143634093
 20
142.6203608575
 30
0.0
 40
0.4000000000000341
 50
0.0
 51
90.0
  0
LINE
  5
98
  8
0
  6
CONTINUOUS
 62
     7
 10
247.8143647444
 20
142.6203634324
 30
0.0
 11
247.8143647444
 21
142.0203592363
 31
0.0
  0
LINE
  5
99
  8
0
  6
CONTINUOUS
 62
     7
 10
41.0143688452
 20
143.0203582826
 30
0.0
 11
42.8143575918
 21
143.0203582826
 31
0.0
  0
LINE
  5
9A
  8
0
  6
CONTINUOUS
 62
     7
 10
52.614362551
 20
143.0203582826
 30
0.0
 11
115.8143624794
 21
143.0203582826
 31
0.0
  0
LINE
  5
9B
  8
0
  6
CONTINUOUS
 62
     7
 10
125.6143629682
 20
143.0203582826
 30
0.0
 11
162.8143638503
 21
143.0203582826
 31
0.0
  0
LINE
  5
9C
  8
0
  6
CONTINUOUS
 62
     7
 10
172.6143643391
 20
143.0203582826
 30
0.0
 11
235.8143642676
 21
143.0203582826
 31
0.0
  0
LINE
  5
9D
  8
0
  6
CONTINUOUS
 62
     7
 10
245.6143692267
 20
143.0203582826
 30
0.0
 11
247.4143579733
 21
143.0203582826
 31
0.0
  0
LINE
  5
9E
  8
0
  6
CONTINUOUS
 62
     7
 10
224.2143646014
 20
133.0203618589
 30
0.0
 11
224.2143646014
 21
69.020360868
 31
0.0
  0
LINE
  5
9F
  8
0
  6
CONTINUOUS
 62
     7
 10
40.6143620741
 20
142.0203592363
 30
0.0
 11
40.6143620741
 21
142.6203634324
 31
0.0
  0
ARC
  5
A0
  8
0
  6
CONTINUOUS
 62
     7
 10
41.0143634093
 20
142.6203608575
 30
0.0
 40
0.3999999999999986
 50
90.0
 51
180.0
  0
CIRCLE
  5
A1
  8
0
  6
CONTINUOUS
 62
     7
 10
46.7143634093
 20
137.2203608575
 30
0.0
 40
1.049999999999997
  0
CIRCLE
  5
A2
  8
0
  6
CONTINUOUS
 62
     7
 10
121.7143634093
 20
137.2203608575
 30
0.0
 40
1.049999999999997
  0
CIRCLE
  5
A3
  8
0
  6
CONTINUOUS
 62
     7
 10
241.7143634093
 20
137.2203608575
 30
0.0
 40
1.050000000000011
  0
CIRCLE
  5
A4
  8
0
  6
CONTINUOUS
 62
     7
 10
166.7143634093
 20
137.2203608575
 30
0.0
 40
1.049999999999983
  0
LINE
  5
A5
  8
0
  6
CONTINUOUS
 62
     7
 10
247.8143647444
 20
142.0203592363
 30
0.0
 11
247.8143647444
 21
134.0203609052
 31
0.0
  0
POLYLINE
  5
A6
  8
0
  6
CONTINUOUS
 62
     7
 66
     1
 10
0.0
 20
0.0
 30
0.0
  0
VERTEX
  5
2CB
  8
0
  6
CONTINUOUS
 62
     7
 10
166.6142925751
 20
158.3594109598
 30
0.0
  0
VERTEX
  5
2CC
  8
0
  6
CONTINUOUS
 62
     7
 10
166.6143268478
 20
158.5263516488
 30
0.0
  0
VERTEX
  5
2CD
  8
0
  6
CONTINUOUS
 62
     7
 10
166.614457978
 20
158.6381282392
 30
0.0
  0
VERTEX
  5
2CE
  8
0
  6
CONTINUOUS
 62
     7
 10
166.6149065029
 20
158.7356950822
 30
0.0
  0
VERTEX
  5
2CF
  8
0
  6
CONTINUOUS
 62
     7
 10
166.6150957477
 20
158.7298001829
 30
0.0
  0
SEQEND
  5
562
  8
0
  6
CONTINUOUS
 62
     7
  0
POLYLINE
  5
A7
  8
0
  6
CONTINUOUS
 62
     7
 66
     1
 10
0.0
 20
0.0
 30
0.0
  0
VERTEX
  5
2D0
  8
0
  6
CONTINUOUS
 62
     7
 10
172.7018639576
 20
154.8296894613
 30
0.0
  0
VERTEX
  5
2D1
  8
0
  6
CONTINUOUS
 62
     7
 10
171.599148227
 20
155.0357665601
 30
0.0
  0
VERTEX
  5
2D2
  8
0
  6
CONTINUOUS
 62
     7
 10
170.5305829775
 20
155.3771342817
 30
0.0
  0
VERTEX
  5
2D3
  8
0
  6
CONTINUOUS
 62
     7
 10
169.7230652106
 20
155.7354952875
 30
0.0
  0
VERTEX
  5
2D4
  8
0
  6
CONTINUOUS
 62
     7
 10
168.9853519332
 20
156.1462368551
 30
0.0
  0
VERTEX
  5
2D5
  8
0
  6
CONTINUOUS
 62
     7
 10
168.2274118197
 20
156.6612627092
 30
0.0
  0
VERTEX
  5
2D6
  8
0
  6
CONTINUOUS
 62
     7
 10
167.5892993939
 20
157.1802820745
 30
0.0
  0
VERTEX
  5
2D7
  8
0
  6
CONTINUOUS
 62
     7
 10
167.0583039653
 20
157.6909269872
 30
0.0
  0
VERTEX
  5
2D8
  8
0
  6
CONTINUOUS
 62
     7
 10
166.8587744367
 20
157.9136039796
 30
0.0
  0
VERTEX
  5
2D9
  8
0
  6
CONTINUOUS
 62
     7
 10
166.7160228026
 20
158.1030036989
 30
0.0
  0
VERTEX
  5
2DA
  8
0
  6
CONTINUOUS
 62
     7
 10
166.614265753
 20
158.3594169202
 30
0.0
  0
SEQEND
  5
561
  8
0
  6
CONTINUOUS
 62
     7
  0
POLYLINE
  5
A8
  8
0
  6
CONTINUOUS
 62
     7
 66
     1
 10
0.0
 20
0.0
 30
0.0
  0
VERTEX
  5
2DB
  8
0
  6
CONTINUOUS
 62
     7
 10
235.726864649
 20
154.8296894613
 30
0.0
  0
VERTEX
  5
2DC
  8
0
  6
CONTINUOUS
 62
     7
 10
228.683628155
 20
154.0436651292
 30
0.0
  0
VERTEX
  5
2DD
  8
0
  6
CONTINUOUS
 62
     7
 10
221.6129854452
 20
153.4261252466
 30
0.0
  0
VERTEX
  5
2DE
  8
0
  6
CONTINUOUS
 62
     7
 10
214.4873932135
 20
153.0040051523
 30
0.0
  0
VERTEX
  5
2DF
  8
0
  6
CONTINUOUS
 62
     7
 10
207.3477819693
 20
152.7955319467
 30
0.0
  0
VERTEX
  5
2E0
  8
0
  6
CONTINUOUS
 62
     7
 10
201.5739277136
 20
152.7899231496
 30
0.0
  0
VERTEX
  5
2E1
  8
0
  6
CONTINUOUS
 62
     7
 10
195.8011642229
 20
152.928879458
 30
0.0
  0
VERTEX
  5
2E2
  8
0
  6
CONTINUOUS
 62
     7
 10
190.0373205673
 20
153.2092060628
 30
0.0
  0
VERTEX
  5
2E3
  8
0
  6
CONTINUOUS
 62
     7
 10
184.2420950663
 20
153.6297883573
 30
0.0
  0
VERTEX
  5
2E4
  8
0
  6
CONTINUOUS
 62
     7
 10
178.4620657694
 20
154.1753854337
 30
0.0
  0
VERTEX
  5
2E5
  8
0
  6
CONTINUOUS
 62
     7
 10
172.7018639576
 20
154.8296894613
 30
0.0
  0
SEQEND
  5
560
  8
0
  6
CONTINUOUS
 62
     7
  0
POLYLINE
  5
A9
  8
0
  6
CONTINUOUS
 62
     7
 66
     1
 10
0.0
 20
0.0
 30
0.0
  0
VERTEX
  5
2E6
  8
0
  6
CONTINUOUS
 62
     7
 10
241.8144598734
 20
158.3592559877
 30
0.0
  0
VERTEX
  5
2E7
  8
0
  6
CONTINUOUS
 62
     7
 10
241.7286053431
 20
158.1279840055
 30
0.0
  0
VERTEX
  5
2E8
  8
0
  6
CONTINUOUS
 62
     7
 10
241.4694801104
 20
157.7980722967
 30
0.0
  0
VERTEX
  5
2E9
  8
0
  6
CONTINUOUS
 62
     7
 10
241.0751834643
 20
157.3961402955
 30
0.0
  0
VERTEX
  5
2EA
  8
0
  6
CONTINUOUS
 62
     7
 10
240.5384615195
 20
156.924637753
 30
0.0
  0
VERTEX
  5
2EB
  8
0
  6
CONTINUOUS
 62
     7
 10
239.8153737318
 20
156.3864376131
 30
0.0
  0
VERTEX
  5
2EC
  8
0
  6
CONTINUOUS
 62
     7
 10
238.9275446665
 20
155.8502819124
 30
0.0
  0
VERTEX
  5
2ED
  8
0
  6
CONTINUOUS
 62
     7
 10
238.0622282755
 20
155.4426636281
 30
0.0
  0
VERTEX
  5
2EE
  8
0
  6
CONTINUOUS
 62
     7
 10
237.0769694578
 20
155.1020111623
 30
0.0
  0
VERTEX
  5
2EF
  8
0
  6
CONTINUOUS
 62
     7
 10
236.4184811842
 20
154.9421217027
 30
0.0
  0
VERTEX
  5
2F0
  8
0
  6
CONTINUOUS
 62
     7
 10
235.726864649
 20
154.8296894613
 30
0.0
  0
SEQEND
  5
55F
  8
0
  6
CONTINUOUS
 62
     7
  0
POLYLINE
  5
AA
  8
0
  6
CONTINUOUS
 62
     7
 66
     1
 10
0.0
 20
0.0
 30
0.0
  0
VERTEX
  5
2F1
  8
0
  6
CONTINUOUS
 62
     7
 10
241.8125465643
 20
158.5748579088
 30
0.0
  0
VERTEX
  5
2F2
  8
0
  6
CONTINUOUS
 62
     7
 10
241.814364506
 20
158.5740770879
 30
0.0
  0
VERTEX
  5
2F3
  8
0
  6
CONTINUOUS
 62
     7
 10
241.8179288637
 20
158.5524525228
 30
0.0
  0
VERTEX
  5
2F4
  8
0
  6
CONTINUOUS
 62
     7
 10
241.8165162337
 20
158.5322465482
 30
0.0
  0
VERTEX
  5
2F5
  8
0
  6
CONTINUOUS
 62
     7
 10
241.8143347037
 20
158.5895325723
 30
0.0
  0
SEQEND
  5
55E
  8
0
  6
CONTINUOUS
 62
     7
  0
POLYLINE
  5
AB
  8
0
  6
CONTINUOUS
 62
     7
 66
     1
 10
0.0
 20
0.0
 30
0.0
  0
VERTEX
  5
2F6
  8
0
  6
CONTINUOUS
 62
     7
 10
241.8136134875
 20
158.7357666078
 30
0.0
  0
VERTEX
  5
2F7
  8
0
  6
CONTINUOUS
 62
     7
 10
241.813685013
 20
158.7414826932
 30
0.0
  0
VERTEX
  5
2F8
  8
0
  6
CONTINUOUS
 62
     7
 10
241.8140545618
 20
158.7049271646
 30
0.0
  0
VERTEX
  5
2F9
  8
0
  6
CONTINUOUS
 62
     7
 10
241.8143347037
 20
158.5885371747
 30
0.0
  0
VERTEX
  5
2FA
  8
0
  6
CONTINUOUS
 62
     7
 10
241.8144360316
 20
158.3592500272
 30
0.0
  0
SEQEND
  5
55D
  8
0
  6
CONTINUOUS
 62
     7
  0
POLYLINE
  5
AC
  8
0
  6
CONTINUOUS
 62
     7
 66
     1
 10
0.0
 20
0.0
 30
0.0
  0
VERTEX
  5
2FB
  8
0
  6
CONTINUOUS
 62
     7
 10
169.0080165994
 20
159.7350444379
 30
0.0
  0
VERTEX
  5
2FC
  8
0
  6
CONTINUOUS
 62
     7
 10
168.2336285841
 20
159.737047154
 30
0.0
  0
VERTEX
  5
2FD
  8
0
  6
CONTINUOUS
 62
     7
 10
168.0375412237
 20
159.7379233423
 30
0.0
  0
SEQEND
  5
55C
  8
0
  6
CONTINUOUS
 62
     7
  0
POLYLINE
  5
AD
  8
0
  6
CONTINUOUS
 62
     7
 66
     1
 10
0.0
 20
0.0
 30
0.0
  0
VERTEX
  5
2FE
  8
0
  6
CONTINUOUS
 62
     7
 10
166.7609483135
 20
159.892668921
 30
0.0
  0
VERTEX
  5
2FF
  8
0
  6
CONTINUOUS
 62
     7
 10
166.7510673535
 20
159.8398055616
 30
0.0
  0
VERTEX
  5
300
  8
0
  6
CONTINUOUS
 62
     7
 10
166.722559942
 20
159.5839764657
 30
0.0
  0
SEQEND
  5
55B
  8
0
  6
CONTINUOUS
 62
     7
  0
ARC
  5
AE
  8
0
  6
CONTINUOUS
 62
     7
 10
167.83069349
 20
145.1730300275
 30
0.0
 40
14.60948711236456
 50
75.6822058374
 51
85.3777794934
  0
ARC
  5
AF
  8
0
  6
CONTINUOUS
 62
     7
 10
240.4382519603
 20
145.9601250351
 30
0.0
 40
13.81240846050506
 50
94.224692577
 51
104.9752624252
  0
POLYLINE
  5
B0
  8
0
  6
CONTINUOUS
 62
     7
 66
     1
 10
0.0
 20
0.0
 30
0.0
  0
VERTEX
  5
301
  8
0
  6
CONTINUOUS
 62
     7
 10
239.4207134974
 20
159.7350027147
 30
0.0
  0
VERTEX
  5
302
  8
0
  6
CONTINUOUS
 62
     7
 10
240.2784899008
 20
159.7373749795
 30
0.0
  0
VERTEX
  5
303
  8
0
  6
CONTINUOUS
 62
     7
 10
240.3987184298
 20
159.7379114213
 30
0.0
  0
SEQEND
  5
55A
  8
0
  6
CONTINUOUS
 62
     7
  0
POLYLINE
  5
B1
  8
0
  6
CONTINUOUS
 62
     7
 66
     1
 10
0.0
 20
0.0
 30
0.0
  0
VERTEX
  5
304
  8
0
  6
CONTINUOUS
 62
     7
 10
241.5906384718
 20
159.7420122209
 30
0.0
  0
VERTEX
  5
305
  8
0
  6
CONTINUOUS
 62
     7
 10
241.5934100878
 20
159.7419287744
 30
0.0
  0
VERTEX
  5
306
  8
0
  6
CONTINUOUS
 62
     7
 10
241.5616586935
 20
159.7473945203
 30
0.0
  0
VERTEX
  5
307
  8
0
  6
CONTINUOUS
 62
     7
 10
241.5624395144
 20
159.7507681432
 30
0.0
  0
SEQEND
  5
559
  8
0
  6
CONTINUOUS
 62
     7
  0
POLYLINE
  5
B2
  8
0
  6
CONTINUOUS
 62
     7
 66
     1
 10
0.0
 20
0.0
 30
0.0
  0
VERTEX
  5
308
  8
0
  6
CONTINUOUS
 62
     7
 10
241.6266158354
 20
159.7344245496
 30
0.0
  0
VERTEX
  5
309
  8
0
  6
CONTINUOUS
 62
     7
 10
241.6361406576
 20
159.7227718416
 30
0.0
  0
VERTEX
  5
30A
  8
0
  6
CONTINUOUS
 62
     7
 10
241.6486218703
 20
159.746941525
 30
0.0
  0
VERTEX
  5
30B
  8
0
  6
CONTINUOUS
 62
     7
 10
241.6501358282
 20
159.804418284
 30
0.0
  0
VERTEX
  5
30C
  8
0
  6
CONTINUOUS
 62
     7
 10
241.651596142
 20
159.875306088
 30
0.0
  0
SEQEND
  5
558
  8
0
  6
CONTINUOUS
 62
     7
  0
POLYLINE
  5
B3
  8
0
  6
CONTINUOUS
 62
     7
 66
     1
 10
0.0
 20
0.0
 30
0.0
  0
VERTEX
  5
30D
  8
0
  6
CONTINUOUS
 62
     7
 10
241.6533783209
 20
159.8987247529
 30
0.0
  0
VERTEX
  5
30E
  8
0
  6
CONTINUOUS
 62
     7
 10
241.6553989184
 20
159.9253620687
 30
0.0
  0
VERTEX
  5
30F
  8
0
  6
CONTINUOUS
 62
     7
 10
241.6641309988
 20
159.9189009252
 30
0.0
  0
VERTEX
  5
310
  8
0
  6
CONTINUOUS
 62
     7
 10
241.6804209482
 20
159.8193909707
 30
0.0
  0
VERTEX
  5
311
  8
0
  6
CONTINUOUS
 62
     7
 10
241.7061641943
 20
159.5839764657
 30
0.0
  0
SEQEND
  5
557
  8
0
  6
CONTINUOUS
 62
     7
  0
POLYLINE
  5
B4
  8
0
  6
CONTINUOUS
 62
     7
 66
     1
 10
0.0
 20
0.0
 30
0.0
  0
VERTEX
  5
312
  8
0
  6
CONTINUOUS
 62
     7
 10
241.7061641943
 20
159.5839764657
 30
0.0
  0
VERTEX
  5
313
  8
0
  6
CONTINUOUS
 62
     7
 10
241.6347578299
 20
159.3737210813
 30
0.0
  0
VERTEX
  5
314
  8
0
  6
CONTINUOUS
 62
     7
 10
241.387166096
 20
159.0760495248
 30
0.0
  0
VERTEX
  5
315
  8
0
  6
CONTINUOUS
 62
     7
 10
240.9908607733
 20
158.7095226827
 30
0.0
  0
VERTEX
  5
316
  8
0
  6
CONTINUOUS
 62
     7
 10
240.4413476717
 20
158.2724358621
 30
0.0
  0
VERTEX
  5
317
  8
0
  6
CONTINUOUS
 62
     7
 10
239.7208586466
 20
157.7833618703
 30
0.0
  0
VERTEX
  5
318
  8
0
  6
CONTINUOUS
 62
     7
 10
238.8378515971
 20
157.2909798208
 30
0.0
  0
VERTEX
  5
319
  8
0
  6
CONTINUOUS
 62
     7
 10
237.9592195284
 20
156.9049682203
 30
0.0
  0
VERTEX
  5
31A
  8
0
  6
CONTINUOUS
 62
     7
 10
236.9604423773
 20
156.5815534177
 30
0.0
  0
VERTEX
  5
31B
  8
0
  6
CONTINUOUS
 62
     7
 10
236.3046184313
 20
156.4320888105
 30
0.0
  0
VERTEX
  5
31C
  8
0
  6
CONTINUOUS
 62
     7
 10
235.6175258887
 20
156.3268508497
 30
0.0
  0
SEQEND
  5
556
  8
0
  6
CONTINUOUS
 62
     7
  0
POLYLINE
  5
B5
  8
0
  6
CONTINUOUS
 62
     7
 66
     1
 10
0.0
 20
0.0
 30
0.0
  0
VERTEX
  5
31D
  8
0
  6
CONTINUOUS
 62
     7
 10
235.6175258887
 20
156.3268508497
 30
0.0
  0
VERTEX
  5
31E
  8
0
  6
CONTINUOUS
 62
     7
 10
230.5529192221
 20
155.7770695272
 30
0.0
  0
VERTEX
  5
31F
  8
0
  6
CONTINUOUS
 62
     7
 10
225.5748167765
 20
155.3132142606
 30
0.0
  0
VERTEX
  5
320
  8
0
  6
CONTINUOUS
 62
     7
 10
220.5824926626
 20
154.9339916292
 30
0.0
  0
VERTEX
  5
321
  8
0
  6
CONTINUOUS
 62
     7
 10
215.5360236895
 20
154.6463694158
 30
0.0
  0
VERTEX
  5
322
  8
0
  6
CONTINUOUS
 62
     7
 10
210.5166450274
 20
154.46150561
 30
0.0
  0
VERTEX
  5
323
  8
0
  6
CONTINUOUS
 62
     7
 10
205.4742947352
 20
154.3811943117
 30
0.0
  0
VERTEX
  5
324
  8
0
  6
CONTINUOUS
 62
     7
 10
200.4447117579
 20
154.4078435483
 30
0.0
  0
VERTEX
  5
325
  8
0
  6
CONTINUOUS
 62
     7
 10
195.8226576578
 20
154.5258786264
 30
0.0
  0
VERTEX
  5
326
  8
0
  6
CONTINUOUS
 62
     7
 10
191.221086694
 20
154.7305848184
 30
0.0
  0
VERTEX
  5
327
  8
0
  6
CONTINUOUS
 62
     7
 10
186.6215184462
 20
155.0186004224
 30
0.0
  0
VERTEX
  5
328
  8
0
  6
CONTINUOUS
 62
     7
 10
182.0111617577
 20
155.3859498086
 30
0.0
  0
VERTEX
  5
329
  8
0
  6
CONTINUOUS
 62
     7
 10
177.4651304018
 20
155.8188702646
 30
0.0
  0
VERTEX
  5
32A
  8
0
  6
CONTINUOUS
 62
     7
 10
172.8111997378
 20
156.3268508497
 30
0.0
  0
SEQEND
  5
555
  8
0
  6
CONTINUOUS
 62
     7
  0
POLYLINE
  5
B6
  8
0
  6
CONTINUOUS
 62
     7
 66
     1
 10
0.0
 20
0.0
 30
0.0
  0
VERTEX
  5
32B
  8
0
  6
CONTINUOUS
 62
     7
 10
172.8111997378
 20
156.3268508497
 30
0.0
  0
VERTEX
  5
32C
  8
0
  6
CONTINUOUS
 62
     7
 10
172.3795995247
 20
156.3869680944
 30
0.0
  0
VERTEX
  5
32D
  8
0
  6
CONTINUOUS
 62
     7
 10
171.9461098444
 20
156.4679350439
 30
0.0
  0
VERTEX
  5
32E
  8
0
  6
CONTINUOUS
 62
     7
 10
171.5132638943
 20
156.5697457376
 30
0.0
  0
VERTEX
  5
32F
  8
0
  6
CONTINUOUS
 62
     7
 10
171.1214080584
 20
156.6805805746
 30
0.0
  0
VERTEX
  5
330
  8
0
  6
CONTINUOUS
 62
     7
 10
170.7259461415
 20
156.8106498304
 30
0.0
  0
VERTEX
  5
331
  8
0
  6
CONTINUOUS
 62
     7
 10
170.3295782339
 20
156.9598819795
 30
0.0
  0
VERTEX
  5
332
  8
0
  6
CONTINUOUS
 62
     7
 10
170.0222090018
 20
157.0891346517
 30
0.0
  0
VERTEX
  5
333
  8
0
  6
CONTINUOUS
 62
     7
 10
169.7184816134
 20
157.2287227693
 30
0.0
  0
VERTEX
  5
334
  8
0
  6
CONTINUOUS
 62
     7
 10
169.430898143
 20
157.3721196237
 30
0.0
  0
VERTEX
  5
335
  8
0
  6
CONTINUOUS
 62
     7
 10
169.1579789054
 20
157.5186159196
 30
0.0
  0
VERTEX
  5
336
  8
0
  6
CONTINUOUS
 62
     7
 10
168.8918441665
 20
157.6715673986
 30
0.0
  0
VERTEX
  5
337
  8
0
  6
CONTINUOUS
 62
     7
 10
168.6656788122
 20
157.8097607675
 30
0.0
  0
VERTEX
  5
338
  8
0
  6
CONTINUOUS
 62
     7
 10
168.4026211631
 20
157.9802240911
 30
0.0
  0
VERTEX
  5
339
  8
0
  6
CONTINUOUS
 62
     7
 10
168.1068837774
 20
158.1852223459
 30
0.0
  0
VERTEX
  5
33A
  8
0
  6
CONTINUOUS
 62
     7
 10
167.8955406081
 20
158.3411600175
 30
0.0
  0
VERTEX
  5
33B
  8
0
  6
CONTINUOUS
 62
     7
 10
167.6852658522
 20
158.504756886
 30
0.0
  0
VERTEX
  5
33C
  8
0
  6
CONTINUOUS
 62
     7
 10
167.4740493429
 20
158.6784507814
 30
0.0
  0
VERTEX
  5
33D
  8
0
  6
CONTINUOUS
 62
     7
 10
167.2979548704
 20
158.8320757928
 30
0.0
  0
VERTEX
  5
33E
  8
0
  6
CONTINUOUS
 62
     7
 10
167.1534717214
 20
158.9658166948
 30
0.0
  0
VERTEX
  5
33F
  8
0
  6
CONTINUOUS
 62
     7
 10
166.8238550556
 20
159.3290414396
 30
0.0
  0
VERTEX
  5
340
  8
0
  6
CONTINUOUS
 62
     7
 10
166.722559942
 20
159.5839764657
 30
0.0
  0
SEQEND
  5
554
  8
0
  6
CONTINUOUS
 62
     7
  0
ARC
  5
B7
  8
0
  6
CONTINUOUS
 62
     7
 10
84.2143625152
 20
232.5551458837
 30
0.0
 40
73.90746562411353
 50
244.5760600083
 51
295.4239399917
  0
LINE
  5
B8
  8
0
  6
CONTINUOUS
 62
     7
 10
52.7018621695
 20
231.9557811799
 30
0.0
 11
52.8112009299
 21
231.9661285463
 31
0.0
  0
LINE
  5
B9
  8
0
  6
CONTINUOUS
 62
     7
 10
115.6175270808
 20
231.9661285463
 30
0.0
 11
115.7268628609
 21
231.9557811799
 31
0.0
  0
ARC
  5
BA
  8
0
  6
CONTINUOUS
 62
     7
 10
84.2143625152
 20
-100.1980776977
 30
0.0
 40
333.6453560973343
 50
84.5803875638
 51
95.4196124362
  0
POLYLINE
  5
BB
  8
0
  6
CONTINUOUS
 62
     7
 66
     1
 10
0.0
 20
0.0
 30
0.0
  0
VERTEX
  5
341
  8
0
  6
CONTINUOUS
 62
     7
 10
115.9437641632
 20
165.8051755014
 30
0.0
  0
VERTEX
  5
342
  8
0
  6
CONTINUOUS
 62
     7
 10
116.9446215164
 20
166.3889672342
 30
0.0
  0
VERTEX
  5
343
  8
0
  6
CONTINUOUS
 62
     7
 10
117.4379065764
 20
166.8018426481
 30
0.0
  0
SEQEND
  5
553
  8
0
  6
CONTINUOUS
 62
     7
  0
POLYLINE
  5
BC
  8
0
  6
CONTINUOUS
 62
     7
 66
     1
 10
0.0
 20
0.0
 30
0.0
  0
VERTEX
  5
344
  8
0
  6
CONTINUOUS
 62
     7
 10
50.9752467406
 20
166.8159093442
 30
0.0
  0
VERTEX
  5
345
  8
0
  6
CONTINUOUS
 62
     7
 10
51.3518229258
 20
166.4840902868
 30
0.0
  0
VERTEX
  5
346
  8
0
  6
CONTINUOUS
 62
     7
 10
52.4849608671
 20
165.8051755014
 30
0.0
  0
SEQEND
  5
552
  8
0
  6
CONTINUOUS
 62
     7
  0
LINE
  5
BD
  8
0
  6
CONTINUOUS
 62
     7
 10
46.6143623125
 20
203.4487511697
 30
0.0
 11
46.6174259913
 21
202.4203564706
 31
0.0
  0
LINE
  5
BE
  8
0
  6
CONTINUOUS
 62
     7
 10
46.6143623125
 20
213.4481217447
 30
0.0
 11
46.6143623125
 21
203.4487511697
 31
0.0
  0
POLYLINE
  5
BF
  8
0
  6
CONTINUOUS
 62
     7
 66
     1
 10
0.0
 20
0.0
 30
0.0
  0
VERTEX
  5
347
  8
0
  6
CONTINUOUS
 62
     7
 10
46.614290787
 20
225.1093294206
 30
0.0
  0
VERTEX
  5
348
  8
0
  6
CONTINUOUS
 62
     7
 10
46.6143265497
 20
223.9050175729
 30
0.0
  0
VERTEX
  5
349
  8
0
  6
CONTINUOUS
 62
     7
 10
46.61445768
 20
222.6914431634
 30
0.0
  0
VERTEX
  5
34A
  8
0
  6
CONTINUOUS
 62
     7
 10
46.6149047148
 20
220.3863050523
 30
0.0
  0
VERTEX
  5
34B
  8
0
  6
CONTINUOUS
 62
     7
 10
46.6152981055
 20
218.0783774438
 30
0.0
  0
VERTEX
  5
34C
  8
0
  6
CONTINUOUS
 62
     7
 10
46.6143623125
 20
213.4481217447
 30
0.0
  0
SEQEND
  5
551
  8
0
  6
CONTINUOUS
 62
     7
  0
ARC
  5
C0
  8
0
  6
CONTINUOUS
 62
     7
 10
53.3744731855
 20
225.2280711365
 30
0.0
 40
6.761248997592123
 50
95.709244102
 51
181.0062858134
  0
ARC
  5
C1
  8
0
  6
CONTINUOUS
 62
     7
 10
115.0616542927
 20
225.2346675545
 30
0.0
 40
6.75395223589605
 50
358.9447500892
 51
84.3476747093
  0
POLYLINE
  5
C2
  8
0
  6
CONTINUOUS
 62
     7
 66
     1
 10
0.0
 20
0.0
 30
0.0
  0
VERTEX
  5
34D
  8
0
  6
CONTINUOUS
 62
     7
 10
121.8125462663
 20
202.4203564706
 30
0.0
  0
VERTEX
  5
34E
  8
0
  6
CONTINUOUS
 62
     7
 10
121.8143627178
 20
203.4487511697
 30
0.0
  0
VERTEX
  5
34F
  8
0
  6
CONTINUOUS
 62
     7
 10
121.8179255855
 20
205.8792855325
 30
0.0
  0
VERTEX
  5
350
  8
0
  6
CONTINUOUS
 62
     7
 10
121.8165174258
 20
210.7405688348
 30
0.0
  0
VERTEX
  5
351
  8
0
  6
CONTINUOUS
 62
     7
 10
121.8139082324
 20
214.3323328081
 30
0.0
  0
VERTEX
  5
352
  8
0
  6
CONTINUOUS
 62
     7
 10
121.813415004
 20
217.923810679
 30
0.0
  0
VERTEX
  5
353
  8
0
  6
CONTINUOUS
 62
     7
 10
121.8136862051
 20
219.718709189
 30
0.0
  0
VERTEX
  5
354
  8
0
  6
CONTINUOUS
 62
     7
 10
121.814057244
 20
221.5131189409
 30
0.0
  0
VERTEX
  5
355
  8
0
  6
CONTINUOUS
 62
     7
 10
121.8143373859
 20
223.3175780359
 30
0.0
  0
VERTEX
  5
356
  8
0
  6
CONTINUOUS
 62
     7
 10
121.8144342434
 20
225.1102830949
 30
0.0
  0
SEQEND
  5
550
  8
0
  6
CONTINUOUS
 62
     7
  0
LINE
  5
C3
  8
0
  6
CONTINUOUS
 62
     7
 10
52.7644947302
 20
165.6811739984
 30
0.0
 11
52.8817609083
 21
165.6179871145
 31
0.0
  0
LINE
  5
C4
  8
0
  6
CONTINUOUS
 62
     7
 10
115.546964122
 20
165.6179871145
 30
0.0
 11
115.6323418152
 21
165.6640019002
 31
0.0
  0
LINE
  5
C5
  8
0
  6
CONTINUOUS
 62
     7
 10
115.9633919728
 20
231.9157149377
 30
0.0
 11
115.6175270808
 21
231.9661285463
 31
0.0
  0
LINE
  5
C6
  8
0
  6
CONTINUOUS
 62
     7
 10
167.3143640291
 20
157.4446823183
 30
0.0
 11
167.3143640291
 21
156.3266660753
 31
0.0
  0
LINE
  5
C7
  8
0
  6
CONTINUOUS
 62
     7
 10
166.514363898
 20
156.3266660753
 30
0.0
 11
166.514363898
 21
158.0203618589
 31
0.0
  0
LINE
  5
C8
  8
0
  6
CONTINUOUS
 62
     7
 10
166.5989041459
 20
158.5541274133
 30
0.0
 11
166.514363898
 21
158.0203618589
 31
0.0
  0
LINE
  5
C9
  8
0
  6
CONTINUOUS
 62
     7
 10
166.514363898
 20
154.4018234792
 30
0.0
 11
166.514363898
 21
156.3266660753
 31
0.0
  0
LINE
  5
CA
  8
0
  6
CONTINUOUS
 62
     7
 10
167.3143640291
 20
154.4018234792
 30
0.0
 11
167.3143640291
 21
156.3266660753
 31
0.0
  0
LINE
  5
CB
  8
0
  6
CONTINUOUS
 62
     7
 10
166.514363898
 20
148.3892824235
 30
0.0
 11
166.514363898
 21
154.4018234792
 31
0.0
  0
LINE
  5
CC
  8
0
  6
CONTINUOUS
 62
     7
 10
167.3143640291
 20
148.3892824235
 30
0.0
 11
167.3143640291
 21
154.4018234792
 31
0.0
  0
LINE
  5
CD
  8
0
  6
CONTINUOUS
 62
     7
 10
182.9143628609
 20
158.4590162816
 30
0.0
 11
182.9143628609
 21
160.5203594747
 31
0.0
  0
LINE
  5
CE
  8
0
  6
CONTINUOUS
 62
     7
 10
182.9143628609
 20
148.3203615728
 30
0.0
 11
182.9143628609
 21
153.7517156187
 31
0.0
  0
LINE
  5
CF
  8
0
  6
CONTINUOUS
 62
     7
 10
166.514363898
 20
158.0203618589
 30
0.0
 11
166.514363898
 21
160.5203594747
 31
0.0
  0
LINE
  5
D0
  8
0
  6
CONTINUOUS
 62
     7
 10
166.514363898
 20
148.3203615728
 30
0.0
 11
166.514363898
 21
148.3892824235
 31
0.0
  0
LINE
  5
D1
  8
0
  6
CONTINUOUS
 62
     7
 10
46.5143636
 20
155.4209019723
 30
0.0
 11
47.3143652212
 21
155.4209019723
 31
0.0
  0
LINE
  5
D2
  8
0
  6
CONTINUOUS
 62
     7
 10
62.9143610728
 20
148.3203615728
 30
0.0
 11
62.9143610728
 21
160.5203594747
 31
0.0
  0
LINE
  5
D3
  8
0
  6
CONTINUOUS
 62
     7
 10
46.5143636
 20
148.3203615728
 30
0.0
 11
46.5143636
 21
155.4209019723
 31
0.0
  0
LINE
  5
D4
  8
0
  6
CONTINUOUS
 62
     7
 10
47.3143652212
 20
155.4209019723
 30
0.0
 11
47.3143652212
 21
200.9634759012
 31
0.0
  0
LINE
  5
D5
  8
0
  6
CONTINUOUS
 62
     7
 10
46.5143636
 20
155.4209019723
 30
0.0
 11
46.5143636
 21
200.9634759012
 31
0.0
  0
LINE
  5
D6
  8
0
  6
CONTINUOUS
 62
     7
 10
47.3143652212
 20
202.4203564706
 30
0.0
 11
46.5143636
 21
202.4203564706
 31
0.0
  0
LINE
  5
D7
  8
0
  6
CONTINUOUS
 62
     7
 10
47.3143652212
 20
200.9634759012
 30
0.0
 11
47.3143652212
 21
202.4203564706
 31
0.0
  0
LINE
  5
D8
  8
0
  6
CONTINUOUS
 62
     7
 10
46.5143636
 20
200.9634759012
 30
0.0
 11
46.5143636
 21
202.4203564706
 31
0.0
  0
ARC
  5
D9
  8
0
  6
CONTINUOUS
 62
     7
 10
49.6625834185
 20
200.4325998913
 30
0.0
 40
1.987795143731933
 50
359.6471510234
 51
89.6431005564
  0
LINE
  5
DA
  8
0
  6
CONTINUOUS
 62
     7
 10
51.6503408682
 20
193.2581569734
 30
0.0
 11
51.6503408682
 21
200.420358378
 31
0.0
  0
ARC
  5
DB
  8
0
  6
CONTINUOUS
 62
     7
 10
81.7785679797
 20
193.2094246121
 30
0.0
 40
30.12826652370215
 50
179.9073242451
 51
232.1234980757
  0
ARC
  5
DC
  8
0
  6
CONTINUOUS
 62
     7
 10
62.1827011938
 20
168.0199181084
 30
0.0
 40
1.785826364995441
 50
333.9118989509
 51
52.0486105613
  0
POLYLINE
  5
DD
  8
0
  6
CONTINUOUS
 62
     7
 66
     1
 10
0.0
 20
0.0
 30
0.0
  0
VERTEX
  5
357
  8
0
  6
CONTINUOUS
 62
     7
 10
62.5686720145
 20
163.7719478193
 30
0.0
  0
VERTEX
  5
358
  8
0
  6
CONTINUOUS
 62
     7
 10
63.0772605669
 20
165.539457995
 30
0.0
  0
VERTEX
  5
359
  8
0
  6
CONTINUOUS
 62
     7
 10
63.7865856421
 20
167.234596211
 30
0.0
  0
SEQEND
  5
54F
  8
0
  6
CONTINUOUS
 62
     7
  0
ARC
  5
DE
  8
0
  6
CONTINUOUS
 62
     7
 10
61.4118781114
 20
164.0247135125
 30
0.0
 40
1.184087256000047
 50
252.0749382391
 51
347.6742889623
  0
POLYLINE
  5
DF
  8
0
  6
CONTINUOUS
 62
     7
 66
     1
 10
0.0
 20
0.0
 30
0.0
  0
VERTEX
  5
35A
  8
0
  6
CONTINUOUS
 62
     7
 10
52.9207721484
 20
166.0995807233
 30
0.0
  0
VERTEX
  5
35B
  8
0
  6
CONTINUOUS
 62
     7
 10
56.9448188078
 20
164.3787231031
 30
0.0
  0
VERTEX
  5
35C
  8
0
  6
CONTINUOUS
 62
     7
 10
61.047448231
 20
162.8981020036
 30
0.0
  0
SEQEND
  5
54E
  8
0
  6
CONTINUOUS
 62
     7
  0
LINE
  5
E0
  8
0
  6
CONTINUOUS
 62
     7
 10
51.9404664767
 20
166.6719343248
 30
0.0
 11
52.9207721484
 21
166.0995807233
 31
0.0
  0
ARC
  5
E1
  8
0
  6
CONTINUOUS
 62
     7
 10
51.2548442977
 20
165.7055802243
 30
0.0
 40
1.184870465406903
 50
54.6445379963
 51
180.6187406836
  0
LINE
  5
E2
  8
0
  6
CONTINUOUS
 62
     7
 10
50.0700429213
 20
160.5203594747
 30
0.0
 11
50.0700429213
 21
165.6927849832
 31
0.0
  0
LINE
  5
E3
  8
0
  6
CONTINUOUS
 62
     7
 10
49.6749654543
 20
202.4203564706
 30
0.0
 11
47.3143652212
 21
202.4203564706
 31
0.0
  0
ARC
  5
E4
  8
0
  6
CONTINUOUS
 62
     7
 10
51.3860413365
 20
165.7019132168
 30
0.0
 40
1.19088748783905
 50
90.2706811906
 51
180.4391803478
  0
LINE
  5
E5
  8
0
  6
CONTINUOUS
 62
     7
 10
49.7589662802
 20
202.4203564706
 30
0.0
 11
49.6749654543
 21
202.4203564706
 31
0.0
  0
LINE
  5
E6
  8
0
  6
CONTINUOUS
 62
     7
 10
50.1951888335
 20
160.5203594747
 30
0.0
 11
50.1951888335
 21
165.6927849832
 31
0.0
  0
LINE
  5
E7
  8
0
  6
CONTINUOUS
 62
     7
 10
241.8253258002
 20
158.5825290265
 30
0.0
 11
241.9143632185
 21
158.0203618589
 31
0.0
  0
LINE
  5
E8
  8
0
  6
CONTINUOUS
 62
     7
 10
241.9143632185
 20
158.0203618589
 30
0.0
 11
241.9143632185
 21
156.3266660753
 31
0.0
  0
LINE
  5
E9
  8
0
  6
CONTINUOUS
 62
     7
 10
241.1143615973
 20
156.3266660753
 30
0.0
 11
241.1143615973
 21
157.436081368
 31
0.0
  0
LINE
  5
EA
  8
0
  6
CONTINUOUS
 62
     7
 10
241.9143632185
 20
156.3266660753
 30
0.0
 11
241.9143632185
 21
154.4018234792
 31
0.0
  0
LINE
  5
EB
  8
0
  6
CONTINUOUS
 62
     7
 10
241.1143615973
 20
156.3266660753
 30
0.0
 11
241.1143615973
 21
154.4018234792
 31
0.0
  0
LINE
  5
EC
  8
0
  6
CONTINUOUS
 62
     7
 10
241.9143632185
 20
154.4018234792
 30
0.0
 11
241.9143632185
 21
148.3892824235
 31
0.0
  0
LINE
  5
ED
  8
0
  6
CONTINUOUS
 62
     7
 10
241.1143615973
 20
154.4018234792
 30
0.0
 11
241.1143615973
 21
148.3892824235
 31
0.0
  0
LINE
  5
EE
  8
0
  6
CONTINUOUS
 62
     7
 10
225.5143657458
 20
160.5203594747
 30
0.0
 11
225.5143657458
 21
158.4549810472
 31
0.0
  0
LINE
  5
EF
  8
0
  6
CONTINUOUS
 62
     7
 10
225.5143657458
 20
153.7639405313
 30
0.0
 11
225.5143657458
 21
148.3203615728
 31
0.0
  0
LINE
  5
F0
  8
0
  6
CONTINUOUS
 62
     7
 10
241.9143632185
 20
148.3892824235
 30
0.0
 11
241.9143632185
 21
148.3203615728
 31
0.0
  0
LINE
  5
F1
  8
0
  6
CONTINUOUS
 62
     7
 10
241.9143632185
 20
160.5203594747
 30
0.0
 11
241.9143632185
 21
158.0203618589
 31
0.0
  0
LINE
  5
F2
  8
0
  6
CONTINUOUS
 62
     7
 10
105.5143639576
 20
160.5203594747
 30
0.0
 11
105.5143639576
 21
148.3203615728
 31
0.0
  0
LINE
  5
F3
  8
0
  6
CONTINUOUS
 62
     7
 10
121.9143629205
 20
155.4209019723
 30
0.0
 11
121.1143627894
 21
155.4209019723
 31
0.0
  0
LINE
  5
F4
  8
0
  6
CONTINUOUS
 62
     7
 10
121.9143629205
 20
155.4209019723
 30
0.0
 11
121.9143629205
 21
148.3203615728
 31
0.0
  0
LINE
  5
F5
  8
0
  6
CONTINUOUS
 62
     7
 10
121.1143627894
 20
200.9634759012
 30
0.0
 11
121.1143627894
 21
155.4209019723
 31
0.0
  0
LINE
  5
F6
  8
0
  6
CONTINUOUS
 62
     7
 10
121.9143629205
 20
200.9634759012
 30
0.0
 11
121.9143629205
 21
155.4209019723
 31
0.0
  0
LINE
  5
F7
  8
0
  6
CONTINUOUS
 62
     7
 10
121.9143629205
 20
202.4203564706
 30
0.0
 11
121.1143627894
 21
202.4203564706
 31
0.0
  0
LINE
  5
F8
  8
0
  6
CONTINUOUS
 62
     7
 10
121.1143627894
 20
202.4203564706
 30
0.0
 11
121.1143627894
 21
200.9634759012
 31
0.0
  0
LINE
  5
F9
  8
0
  6
CONTINUOUS
 62
     7
 10
121.9143629205
 20
202.4203564706
 30
0.0
 11
121.9143629205
 21
200.9634759012
 31
0.0
  0
ARC
  5
FA
  8
0
  6
CONTINUOUS
 62
     7
 10
112.9757754742
 20
171.5623091175
 30
0.0
 40
6.021073320662166
 50
294.8694737219
 51
305.6875992645
  0
ARC
  5
FB
  8
0
  6
CONTINUOUS
 62
     7
 10
83.7685912975
 20
234.7520049514
 30
0.0
 40
75.63426753917413
 50
288.1915998183
 51
294.8120261488
  0
ARC
  5
FC
  8
0
  6
CONTINUOUS
 62
     7
 10
107.0168491534
 20
164.0247122142
 30
0.0
 40
1.18408625024223
 50
192.3256573663
 51
287.9251154323
  0
ARC
  5
FD
  8
0
  6
CONTINUOUS
 62
     7
 10
90.410118229
 20
160.2832696049
 30
0.0
 40
15.83892208115098
 50
12.7242942513
 51
26.0322029428
  0
ARC
  5
FE
  8
0
  6
CONTINUOUS
 62
     7
 10
106.2460176911
 20
168.0199202119
 30
0.0
 40
1.785819094040071
 50
127.9512000712
 51
206.0882904166
  0
ARC
  5
FF
  8
0
  6
CONTINUOUS
 62
     7
 10
86.6568639518
 20
193.206148892
 30
0.0
 40
30.12156510914815
 50
307.8702619552
 51
0.098927298
  0
LINE
  5
100
  8
0
  6
CONTINUOUS
 62
     7
 10
116.7783841622
 20
200.420358378
 30
0.0
 11
116.7783841622
 21
193.2581569734
 31
0.0
  0
ARC
  5
101
  8
0
  6
CONTINUOUS
 62
     7
 10
118.7661463478
 20
200.4325952136
 30
0.0
 40
1.98779985081169
 50
90.3570351093
 51
180.3527133108
  0
LINE
  5
102
  8
0
  6
CONTINUOUS
 62
     7
 10
121.1143627894
 20
202.4203564706
 30
0.0
 11
118.7537595761
 21
202.4203564706
 31
0.0
  0
LINE
  5
103
  8
0
  6
CONTINUOUS
 62
     7
 10
118.3586850893
 20
165.6927849832
 30
0.0
 11
118.3586850893
 21
160.5203594747
 31
0.0
  0
ARC
  5
104
  8
0
  6
CONTINUOUS
 62
     7
 10
117.1735623507
 20
165.704966341
 30
0.0
 40
1.185185340397793
 50
359.4111025039
 51
125.3256188161
  0
ARC
  5
105
  8
0
  6
CONTINUOUS
 62
     7
 10
117.0396612056
 20
165.6993429619
 30
0.0
 40
1.193895982895916
 50
359.6852771112
 51
86.5798636769
  0
LINE
  5
106
  8
0
  6
CONTINUOUS
 62
     7
 10
118.7537595761
 20
202.4203564706
 30
0.0
 11
118.6697617304
 21
202.4203564706
 31
0.0
  0
LINE
  5
107
  8
0
  6
CONTINUOUS
 62
     7
 10
118.2335391772
 20
165.6927849832
 30
0.0
 11
118.2335391772
 21
160.5203594747
 31
0.0
  0
LINE
  5
108
  8
0
  6
CONTINUOUS
 62
     7
 10
245.6143692267
 20
160.8203615728
 30
0.0
 11
245.6143692267
 21
151.6631271425
 31
0.0
  0
LINE
  5
109
  8
0
  6
CONTINUOUS
 62
     7
 10
242.2143653166
 20
160.8203615728
 30
0.0
 11
242.2143653166
 21
151.6631271425
 31
0.0
  0
LINE
  5
10A
  8
0
  6
CONTINUOUS
 62
     7
 10
224.8143628371
 20
160.4203607622
 30
0.0
 11
224.8143628371
 21
158.4126200262
 31
0.0
  0
LINE
  5
10B
  8
0
  6
CONTINUOUS
 62
     7
 10
224.8143628371
 20
153.7036981168
 30
0.0
 11
224.8143628371
 21
148.4203602853
 31
0.0
  0
LINE
  5
10C
  8
0
  6
CONTINUOUS
 62
     7
 10
235.8143642676
 20
142.8203608575
 30
0.0
 11
235.8143642676
 21
143.8203599039
 31
0.0
  0
LINE
  5
10D
  8
0
  6
CONTINUOUS
 62
     7
 10
235.8143642676
 20
143.8203599039
 30
0.0
 11
245.6143692267
 21
143.8203599039
 31
0.0
  0
LINE
  5
10E
  8
0
  6
CONTINUOUS
 62
     7
 10
245.6143692267
 20
143.8203599039
 30
0.0
 11
245.6143692267
 21
142.8203608575
 31
0.0
  0
CIRCLE
  5
10F
  8
0
  6
CONTINUOUS
 62
     7
 10
241.7143634093
 20
137.2203608575
 30
0.0
 40
1.100000000000023
  0
ARC
  5
110
  8
0
  6
CONTINUOUS
 62
     7
 10
243.6143634093
 20
134.8203608575
 30
0.0
 40
2.0
 50
270.0
 51
0.0
  0
ARC
  5
111
  8
0
  6
CONTINUOUS
 62
     7
 10
237.8143634093
 20
134.8203608575
 30
0.0
 40
2.0
 50
180.0
 51
270.0
  0
LINE
  5
112
  8
0
  6
CONTINUOUS
 62
     7
 10
243.6143651736
 20
132.8203584733
 30
0.0
 11
237.8143623602
 21
132.8203584733
 31
0.0
  0
LINE
  5
113
  8
0
  6
CONTINUOUS
 62
     7
 10
235.8143642676
 20
134.8203625265
 30
0.0
 11
235.8143642676
 21
142.8203608575
 31
0.0
  0
LINE
  5
114
  8
0
  6
CONTINUOUS
 62
     7
 10
245.6143692267
 20
134.8203625265
 30
0.0
 11
245.6143692267
 21
142.8203608575
 31
0.0
  0
LINE
  5
115
  8
0
  6
CONTINUOUS
 62
     7
 10
245.6143692267
 20
151.6631271425
 30
0.0
 11
245.6143692267
 21
147.3549511018
 31
0.0
  0
LINE
  5
116
  8
0
  6
CONTINUOUS
 62
     7
 10
242.2143653166
 20
147.3549511018
 30
0.0
 11
242.2143653166
 21
151.6631271425
 31
0.0
  0
LINE
  5
117
  8
0
  6
CONTINUOUS
 62
     7
 10
245.6143692267
 20
147.3549511018
 30
0.0
 11
245.6143692267
 21
143.8203599039
 31
0.0
  0
LINE
  5
118
  8
0
  6
CONTINUOUS
 62
     7
 10
242.2143653166
 20
147.3549511018
 30
0.0
 11
242.2143653166
 21
143.8203599039
 31
0.0
  0
LINE
  5
119
  8
0
  6
CONTINUOUS
 62
     7
 10
125.6143629682
 20
160.8203615728
 30
0.0
 11
125.6143629682
 21
151.6631271425
 31
0.0
  0
LINE
  5
11A
  8
0
  6
CONTINUOUS
 62
     7
 10
122.2143635285
 20
160.8203615728
 30
0.0
 11
122.2143635285
 21
151.6631271425
 31
0.0
  0
LINE
  5
11B
  8
0
  6
CONTINUOUS
 62
     7
 10
104.8143640291
 20
160.4203607622
 30
0.0
 11
104.8143640291
 21
148.4203602853
 31
0.0
  0
LINE
  5
11C
  8
0
  6
CONTINUOUS
 62
     7
 10
115.8143624794
 20
142.8203608575
 30
0.0
 11
115.8143624794
 21
143.8203599039
 31
0.0
  0
LINE
  5
11D
  8
0
  6
CONTINUOUS
 62
     7
 10
115.8143624794
 20
143.8203599039
 30
0.0
 11
125.6143629682
 21
143.8203599039
 31
0.0
  0
LINE
  5
11E
  8
0
  6
CONTINUOUS
 62
     7
 10
125.6143629682
 20
143.8203599039
 30
0.0
 11
125.6143629682
 21
142.8203608575
 31
0.0
  0
ARC
  5
11F
  8
0
  6
CONTINUOUS
 62
     7
 10
123.6143634093
 20
134.8203608575
 30
0.0
 40
2.0
 50
270.0
 51
0.0
  0
LINE
  5
120
  8
0
  6
CONTINUOUS
 62
     7
 10
123.6143633854
 20
132.8203584733
 30
0.0
 11
117.8143635523
 21
132.8203584733
 31
0.0
  0
ARC
  5
121
  8
0
  6
CONTINUOUS
 62
     7
 10
117.8143634093
 20
134.8203608575
 30
0.0
 40
2.0
 50
180.0
 51
270.0
  0
LINE
  5
122
  8
0
  6
CONTINUOUS
 62
     7
 10
115.8143624794
 20
134.8203625265
 30
0.0
 11
115.8143624794
 21
142.8203608575
 31
0.0
  0
CIRCLE
  5
123
  8
0
  6
CONTINUOUS
 62
     7
 10
121.7143634093
 20
137.2203608575
 30
0.0
 40
1.099999999999994
  0
LINE
  5
124
  8
0
  6
CONTINUOUS
 62
     7
 10
125.6143629682
 20
134.8203625265
 30
0.0
 11
125.6143629682
 21
142.8203608575
 31
0.0
  0
LINE
  5
125
  8
0
  6
CONTINUOUS
 62
     7
 10
125.6143629682
 20
151.6631271425
 30
0.0
 11
125.6143629682
 21
147.3549511018
 31
0.0
  0
LINE
  5
126
  8
0
  6
CONTINUOUS
 62
     7
 10
122.2143635285
 20
147.3549511018
 30
0.0
 11
122.2143635285
 21
151.6631271425
 31
0.0
  0
LINE
  5
127
  8
0
  6
CONTINUOUS
 62
     7
 10
125.6143629682
 20
147.3549511018
 30
0.0
 11
125.6143629682
 21
143.8203599039
 31
0.0
  0
LINE
  5
128
  8
0
  6
CONTINUOUS
 62
     7
 10
122.2143635285
 20
147.3549511018
 30
0.0
 11
122.2143635285
 21
143.8203599039
 31
0.0
  0
LINE
  5
129
  8
0
  6
CONTINUOUS
 62
     7
 10
46.2143615019
 20
160.8203615728
 30
0.0
 11
46.2143615019
 21
151.6631271425
 31
0.0
  0
LINE
  5
12A
  8
0
  6
CONTINUOUS
 62
     7
 10
42.8143575918
 20
160.8203615728
 30
0.0
 11
42.8143575918
 21
151.6631271425
 31
0.0
  0
LINE
  5
12B
  8
0
  6
CONTINUOUS
 62
     7
 10
63.6143639815
 20
160.4203607622
 30
0.0
 11
63.6143639815
 21
148.4203602853
 31
0.0
  0
CIRCLE
  5
12C
  8
0
  6
CONTINUOUS
 62
     7
 10
46.7143634093
 20
137.2203608575
 30
0.0
 40
1.100000000000009
  0
ARC
  5
12D
  8
0
  6
CONTINUOUS
 62
     7
 10
50.6143634093
 20
134.8203608575
 30
0.0
 40
2.0
 50
270.0
 51
0.0
  0
ARC
  5
12E
  8
0
  6
CONTINUOUS
 62
     7
 10
44.8143634093
 20
134.8203608575
 30
0.0
 40
2.0
 50
180.0
 51
270.0
  0
LINE
  5
12F
  8
0
  6
CONTINUOUS
 62
     7
 10
50.6143644583
 20
132.8203584733
 30
0.0
 11
44.814361645
 21
132.8203584733
 31
0.0
  0
LINE
  5
130
  8
0
  6
CONTINUOUS
 62
     7
 10
52.614362551
 20
142.8203608575
 30
0.0
 11
52.614362551
 21
134.8203625265
 31
0.0
  0
LINE
  5
131
  8
0
  6
CONTINUOUS
 62
     7
 10
42.8143575918
 20
134.8203625265
 30
0.0
 11
42.8143575918
 21
142.8203608575
 31
0.0
  0
LINE
  5
132
  8
0
  6
CONTINUOUS
 62
     7
 10
42.8143575918
 20
143.8203599039
 30
0.0
 11
52.614362551
 21
143.8203599039
 31
0.0
  0
LINE
  5
133
  8
0
  6
CONTINUOUS
 62
     7
 10
52.614362551
 20
143.8203599039
 30
0.0
 11
52.614362551
 21
142.8203608575
 31
0.0
  0
LINE
  5
134
  8
0
  6
CONTINUOUS
 62
     7
 10
42.8143575918
 20
142.8203608575
 30
0.0
 11
42.8143575918
 21
143.8203599039
 31
0.0
  0
LINE
  5
135
  8
0
  6
CONTINUOUS
 62
     7
 10
42.8143575918
 20
147.3549511018
 30
0.0
 11
42.8143575918
 21
151.6631271425
 31
0.0
  0
LINE
  5
136
  8
0
  6
CONTINUOUS
 62
     7
 10
46.2143615019
 20
151.6631271425
 30
0.0
 11
46.2143615019
 21
147.3549511018
 31
0.0
  0
LINE
  5
137
  8
0
  6
CONTINUOUS
 62
     7
 10
42.8143575918
 20
147.3549511018
 30
0.0
 11
42.8143575918
 21
143.8203599039
 31
0.0
  0
LINE
  5
138
  8
0
  6
CONTINUOUS
 62
     7
 10
46.2143615019
 20
147.3549511018
 30
0.0
 11
46.2143615019
 21
143.8203599039
 31
0.0
  0
LINE
  5
139
  8
0
  6
CONTINUOUS
 62
     7
 10
166.2143632901
 20
160.8203615728
 30
0.0
 11
166.2143632901
 21
151.6631271425
 31
0.0
  0
LINE
  5
13A
  8
0
  6
CONTINUOUS
 62
     7
 10
162.8143638503
 20
160.8203615728
 30
0.0
 11
162.8143638503
 21
151.6631271425
 31
0.0
  0
LINE
  5
13B
  8
0
  6
CONTINUOUS
 62
     7
 10
183.6143627894
 20
160.4203607622
 30
0.0
 11
183.6143627894
 21
158.4125008169
 31
0.0
  0
LINE
  5
13C
  8
0
  6
CONTINUOUS
 62
     7
 10
183.6143627894
 20
153.6867286745
 30
0.0
 11
183.6143627894
 21
148.4203602853
 31
0.0
  0
LINE
  5
13D
  8
0
  6
CONTINUOUS
 62
     7
 10
162.8143638503
 20
143.8203599039
 30
0.0
 11
172.6143643391
 21
143.8203599039
 31
0.0
  0
LINE
  5
13E
  8
0
  6
CONTINUOUS
 62
     7
 10
172.6143643391
 20
143.8203599039
 30
0.0
 11
172.6143643391
 21
142.8203608575
 31
0.0
  0
LINE
  5
13F
  8
0
  6
CONTINUOUS
 62
     7
 10
162.8143638503
 20
142.8203608575
 30
0.0
 11
162.8143638503
 21
143.8203599039
 31
0.0
  0
ARC
  5
140
  8
0
  6
CONTINUOUS
 62
     7
 10
170.6143634093
 20
134.8203608575
 30
0.0
 40
2.0
 50
270.0
 51
0.0
  0
LINE
  5
141
  8
0
  6
CONTINUOUS
 62
     7
 10
172.6143643391
 20
142.8203608575
 30
0.0
 11
172.6143643391
 21
134.8203625265
 31
0.0
  0
LINE
  5
142
  8
0
  6
CONTINUOUS
 62
     7
 10
170.6143632662
 20
132.8203584733
 30
0.0
 11
164.8143634331
 21
132.8203584733
 31
0.0
  0
ARC
  5
143
  8
0
  6
CONTINUOUS
 62
     7
 10
164.8143634093
 20
134.8203608575
 30
0.0
 40
2.0
 50
180.0
 51
270.0
  0
CIRCLE
  5
144
  8
0
  6
CONTINUOUS
 62
     7
 10
166.7143634093
 20
137.2203608575
 30
0.0
 40
1.100000000000023
  0
LINE
  5
145
  8
0
  6
CONTINUOUS
 62
     7
 10
162.8143638503
 20
134.8203625265
 30
0.0
 11
162.8143638503
 21
142.8203608575
 31
0.0
  0
LINE
  5
146
  8
0
  6
CONTINUOUS
 62
     7
 10
166.2143632901
 20
151.6631271425
 30
0.0
 11
166.2143632901
 21
147.3549511018
 31
0.0
  0
LINE
  5
147
  8
0
  6
CONTINUOUS
 62
     7
 10
162.8143638503
 20
147.3549511018
 30
0.0
 11
162.8143638503
 21
151.6631271425
 31
0.0
  0
LINE
  5
148
  8
0
  6
CONTINUOUS
 62
     7
 10
166.2143632901
 20
147.3549511018
 30
0.0
 11
166.2143632901
 21
143.8203599039
 31
0.0
  0
LINE
  5
149
  8
0
  6
CONTINUOUS
 62
     7
 10
162.8143638503
 20
147.3549511018
 30
0.0
 11
162.8143638503
 21
143.8203599039
 31
0.0
  0
POLYLINE
  5
14A
  8
0
  6
CONTINUOUS
 62
     7
 66
     1
 10
0.0
 20
0.0
 30
0.0
  0
VERTEX
  5
35D
  8
0
  6
CONTINUOUS
 62
     7
 10
374.216108785
 20
155.2648331705
 30
0.0
  0
VERTEX
  5
35E
  8
0
  6
CONTINUOUS
 62
     7
 10
374.6758572915
 20
155.304005343
 30
0.0
  0
VERTEX
  5
35F
  8
0
  6
CONTINUOUS
 62
     7
 10
377.3640953162
 20
155.5070545259
 30
0.0
  0
VERTEX
  5
360
  8
0
  6
CONTINUOUS
 62
     7
 10
379.8071526149
 20
155.6653167787
 30
0.0
  0
VERTEX
  5
361
  8
0
  6
CONTINUOUS
 62
     7
 10
382.0007406333
 20
155.791195828
 30
0.0
  0
VERTEX
  5
362
  8
0
  6
CONTINUOUS
 62
     7
 10
383.6717806914
 20
155.8795954767
 30
0.0
  0
VERTEX
  5
363
  8
0
  6
CONTINUOUS
 62
     7
 10
385.1598344901
 20
155.9545900407
 30
0.0
  0
VERTEX
  5
364
  8
0
  6
CONTINUOUS
 62
     7
 10
386.4825152018
 20
156.0195352617
 30
0.0
  0
VERTEX
  5
365
  8
0
  6
CONTINUOUS
 62
     7
 10
387.7621673205
 20
156.0824360433
 30
0.0
  0
VERTEX
  5
366
  8
0
  6
CONTINUOUS
 62
     7
 10
389.0242301085
 20
156.1463918271
 30
0.0
  0
VERTEX
  5
367
  8
0
  6
CONTINUOUS
 62
     7
 10
390.2705930331
 20
156.2131847921
 30
0.0
  0
VERTEX
  5
368
  8
0
  6
CONTINUOUS
 62
     7
 10
391.5029786685
 20
156.2844242635
 30
0.0
  0
VERTEX
  5
369
  8
0
  6
CONTINUOUS
 62
     7
 10
392.7229605773
 20
156.3615943971
 30
0.0
  0
VERTEX
  5
36A
  8
0
  6
CONTINUOUS
 62
     7
 10
394.332744942
 20
156.4759876314
 30
0.0
  0
VERTEX
  5
36B
  8
0
  6
CONTINUOUS
 62
     7
 10
395.9422014811
 20
156.6071118894
 30
0.0
  0
VERTEX
  5
36C
  8
0
  6
CONTINUOUS
 62
     7
 10
397.5709401229
 20
156.7113186899
 30
0.0
  0
VERTEX
  5
36D
  8
0
  6
CONTINUOUS
 62
     7
 10
398.0565212825
 20
156.7157175126
 30
0.0
  0
VERTEX
  5
36E
  8
0
  6
CONTINUOUS
 62
     7
 10
398.547657595
 20
156.6991653028
 30
0.0
  0
VERTEX
  5
36F
  8
0
  6
CONTINUOUS
 62
     7
 10
399.139293299
 20
156.6430296483
 30
0.0
  0
VERTEX
  5
370
  8
0
  6
CONTINUOUS
 62
     7
 10
399.8464249232
 20
156.5084721628
 30
0.0
  0
VERTEX
  5
371
  8
0
  6
CONTINUOUS
 62
     7
 10
400.65548049
 20
156.2502708021
 30
0.0
  0
VERTEX
  5
372
  8
0
  6
CONTINUOUS
 62
     7
 10
401.5564106563
 20
155.8345284048
 30
0.0
  0
VERTEX
  5
373
  8
0
  6
CONTINUOUS
 62
     7
 10
402.5419674971
 20
155.2367653432
 30
0.0
  0
VERTEX
  5
374
  8
0
  6
CONTINUOUS
 62
     7
 10
403.6092363456
 20
154.4471349302
 30
0.0
  0
VERTEX
  5
375
  8
0
  6
CONTINUOUS
 62
     7
 10
404.7616444686
 20
153.4772064271
 30
0.0
  0
VERTEX
  5
376
  8
0
  6
CONTINUOUS
 62
     7
 10
405.5378042319
 20
152.787503201
 30
0.0
  0
SEQEND
  5
54D
  8
0
  6
CONTINUOUS
 62
     7
  0
LINE
  5
14B
  8
0
  6
CONTINUOUS
 62
     7
 10
405.5546723464
 20
152.7924861494
 30
0.0
 11
405.5546723464
 21
154.3878700319
 31
0.0
  0
POLYLINE
  5
14C
  8
0
  6
CONTINUOUS
 62
     7
 66
     1
 10
0.0
 20
0.0
 30
0.0
  0
VERTEX
  5
377
  8
0
  6
CONTINUOUS
 62
     7
 10
325.6832319004
 20
202.1087672296
 30
0.0
  0
VERTEX
  5
378
  8
0
  6
CONTINUOUS
 62
     7
 10
325.6440638722
 20
202.5685097757
 30
0.0
  0
VERTEX
  5
379
  8
0
  6
CONTINUOUS
 62
     7
 10
325.4410115228
 20
205.2567507806
 30
0.0
  0
VERTEX
  5
37A
  8
0
  6
CONTINUOUS
 62
     7
 10
325.2827488044
 20
207.6998021188
 30
0.0
  0
VERTEX
  5
37B
  8
0
  6
CONTINUOUS
 62
     7
 10
325.1568741323
 20
209.8933960977
 30
0.0
  0
VERTEX
  5
37C
  8
0
  6
CONTINUOUS
 62
     7
 10
325.0684745767
 20
211.5644361558
 30
0.0
  0
VERTEX
  5
37D
  8
0
  6
CONTINUOUS
 62
     7
 10
324.9934745179
 20
213.0524899545
 30
0.0
  0
VERTEX
  5
37E
  8
0
  6
CONTINUOUS
 62
     7
 10
324.9285334879
 20
214.3751766267
 30
0.0
  0
VERTEX
  5
37F
  8
0
  6
CONTINUOUS
 62
     7
 10
324.8656306574
 20
215.6548168245
 30
0.0
  0
VERTEX
  5
380
  8
0
  6
CONTINUOUS
 62
     7
 10
324.8016735697
 20
216.916885573
 30
0.0
  0
VERTEX
  5
381
  8
0
  6
CONTINUOUS
 62
     7
 10
324.7348848888
 20
218.1632425371
 30
0.0
  0
VERTEX
  5
382
  8
0
  6
CONTINUOUS
 62
     7
 10
324.6636422509
 20
219.3956281724
 30
0.0
  0
VERTEX
  5
383
  8
0
  6
CONTINUOUS
 62
     7
 10
324.5864721173
 20
220.6156160417
 30
0.0
  0
VERTEX
  5
384
  8
0
  6
CONTINUOUS
 62
     7
 10
324.4720790693
 20
222.2253944459
 30
0.0
  0
VERTEX
  5
385
  8
0
  6
CONTINUOUS
 62
     7
 10
324.3409577915
 20
223.8348509851
 30
0.0
  0
VERTEX
  5
386
  8
0
  6
CONTINUOUS
 62
     7
 10
324.2367455894
 20
225.4635955873
 30
0.0
  0
VERTEX
  5
387
  8
0
  6
CONTINUOUS
 62
     7
 10
324.2323467666
 20
225.9491707864
 30
0.0
  0
VERTEX
  5
388
  8
0
  6
CONTINUOUS
 62
     7
 10
324.2488995352
 20
226.4403130594
 30
0.0
  0
VERTEX
  5
389
  8
0
  6
CONTINUOUS
 62
     7
 10
324.3050364935
 20
227.0319487634
 30
0.0
  0
VERTEX
  5
38A
  8
0
  6
CONTINUOUS
 62
     7
 10
324.4395971456
 20
227.7390744272
 30
0.0
  0
VERTEX
  5
38B
  8
0
  6
CONTINUOUS
 62
     7
 10
324.6977981338
 20
228.5481359544
 30
0.0
  0
VERTEX
  5
38C
  8
0
  6
CONTINUOUS
 62
     7
 10
325.1135408105
 20
229.4490601602
 30
0.0
  0
VERTEX
  5
38D
  8
0
  6
CONTINUOUS
 62
     7
 10
325.7113011246
 20
230.4346229616
 30
0.0
  0
VERTEX
  5
38E
  8
0
  6
CONTINUOUS
 62
     7
 10
326.5009341803
 20
231.50189181
 30
0.0
  0
VERTEX
  5
38F
  8
0
  6
CONTINUOUS
 62
     7
 10
327.4708593422
 20
232.654299933
 30
0.0
  0
VERTEX
  5
390
  8
0
  6
CONTINUOUS
 62
     7
 10
328.1605634996
 20
233.4304596963
 30
0.0
  0
SEQEND
  5
54C
  8
0
  6
CONTINUOUS
 62
     7
  0
LINE
  5
14D
  8
0
  6
CONTINUOUS
 62
     7
 10
328.1555809238
 20
233.4473278108
 30
0.0
 11
326.5601981705
 21
233.4473278108
 31
0.0
  0
LINE
  5
14E
  8
0
  6
CONTINUOUS
 62
     7
 10
322.4277064362
 20
143.0203582826
 30
0.0
 11
330.4277062574
 21
143.0203582826
 31
0.0
  0
ARC
  5
14F
  8
0
  6
CONTINUOUS
 62
     7
 10
322.4277063468
 20
142.0203608575
 30
0.0
 40
1.0
 50
90.0
 51
180.0
  0
LINE
  5
150
  8
0
  6
CONTINUOUS
 62
     7
 10
330.4277062574
 20
133.0203618589
 30
0.0
 11
322.4277064362
 21
133.0203618589
 31
0.0
  0
ARC
  5
151
  8
0
  6
CONTINUOUS
 62
     7
 10
322.4277063468
 20
134.0203608575
 30
0.0
 40
1.0
 50
180.0
 51
270.0
  0
LINE
  5
152
  8
0
  6
CONTINUOUS
 62
     7
 10
321.4277062723
 20
134.0203609052
 30
0.0
 11
321.4277062723
 21
142.0203592363
 31
0.0
  0
ARC
  5
153
  8
0
  6
CONTINUOUS
 62
     7
 10
330.4277063468
 20
142.0203608575
 30
0.0
 40
1.000000000000057
 50
0.0
 51
90.0
  0
LINE
  5
154
  8
0
  6
CONTINUOUS
 62
     7
 10
331.4277064213
 20
142.0203592363
 30
0.0
 11
331.4277064213
 21
134.0203609052
 31
0.0
  0
ARC
  5
155
  8
0
  6
CONTINUOUS
 62
     7
 10
330.4277063468
 20
134.0203608575
 30
0.0
 40
1.000000000000057
 50
270.0
 51
0.0
  0
LINE
  5
156
  8
0
  6
CONTINUOUS
 62
     7
 10
314.427706615
 20
67.8203608575
 30
0.0
 11
314.427706615
 21
69.020360868
 31
0.0
  0
LINE
  5
157
  8
0
  6
CONTINUOUS
 62
     7
 10
318.4277065256
 20
67.8203608575
 30
0.0
 11
314.427706615
 21
67.8203608575
 31
0.0
  0
LINE
  5
158
  8
0
  6
CONTINUOUS
 62
     7
 10
314.427706615
 20
69.020360868
 30
0.0
 11
318.4277065256
 21
69.020360868
 31
0.0
  0
LINE
  5
159
  8
0
  6
CONTINUOUS
 62
     7
 10
318.4277065256
 20
67.8203608575
 30
0.0
 11
320.4277064809
 21
67.8203608575
 31
0.0
  0
LINE
  5
15A
  8
0
  6
CONTINUOUS
 62
     7
 10
318.4277065256
 20
69.020360868
 30
0.0
 11
320.4277064809
 21
69.020360868
 31
0.0
  0
LINE
  5
15B
  8
0
  6
CONTINUOUS
 62
     7
 10
320.4277064809
 20
67.8203608575
 30
0.0
 11
347.796127961
 21
67.8203608575
 31
0.0
  0
LINE
  5
15C
  8
0
  6
CONTINUOUS
 62
     7
 10
347.796127961
 20
69.020360868
 30
0.0
 11
320.4277064809
 21
69.020360868
 31
0.0
  0
LINE
  5
15D
  8
0
  6
CONTINUOUS
 62
     7
 10
350.4277058103
 20
69.020360868
 30
0.0
 11
350.4277058103
 21
67.8203608575
 31
0.0
  0
LINE
  5
15E
  8
0
  6
CONTINUOUS
 62
     7
 10
350.4277058103
 20
67.8203608575
 30
0.0
 11
347.796127961
 21
67.8203608575
 31
0.0
  0
LINE
  5
15F
  8
0
  6
CONTINUOUS
 62
     7
 10
347.796127961
 20
69.020360868
 30
0.0
 11
350.4277058103
 21
69.020360868
 31
0.0
  0
LINE
  5
160
  8
0
  6
CONTINUOUS
 62
     7
 10
321.4277062723
 20
69.020360868
 30
0.0
 11
321.4277062723
 21
132.8203584733
 31
0.0
  0
LINE
  5
161
  8
0
  6
CONTINUOUS
 62
     7
 10
331.4277064213
 20
134.0203609052
 30
0.0
 11
331.4277064213
 21
69.020360868
 31
0.0
  0
POLYLINE
  5
162
  8
0
  6
CONTINUOUS
 62
     7
 66
     1
 10
0.0
 20
0.0
 30
0.0
  0
VERTEX
  5
391
  8
0
  6
CONTINUOUS
 62
     7
 10
397.2166679957
 20
158.3594109598
 30
0.0
  0
VERTEX
  5
392
  8
0
  6
CONTINUOUS
 62
     7
 10
396.0123621085
 20
158.5263516488
 30
0.0
  0
VERTEX
  5
393
  8
0
  6
CONTINUOUS
 62
     7
 10
394.7987817386
 20
158.6381282392
 30
0.0
  0
VERTEX
  5
394
  8
0
  6
CONTINUOUS
 62
     7
 10
392.4936555484
 20
158.7356950822
 30
0.0
  0
VERTEX
  5
395
  8
0
  6
CONTINUOUS
 62
     7
 10
390.1857219794
 20
158.7235059324
 30
0.0
  0
VERTEX
  5
396
  8
0
  6
CONTINUOUS
 62
     7
 10
385.5554662803
 20
158.5741068902
 30
0.0
  0
SEQEND
  5
54B
  8
0
  6
CONTINUOUS
 62
     7
  0
POLYLINE
  5
163
  8
0
  6
CONTINUOUS
 62
     7
 66
     1
 10
0.0
 20
0.0
 30
0.0
  0
VERTEX
  5
397
  8
0
  6
CONTINUOUS
 62
     7
 10
385.5554662803
 20
158.5741128507
 30
0.0
  0
VERTEX
  5
398
  8
0
  6
CONTINUOUS
 62
     7
 10
384.1925524333
 20
158.5532393041
 30
0.0
  0
VERTEX
  5
399
  8
0
  6
CONTINUOUS
 62
     7
 10
382.7199660399
 20
158.5472132745
 30
0.0
  0
VERTEX
  5
39A
  8
0
  6
CONTINUOUS
 62
     7
 10
381.3211105922
 20
158.5519458833
 30
0.0
  0
VERTEX
  5
39B
  8
0
  6
CONTINUOUS
 62
     7
 10
379.8416577437
 20
158.5621740404
 30
0.0
  0
VERTEX
  5
39C
  8
0
  6
CONTINUOUS
 62
     7
 10
378.413172827
 20
158.572294909
 30
0.0
  0
VERTEX
  5
39D
  8
0
  6
CONTINUOUS
 62
     7
 10
376.9009493449
 20
158.5777129713
 30
0.0
  0
VERTEX
  5
39E
  8
0
  6
CONTINUOUS
 62
     7
 10
375.5560986855
 20
158.5740770879
 30
0.0
  0
SEQEND
  5
54A
  8
0
  6
CONTINUOUS
 62
     7
  0
POLYLINE
  5
164
  8
0
  6
CONTINUOUS
 62
     7
 66
     1
 10
0.0
 20
0.0
 30
0.0
  0
VERTEX
  5
39F
  8
0
  6
CONTINUOUS
 62
     7
 10
375.5560986855
 20
158.5740770879
 30
0.0
  0
VERTEX
  5
3A0
  8
0
  6
CONTINUOUS
 62
     7
 10
373.1255017379
 20
158.5847642007
 30
0.0
  0
VERTEX
  5
3A1
  8
0
  6
CONTINUOUS
 62
     7
 10
365.554680691
 20
158.5741068902
 30
0.0
  0
SEQEND
  5
549
  8
0
  6
CONTINUOUS
 62
     7
  0
POLYLINE
  5
165
  8
0
  6
CONTINUOUS
 62
     7
 66
     1
 10
0.0
 20
0.0
 30
0.0
  0
VERTEX
  5
3A2
  8
0
  6
CONTINUOUS
 62
     7
 10
365.554680691
 20
158.5740949693
 30
0.0
  0
VERTEX
  5
3A3
  8
0
  6
CONTINUOUS
 62
     7
 10
364.0325211146
 20
158.6452152315
 30
0.0
  0
VERTEX
  5
3A4
  8
0
  6
CONTINUOUS
 62
     7
 10
362.2935615638
 20
158.7307061735
 30
0.0
  0
VERTEX
  5
3A5
  8
0
  6
CONTINUOUS
 62
     7
 10
360.6359474519
 20
158.7839569631
 30
0.0
  0
VERTEX
  5
3A6
  8
0
  6
CONTINUOUS
 62
     7
 10
359.0437017539
 20
158.7796296659
 30
0.0
  0
VERTEX
  5
3A7
  8
0
  6
CONTINUOUS
 62
     7
 10
357.4398748734
 20
158.6907293382
 30
0.0
  0
SEQEND
  5
548
  8
0
  6
CONTINUOUS
 62
     7
  0
POLYLINE
  5
166
  8
0
  6
CONTINUOUS
 62
     7
 66
     1
 10
0.0
 20
0.0
 30
0.0
  0
VERTEX
  5
3A8
  8
0
  6
CONTINUOUS
 62
     7
 10
342.3681818107
 20
159.7350444379
 30
0.0
  0
VERTEX
  5
3A9
  8
0
  6
CONTINUOUS
 62
     7
 10
345.0947545627
 20
159.737047154
 30
0.0
  0
VERTEX
  5
3AA
  8
0
  6
CONTINUOUS
 62
     7
 10
347.8018783191
 20
159.7396161142
 30
0.0
  0
VERTEX
  5
3AB
  8
0
  6
CONTINUOUS
 62
     7
 10
350.5207754829
 20
159.7411896768
 30
0.0
  0
VERTEX
  5
3AC
  8
0
  6
CONTINUOUS
 62
     7
 10
353.2460443833
 20
159.7425248208
 30
0.0
  0
VERTEX
  5
3AD
  8
0
  6
CONTINUOUS
 62
     7
 10
355.9722118237
 20
159.7429658952
 30
0.0
  0
VERTEX
  5
3AE
  8
0
  6
CONTINUOUS
 62
     7
 10
360.5211369851
 20
159.7417916837
 30
0.0
  0
VERTEX
  5
3AF
  8
0
  6
CONTINUOUS
 62
     7
 10
365.071814523
 20
159.7460653367
 30
0.0
  0
VERTEX
  5
3B0
  8
0
  6
CONTINUOUS
 62
     7
 10
369.6180574754
 20
159.7605075422
 30
0.0
  0
VERTEX
  5
3B1
  8
0
  6
CONTINUOUS
 62
     7
 10
374.1690181353
 20
159.7631063047
 30
0.0
  0
VERTEX
  5
3B2
  8
0
  6
CONTINUOUS
 62
     7
 10
378.7293337443
 20
159.7309019151
 30
0.0
  0
VERTEX
  5
3B3
  8
0
  6
CONTINUOUS
 62
     7
 10
383.2622312167
 20
159.7231473508
 30
0.0
  0
VERTEX
  5
3B4
  8
0
  6
CONTINUOUS
 62
     7
 10
385.5089627364
 20
159.7619201723
 30
0.0
  0
VERTEX
  5
3B5
  8
0
  6
CONTINUOUS
 62
     7
 10
387.7570830443
 20
159.8369683805
 30
0.0
  0
VERTEX
  5
3B6
  8
0
  6
CONTINUOUS
 62
     7
 10
390.0324724772
 20
159.9096860471
 30
0.0
  0
VERTEX
  5
3B7
  8
0
  6
CONTINUOUS
 62
     7
 10
392.3457585433
 20
159.9283244195
 30
0.0
  0
VERTEX
  5
3B8
  8
0
  6
CONTINUOUS
 62
     7
 10
394.7068296531
 20
159.8398055616
 30
0.0
  0
VERTEX
  5
3B9
  8
0
  6
CONTINUOUS
 62
     7
 10
397.1290193656
 20
159.5839764657
 30
0.0
  0
SEQEND
  5
547
  8
0
  6
CONTINUOUS
 62
     7
  0
POLYLINE
  5
167
  8
0
  6
CONTINUOUS
 62
     7
 66
     1
 10
0.0
 20
0.0
 30
0.0
  0
VERTEX
  5
3BA
  8
0
  6
CONTINUOUS
 62
     7
 10
357.4398748734
 20
158.6907293382
 30
0.0
  0
VERTEX
  5
3BB
  8
0
  6
CONTINUOUS
 62
     7
 10
356.5513782361
 20
158.6243595663
 30
0.0
  0
VERTEX
  5
3BC
  8
0
  6
CONTINUOUS
 62
     7
 10
355.5887751439
 20
158.5740115228
 30
0.0
  0
SEQEND
  5
546
  8
0
  6
CONTINUOUS
 62
     7
  0
LINE
  5
168
  8
0
  6
CONTINUOUS
 62
     7
 10
365.554680691
 20
158.5740890088
 30
0.0
 11
357.4398748734
 21
158.566841084
 31
0.0
  0
POLYLINE
  5
169
  8
0
  6
CONTINUOUS
 62
     7
 66
     1
 10
0.0
 20
0.0
 30
0.0
  0
VERTEX
  5
3BD
  8
0
  6
CONTINUOUS
 62
     7
 10
385.5554662803
 20
158.5741068902
 30
0.0
  0
VERTEX
  5
3BE
  8
0
  6
CONTINUOUS
 62
     7
 10
380.556913481
 20
158.5317101064
 30
0.0
  0
VERTEX
  5
3BF
  8
0
  6
CONTINUOUS
 62
     7
 10
375.5560986855
 20
158.5740770879
 30
0.0
  0
SEQEND
  5
545
  8
0
  6
CONTINUOUS
 62
     7
  0
ARC
  5
16A
  8
0
  6
CONTINUOUS
 62
     7
 10
395.1774886167
 20
145.9993742348
 30
0.0
 40
12.52712687431185
 50
44.8211014007
 51
80.6316422878
  0
POLYLINE
  5
16B
  8
0
  6
CONTINUOUS
 62
     7
 66
     1
 10
0.0
 20
0.0
 30
0.0
  0
VERTEX
  5
3C0
  8
0
  6
CONTINUOUS
 62
     7
 10
405.542232857
 20
152.7924861494
 30
0.0
  0
VERTEX
  5
3C1
  8
0
  6
CONTINUOUS
 62
     7
 10
405.5441461661
 20
152.7899231496
 30
0.0
  0
VERTEX
  5
3C2
  8
0
  6
CONTINUOUS
 62
     7
 10
405.4485045531
 20
152.928879458
 30
0.0
  0
VERTEX
  5
3C3
  8
0
  6
CONTINUOUS
 62
     7
 10
405.2533231833
 20
153.2092060628
 30
0.0
  0
VERTEX
  5
3C4
  8
0
  6
CONTINUOUS
 62
     7
 10
404.956295357
 20
153.6297883573
 30
0.0
  0
VERTEX
  5
3C5
  8
0
  6
CONTINUOUS
 62
     7
 10
404.5592688182
 20
154.1753854337
 30
0.0
  0
VERTEX
  5
3C6
  8
0
  6
CONTINUOUS
 62
     7
 10
404.0631197551
 20
154.8296894613
 30
0.0
  0
SEQEND
  5
544
  8
0
  6
CONTINUOUS
 62
     7
  0
POLYLINE
  5
16C
  8
0
  6
CONTINUOUS
 62
     7
 66
     1
 10
0.0
 20
0.0
 30
0.0
  0
VERTEX
  5
3C7
  8
0
  6
CONTINUOUS
 62
     7
 10
342.3681788304
 20
159.7350027147
 30
0.0
  0
VERTEX
  5
3C8
  8
0
  6
CONTINUOUS
 62
     7
 10
341.6212462047
 20
159.7227301183
 30
0.0
  0
VERTEX
  5
3C9
  8
0
  6
CONTINUOUS
 62
     7
 10
340.9049309948
 20
159.6856202665
 30
0.0
  0
VERTEX
  5
3CA
  8
0
  6
CONTINUOUS
 62
     7
 10
340.2087666252
 20
159.6208300176
 30
0.0
  0
VERTEX
  5
3CB
  8
0
  6
CONTINUOUS
 62
     7
 10
339.608890579
 20
159.5376219335
 30
0.0
  0
VERTEX
  5
3CC
  8
0
  6
CONTINUOUS
 62
     7
 10
339.0437312582
 20
159.4301368776
 30
0.0
  0
VERTEX
  5
3CD
  8
0
  6
CONTINUOUS
 62
     7
 10
338.5343469837
 20
159.3026127401
 30
0.0
  0
VERTEX
  5
3CE
  8
0
  6
CONTINUOUS
 62
     7
 10
338.0919300177
 20
159.1593708578
 30
0.0
  0
VERTEX
  5
3CF
  8
0
  6
CONTINUOUS
 62
     7
 10
337.7253346303
 20
159.0051438394
 30
0.0
  0
SEQEND
  5
543
  8
0
  6
CONTINUOUS
 62
     7
  0
LINE
  5
16D
  8
0
  6
CONTINUOUS
 62
     7
 10
337.7253346303
 20
159.0051438394
 30
0.0
 11
337.3300500372
 21
158.8105108323
 31
0.0
  0
ARC
  5
16E
  8
0
  6
CONTINUOUS
 62
     7
 10
376.1293933127
 20
133.5530337849
 30
0.0
 40
36.04883730387343
 50
35.3072853006
 51
39.1792790855
  0
ARC
  5
16F
  8
0
  6
CONTINUOUS
 62
     7
 10
395.5080131243
 20
147.0962154725
 30
0.0
 40
12.59253095524409
 50
47.14056264
 51
82.6039288339
  0
LINE
  5
170
  8
0
  6
CONTINUOUS
 62
     7
 10
357.4398748734
 20
158.6907293382
 30
0.0
 11
357.4398748734
 21
158.6517359796
 31
0.0
  0
POLYLINE
  5
171
  8
0
  6
CONTINUOUS
 62
     7
 66
     1
 10
0.0
 20
0.0
 30
0.0
  0
VERTEX
  5
3D0
  8
0
  6
CONTINUOUS
 62
     7
 10
322.5886546233
 20
225.1093294206
 30
0.0
  0
VERTEX
  5
3D1
  8
0
  6
CONTINUOUS
 62
     7
 10
322.4217184046
 20
223.9050175729
 30
0.0
  0
VERTEX
  5
3D2
  8
0
  6
CONTINUOUS
 62
     7
 10
322.3099380889
 20
222.6914431634
 30
0.0
  0
VERTEX
  5
3D3
  8
0
  6
CONTINUOUS
 62
     7
 10
322.2123701283
 20
220.3863050523
 30
0.0
  0
VERTEX
  5
3D4
  8
0
  6
CONTINUOUS
 62
     7
 10
322.2245600232
 20
218.0783774438
 30
0.0
  0
VERTEX
  5
3D5
  8
0
  6
CONTINUOUS
 62
     7
 10
322.3739579478
 20
213.4481217447
 30
0.0
  0
SEQEND
  5
542
  8
0
  6
CONTINUOUS
 62
     7
  0
POLYLINE
  5
172
  8
0
  6
CONTINUOUS
 62
     7
 66
     1
 10
0.0
 20
0.0
 30
0.0
  0
VERTEX
  5
3D6
  8
0
  6
CONTINUOUS
 62
     7
 10
322.3739534774
 20
213.4481217447
 30
0.0
  0
VERTEX
  5
3D7
  8
0
  6
CONTINUOUS
 62
     7
 10
322.3948255339
 20
212.0852019372
 30
0.0
  0
VERTEX
  5
3D8
  8
0
  6
CONTINUOUS
 62
     7
 10
322.4008552888
 20
210.6126215043
 30
0.0
  0
VERTEX
  5
3D9
  8
0
  6
CONTINUOUS
 62
     7
 10
322.3961230525
 20
209.213772017
 30
0.0
  0
VERTEX
  5
3DA
  8
0
  6
CONTINUOUS
 62
     7
 10
322.3858926603
 20
207.7343132081
 30
0.0
  0
VERTEX
  5
3DB
  8
0
  6
CONTINUOUS
 62
     7
 10
322.3757747718
 20
206.3058282915
 30
0.0
  0
VERTEX
  5
3DC
  8
0
  6
CONTINUOUS
 62
     7
 10
322.3703526118
 20
204.7935988489
 30
0.0
  0
VERTEX
  5
3DD
  8
0
  6
CONTINUOUS
 62
     7
 10
322.3739914754
 20
203.4487511697
 30
0.0
  0
SEQEND
  5
541
  8
0
  6
CONTINUOUS
 62
     7
  0
POLYLINE
  5
173
  8
0
  6
CONTINUOUS
 62
     7
 66
     1
 10
0.0
 20
0.0
 30
0.0
  0
VERTEX
  5
3DE
  8
0
  6
CONTINUOUS
 62
     7
 10
322.3739899853
 20
203.4487511697
 30
0.0
  0
VERTEX
  5
3DF
  8
0
  6
CONTINUOUS
 62
     7
 10
322.3633024999
 20
201.0181572023
 30
0.0
  0
VERTEX
  5
3E0
  8
0
  6
CONTINUOUS
 62
     7
 10
322.3739575752
 20
193.447330195
 30
0.0
  0
SEQEND
  5
540
  8
0
  6
CONTINUOUS
 62
     7
  0
POLYLINE
  5
174
  8
0
  6
CONTINUOUS
 62
     7
 66
     1
 10
0.0
 20
0.0
 30
0.0
  0
VERTEX
  5
3E1
  8
0
  6
CONTINUOUS
 62
     7
 10
322.373974339
 20
193.447330195
 30
0.0
  0
VERTEX
  5
3E2
  8
0
  6
CONTINUOUS
 62
     7
 10
322.3028510967
 20
191.9251825395
 30
0.0
  0
VERTEX
  5
3E3
  8
0
  6
CONTINUOUS
 62
     7
 10
322.2173631349
 20
190.1862170282
 30
0.0
  0
VERTEX
  5
3E4
  8
0
  6
CONTINUOUS
 62
     7
 10
322.1641116002
 20
188.528599936
 30
0.0
  0
VERTEX
  5
3E5
  8
0
  6
CONTINUOUS
 62
     7
 10
322.1684370348
 20
186.9363572183
 30
0.0
  0
VERTEX
  5
3E6
  8
0
  6
CONTINUOUS
 62
     7
 10
322.2573407152
 20
185.3325273576
 30
0.0
  0
SEQEND
  5
53F
  8
0
  6
CONTINUOUS
 62
     7
  0
POLYLINE
  5
175
  8
0
  6
CONTINUOUS
 62
     7
 66
     1
 10
0.0
 20
0.0
 30
0.0
  0
VERTEX
  5
3E7
  8
0
  6
CONTINUOUS
 62
     7
 10
321.2130244979
 20
170.2608372751
 30
0.0
  0
VERTEX
  5
3E8
  8
0
  6
CONTINUOUS
 62
     7
 10
321.2110221544
 20
172.9874040666
 30
0.0
  0
VERTEX
  5
3E9
  8
0
  6
CONTINUOUS
 62
     7
 10
321.2084505865
 20
175.694527823
 30
0.0
  0
VERTEX
  5
3EA
  8
0
  6
CONTINUOUS
 62
     7
 10
321.2068773964
 20
178.4134294572
 30
0.0
  0
VERTEX
  5
3EB
  8
0
  6
CONTINUOUS
 62
     7
 10
321.2055403897
 20
181.1386968675
 30
0.0
  0
VERTEX
  5
3EC
  8
0
  6
CONTINUOUS
 62
     7
 10
321.2051034131
 20
183.8648702684
 30
0.0
  0
VERTEX
  5
3ED
  8
0
  6
CONTINUOUS
 62
     7
 10
321.206275762
 20
188.4137894693
 30
0.0
  0
VERTEX
  5
3EE
  8
0
  6
CONTINUOUS
 62
     7
 10
321.2020035991
 20
192.9644729677
 30
0.0
  0
VERTEX
  5
3EF
  8
0
  6
CONTINUOUS
 62
     7
 10
321.1875613937
 20
197.5107099595
 30
0.0
  0
VERTEX
  5
3F0
  8
0
  6
CONTINUOUS
 62
     7
 10
321.1849626311
 20
202.0616676393
 30
0.0
  0
VERTEX
  5
3F1
  8
0
  6
CONTINUOUS
 62
     7
 10
321.2171670207
 20
206.6219832483
 30
0.0
  0
VERTEX
  5
3F2
  8
0
  6
CONTINUOUS
 62
     7
 10
321.2249186048
 20
211.1548807207
 30
0.0
  0
VERTEX
  5
3F3
  8
0
  6
CONTINUOUS
 62
     7
 10
321.1861442932
 20
213.4016182008
 30
0.0
  0
VERTEX
  5
3F4
  8
0
  6
CONTINUOUS
 62
     7
 10
321.1110998103
 20
215.6497385087
 30
0.0
  0
VERTEX
  5
3F5
  8
0
  6
CONTINUOUS
 62
     7
 10
321.0383806535
 20
217.9251339021
 30
0.0
  0
VERTEX
  5
3F6
  8
0
  6
CONTINUOUS
 62
     7
 10
321.0197426536
 20
220.2384140077
 30
0.0
  0
VERTEX
  5
3F7
  8
0
  6
CONTINUOUS
 62
     7
 10
321.1082611391
 20
222.5994851175
 30
0.0
  0
VERTEX
  5
3F8
  8
0
  6
CONTINUOUS
 62
     7
 10
321.3640913525
 20
225.02167483
 30
0.0
  0
SEQEND
  5
53E
  8
0
  6
CONTINUOUS
 62
     7
  0
POLYLINE
  5
176
  8
0
  6
CONTINUOUS
 62
     7
 66
     1
 10
0.0
 20
0.0
 30
0.0
  0
VERTEX
  5
3F9
  8
0
  6
CONTINUOUS
 62
     7
 10
322.2573407152
 20
185.3325273576
 30
0.0
  0
VERTEX
  5
3FA
  8
0
  6
CONTINUOUS
 62
     7
 10
322.323708252
 20
184.4440366807
 30
0.0
  0
VERTEX
  5
3FB
  8
0
  6
CONTINUOUS
 62
     7
 10
322.374056668
 20
183.4814335885
 30
0.0
  0
SEQEND
  5
53D
  8
0
  6
CONTINUOUS
 62
     7
  0
LINE
  5
177
  8
0
  6
CONTINUOUS
 62
     7
 10
322.3739795545
 20
193.447330195
 30
0.0
 11
322.3812263617
 21
185.3325273576
 31
0.0
  0
POLYLINE
  5
178
  8
0
  6
CONTINUOUS
 62
     7
 66
     1
 10
0.0
 20
0.0
 30
0.0
  0
VERTEX
  5
3FC
  8
0
  6
CONTINUOUS
 62
     7
 10
322.3739583203
 20
213.4481217447
 30
0.0
  0
VERTEX
  5
3FD
  8
0
  6
CONTINUOUS
 62
     7
 10
322.4163569668
 20
208.4495689454
 30
0.0
  0
VERTEX
  5
3FE
  8
0
  6
CONTINUOUS
 62
     7
 10
322.3739899853
 20
203.4487511697
 30
0.0
  0
SEQEND
  5
53C
  8
0
  6
CONTINUOUS
 62
     7
  0
ARC
  5
179
  8
0
  6
CONTINUOUS
 62
     7
 10
334.9488145378
 20
223.0700889197
 30
0.0
 40
12.52725506230376
 50
134.821294778
 51
170.6314556836
  0
POLYLINE
  5
17A
  8
0
  6
CONTINUOUS
 62
     7
 66
     1
 10
0.0
 20
0.0
 30
0.0
  0
VERTEX
  5
3FF
  8
0
  6
CONTINUOUS
 62
     7
 10
328.1555809238
 20
233.434882361
 30
0.0
  0
VERTEX
  5
400
  8
0
  6
CONTINUOUS
 62
     7
 10
328.1581455999
 20
233.4368016305
 30
0.0
  0
VERTEX
  5
401
  8
0
  6
CONTINUOUS
 62
     7
 10
328.0191864976
 20
233.3411600175
 30
0.0
  0
VERTEX
  5
402
  8
0
  6
CONTINUOUS
 62
     7
 10
327.7388638975
 20
233.1459786477
 30
0.0
  0
VERTEX
  5
403
  8
0
  6
CONTINUOUS
 62
     7
 10
327.3182802991
 20
232.8489567819
 30
0.0
  0
VERTEX
  5
404
  8
0
  6
CONTINUOUS
 62
     7
 10
326.7726834555
 20
232.4519302431
 30
0.0
  0
VERTEX
  5
405
  8
0
  6
CONTINUOUS
 62
     7
 10
326.1183789623
 20
231.9557811799
 30
0.0
  0
SEQEND
  5
53B
  8
0
  6
CONTINUOUS
 62
     7
  0
POLYLINE
  5
17B
  8
0
  6
CONTINUOUS
 62
     7
 66
     1
 10
0.0
 20
0.0
 30
0.0
  0
VERTEX
  5
406
  8
0
  6
CONTINUOUS
 62
     7
 10
321.2130617508
 20
170.2608372751
 30
0.0
  0
VERTEX
  5
407
  8
0
  6
CONTINUOUS
 62
     7
 10
321.2253399351
 20
169.5138957086
 30
0.0
  0
VERTEX
  5
408
  8
0
  6
CONTINUOUS
 62
     7
 10
321.2624486694
 20
168.7975909295
 30
0.0
  0
VERTEX
  5
409
  8
0
  6
CONTINUOUS
 62
     7
 10
321.3272351929
 20
168.1014205995
 30
0.0
  0
VERTEX
  5
40A
  8
0
  6
CONTINUOUS
 62
     7
 10
321.4104443946
 20
167.5015475336
 30
0.0
  0
VERTEX
  5
40B
  8
0
  6
CONTINUOUS
 62
     7
 10
321.5179331758
 20
166.9363882127
 30
0.0
  0
VERTEX
  5
40C
  8
0
  6
CONTINUOUS
 62
     7
 10
321.6454550782
 20
166.427000958
 30
0.0
  0
VERTEX
  5
40D
  8
0
  6
CONTINUOUS
 62
     7
 10
321.7886947253
 20
165.9845854822
 30
0.0
  0
VERTEX
  5
40E
  8
0
  6
CONTINUOUS
 62
     7
 10
321.9429250964
 20
165.6179871145
 30
0.0
  0
SEQEND
  5
53A
  8
0
  6
CONTINUOUS
 62
     7
  0
LINE
  5
17C
  8
0
  6
CONTINUOUS
 62
     7
 10
321.9429250964
 20
165.6179871145
 30
0.0
 11
322.1375554958
 21
165.2227069917
 31
0.0
  0
ARC
  5
17D
  8
0
  6
CONTINUOUS
 62
     7
 10
347.3978557075
 20
204.0184833273
 30
0.0
 40
36.05337758413926
 50
125.3076694524
 51
129.179178497
  0
ARC
  5
17E
  8
0
  6
CONTINUOUS
 62
     7
 10
333.8517248958
 20
223.4007184656
 30
0.0
 40
12.5923977757594
 50
137.1403469291
 51
172.6040790193
  0
LINE
  5
17F
  8
0
  6
CONTINUOUS
 62
     7
 10
322.2573407152
 20
185.3325273576
 30
0.0
 11
322.2963310936
 21
185.3325273576
 31
0.0
  0
ARC
  5
180
  8
0
  6
CONTINUOUS
 62
     7
 10
372.5277063468
 20
156.3266660106
 30
0.0
 40
2.0
 50
285.7570898053
 51
0.0
  0
ARC
  5
181
  8
0
  6
CONTINUOUS
 62
     7
 10
329.6212986433
 20
308.3892852764
 30
0.0
 40
160.0000000000003
 50
270.6306446184
 51
285.7570898053
  0
LINE
  5
182
  8
0
  6
CONTINUOUS
 62
     7
 10
374.5277069667
 20
158.0203618589
 30
0.0
 11
332.5579803595
 21
158.0203618589
 31
0.0
  0
LINE
  5
183
  8
0
  6
CONTINUOUS
 62
     7
 10
374.5277069667
 20
156.3266660753
 30
0.0
 11
374.5277069667
 21
158.0203618589
 31
0.0
  0
LINE
  5
184
  8
0
  6
CONTINUOUS
 62
     7
 10
332.5535286376
 20
158.8105108323
 30
0.0
 11
357.5629763463
 21
158.8105108323
 31
0.0
  0
LINE
  5
185
  8
0
  6
CONTINUOUS
 62
     7
 10
363.0082808593
 20
158.8105108323
 30
0.0
 11
374.5277069667
 21
158.8105108323
 31
0.0
  0
LINE
  5
186
  8
0
  6
CONTINUOUS
 62
     7
 10
374.5277069667
 20
158.8105108323
 30
0.0
 11
374.5277069667
 21
158.0203618589
 31
0.0
  0
ARC
  5
187
  8
0
  6
CONTINUOUS
 62
     7
 10
324.6214011937
 20
200.4203608575
 30
0.0
 40
2.000000000000012
 50
15.7570898053
 51
90.0
  0
ARC
  5
188
  8
0
  6
CONTINUOUS
 62
     7
 10
172.5587819279
 20
157.513953154
 30
0.0
 40
160.0000000000004
 50
359.6618680049
 51
15.7570898053
  0
LINE
  5
189
  8
0
  6
CONTINUOUS
 62
     7
 10
322.9277063319
 20
202.4203564706
 30
0.0
 11
322.9277063319
 21
159.7118641916
 31
0.0
  0
LINE
  5
18A
  8
0
  6
CONTINUOUS
 62
     7
 10
324.6214011842
 20
202.4203564706
 30
0.0
 11
322.9277063319
 21
202.4203564706
 31
0.0
  0
LINE
  5
18B
  8
0
  6
CONTINUOUS
 62
     7
 10
322.2945042112
 20
159.2203583303
 30
0.0
 11
322.1375554958
 21
159.2203583303
 31
0.0
  0
LINE
  5
18C
  8
0
  6
CONTINUOUS
 62
     7
 10
322.1375554958
 20
159.2203583303
 30
0.0
 11
322.1375554958
 21
185.4556347909
 31
0.0
  0
LINE
  5
18D
  8
0
  6
CONTINUOUS
 62
     7
 10
322.1375554958
 20
190.9009363237
 30
0.0
 11
322.1375554958
 21
202.4203564706
 31
0.0
  0
LINE
  5
18E
  8
0
  6
CONTINUOUS
 62
     7
 10
322.1375554958
 20
202.4203564706
 30
0.0
 11
322.9277063319
 21
202.4203564706
 31
0.0
  0
LINE
  5
18F
  8
0
  6
CONTINUOUS
 62
     7
 10
321.4277062723
 20
134.0203609052
 30
0.0
 11
321.4277062723
 21
132.8203584733
 31
0.0
  0
LINE
  5
190
  8
0
  6
CONTINUOUS
 62
     7
 10
321.4277062723
 20
132.8203584733
 30
0.0
 11
320.6277065137
 21
132.8203584733
 31
0.0
  0
LINE
  5
191
  8
0
  6
CONTINUOUS
 62
     7
 10
320.6277065137
 20
132.8203584733
 30
0.0
 11
320.6277065137
 21
134.8203625265
 31
0.0
  0
LINE
  5
192
  8
0
  6
CONTINUOUS
 62
     7
 10
331.6277064541
 20
134.8203625265
 30
0.0
 11
331.6277064541
 21
142.6203634324
 31
0.0
  0
ARC
  5
193
  8
0
  6
CONTINUOUS
 62
     7
 10
331.2277063468
 20
142.6203608575
 30
0.0
 40
0.3999999999999773
 50
0.0
 51
90.0
  0
LINE
  5
194
  8
0
  6
CONTINUOUS
 62
     7
 10
320.6277065137
 20
139.8203637185
 30
0.0
 11
318.6798043707
 21
139.8203637185
 31
0.0
  0
ARC
  5
195
  8
0
  6
CONTINUOUS
 62
     7
 10
341.3277063468
 20
147.3549521645
 30
0.0
 40
10.0
 50
154.4805415091
 51
180.0
  0
LINE
  5
196
  8
0
  6
CONTINUOUS
 62
     7
 10
331.3277062186
 20
147.3549511018
 30
0.0
 11
331.3277062186
 21
143.8203599039
 31
0.0
  0
ARC
  5
197
  8
0
  6
CONTINUOUS
 62
     7
 10
331.4277063468
 20
142.8203608575
 30
0.0
 40
1.0
 50
0.0
 51
90.0
  0
LINE
  5
198
  8
0
  6
CONTINUOUS
 62
     7
 10
332.4277062127
 20
134.8203625265
 30
0.0
 11
332.4277062127
 21
142.8203608575
 31
0.0
  0
ARC
  5
199
  8
0
  6
CONTINUOUS
 62
     7
 10
326.5277063468
 20
154.4203608575
 30
0.0
 40
6.400000000000037
 50
334.4805415091
 51
151.3013359141
  0
LINE
  5
19A
  8
0
  6
CONTINUOUS
 62
     7
 10
331.2277063885
 20
143.0203582826
 30
0.0
 11
330.4277062574
 21
143.0203582826
 31
0.0
  0
LINE
  5
19B
  8
0
  6
CONTINUOUS
 62
     7
 10
322.4277064362
 20
143.0203582826
 30
0.0
 11
321.8277063378
 21
143.0203582826
 31
0.0
  0
ARC
  5
19C
  8
0
  6
CONTINUOUS
 62
     7
 10
342.2367972559
 20
145.8203608575
 30
0.0
 40
24.30909090909091
 50
151.3013359141
 51
194.2894890274
  0
ARC
  5
19D
  8
0
  6
CONTINUOUS
 62
     7
 10
321.8277063468
 20
142.6203608575
 30
0.0
 40
0.4000000000000341
 50
90.0
 51
180.0
  0
LINE
  5
19E
  8
0
  6
CONTINUOUS
 62
     7
 10
320.6277065137
 20
139.8203637185
 30
0.0
 11
320.6277065137
 21
134.8203625265
 31
0.0
  0
LINE
  5
19F
  8
0
  6
CONTINUOUS
 62
     7
 10
321.4277062723
 20
142.6203634324
 30
0.0
 11
321.4277062723
 21
142.0203592363
 31
0.0
  0
LINE
  5
1A0
  8
0
  6
CONTINUOUS
 62
     7
 10
331.4277064213
 20
143.8203599039
 30
0.0
 11
331.3277062186
 21
143.8203599039
 31
0.0
  0
LINE
  5
1A1
  8
0
  6
CONTINUOUS
 62
     7
 10
332.4277062127
 20
134.8203625265
 30
0.0
 11
332.4277062127
 21
132.8203584733
 31
0.0
  0
LINE
  5
1A2
  8
0
  6
CONTINUOUS
 62
     7
 10
332.4277062127
 20
132.8203584733
 30
0.0
 11
331.6277064541
 21
132.8203584733
 31
0.0
  0
LINE
  5
1A3
  8
0
  6
CONTINUOUS
 62
     7
 10
331.6277064541
 20
132.8203584733
 30
0.0
 11
331.6277064541
 21
134.8203625265
 31
0.0
  0
POLYLINE
  5
1A4
  8
0
  6
CONTINUOUS
 62
     7
 66
     1
 10
0.0
 20
0.0
 30
0.0
  0
VERTEX
  5
40F
  8
0
  6
CONTINUOUS
 62
     7
 10
121.6526553166
 20
-28.3363988432
 30
0.0
  0
VERTEX
  5
410
  8
0
  6
CONTINUOUS
 62
     7
 10
120.665049566
 20
-28.468270767
 30
0.0
  0
VERTEX
  5
411
  8
0
  6
CONTINUOUS
 62
     7
 10
119.455535723
 20
-28.6241849693
 30
0.0
  0
VERTEX
  5
412
  8
0
  6
CONTINUOUS
 62
     7
 10
118.4714242947
 20
-28.7470767083
 30
0.0
  0
VERTEX
  5
413
  8
0
  6
CONTINUOUS
 62
     7
 10
117.7130118143
 20
-28.8393651875
 30
0.0
  0
VERTEX
  5
414
  8
0
  6
CONTINUOUS
 62
     7
 10
117.1073272955
 20
-28.9106612834
 30
0.0
  0
VERTEX
  5
415
  8
0
  6
CONTINUOUS
 62
     7
 10
116.5111467373
 20
-28.9767896565
 30
0.0
  0
VERTEX
  5
416
  8
0
  6
CONTINUOUS
 62
     7
 10
115.6276598704
 20
-29.0671491804
 30
0.0
  0
VERTEX
  5
417
  8
0
  6
CONTINUOUS
 62
     7
 10
114.7571846974
 20
-29.1475510033
 30
0.0
  0
VERTEX
  5
418
  8
0
  6
CONTINUOUS
 62
     7
 10
113.8998761904
 20
-29.2194491061
 30
0.0
  0
VERTEX
  5
419
  8
0
  6
CONTINUOUS
 62
     7
 10
113.0559906494
 20
-29.2852526339
 30
0.0
  0
VERTEX
  5
41A
  8
0
  6
CONTINUOUS
 62
     7
 10
112.2206375134
 20
-29.3494941475
 30
0.0
  0
VERTEX
  5
41B
  8
0
  6
CONTINUOUS
 62
     7
 10
111.3664880526
 20
-29.417987335
 30
0.0
  0
VERTEX
  5
41C
  8
0
  6
CONTINUOUS
 62
     7
 10
110.4892507326
 20
-29.4871719363
 30
0.0
  0
VERTEX
  5
41D
  8
0
  6
CONTINUOUS
 62
     7
 10
109.5886483919
 20
-29.5537618729
 30
0.0
  0
VERTEX
  5
41E
  8
0
  6
CONTINUOUS
 62
     7
 10
108.664508177
 20
-29.6172210755
 30
0.0
  0
VERTEX
  5
41F
  8
0
  6
CONTINUOUS
 62
     7
 10
107.7168211472
 20
-29.6777827474
 30
0.0
  0
VERTEX
  5
420
  8
0
  6
CONTINUOUS
 62
     7
 10
106.8358495962
 20
-29.7303812387
 30
0.0
  0
VERTEX
  5
421
  8
0
  6
CONTINUOUS
 62
     7
 10
106.1723068487
 20
-29.768048394
 30
0.0
  0
VERTEX
  5
422
  8
0
  6
CONTINUOUS
 62
     7
 10
105.6724891197
 20
-29.7953733983
 30
0.0
  0
VERTEX
  5
423
  8
0
  6
CONTINUOUS
 62
     7
 10
105.0563290846
 20
-29.827912319
 30
0.0
  0
VERTEX
  5
424
  8
0
  6
CONTINUOUS
 62
     7
 10
104.2837128174
 20
-29.8670192989
 30
0.0
  0
VERTEX
  5
425
  8
0
  6
CONTINUOUS
 62
     7
 10
103.3545836937
 20
-29.9116482767
 30
0.0
  0
VERTEX
  5
426
  8
0
  6
CONTINUOUS
 62
     7
 10
102.2688850891
 20
-29.9605803373
 30
0.0
  0
VERTEX
  5
427
  8
0
  6
CONTINUOUS
 62
     7
 10
100.6102785599
 20
-30.0288425567
 30
0.0
  0
VERTEX
  5
428
  8
0
  6
CONTINUOUS
 62
     7
 10
98.691110326
 20
-30.0983724924
 30
0.0
  0
VERTEX
  5
429
  8
0
  6
CONTINUOUS
 62
     7
 10
96.6891721022
 20
-30.1606094273
 30
0.0
  0
VERTEX
  5
42A
  8
0
  6
CONTINUOUS
 62
     7
 10
91.2767186892
 20
-30.2798310103
 30
0.0
  0
VERTEX
  5
42B
  8
0
  6
CONTINUOUS
 62
     7
 10
85.7921973002
 20
-30.3321981611
 30
0.0
  0
VERTEX
  5
42C
  8
0
  6
CONTINUOUS
 62
     7
 10
82.2649911177
 20
-30.3307493957
 30
0.0
  0
VERTEX
  5
42D
  8
0
  6
CONTINUOUS
 62
     7
 10
78.7092760336
 20
-30.3014715942
 30
0.0
  0
VERTEX
  5
42E
  8
0
  6
CONTINUOUS
 62
     7
 10
75.229908539
 20
-30.2451750072
 30
0.0
  0
VERTEX
  5
42F
  8
0
  6
CONTINUOUS
 62
     7
 10
72.0017030966
 20
-30.1675440552
 30
0.0
  0
VERTEX
  5
430
  8
0
  6
CONTINUOUS
 62
     7
 10
70.4121008646
 20
-30.119976941
 30
0.0
  0
VERTEX
  5
431
  8
0
  6
CONTINUOUS
 62
     7
 10
68.8921943438
 20
-30.0684885862
 30
0.0
  0
VERTEX
  5
432
  8
0
  6
CONTINUOUS
 62
     7
 10
67.4419894945
 20
-30.0136780175
 30
0.0
  0
VERTEX
  5
433
  8
0
  6
CONTINUOUS
 62
     7
 10
66.0614922774
 20
-29.9561219099
 30
0.0
  0
VERTEX
  5
434
  8
0
  6
CONTINUOUS
 62
     7
 10
64.7506967318
 20
-29.8963824096
 30
0.0
  0
VERTEX
  5
435
  8
0
  6
CONTINUOUS
 62
     7
 10
63.5600999129
 20
-29.8376077595
 30
0.0
  0
VERTEX
  5
436
  8
0
  6
CONTINUOUS
 62
     7
 10
62.739814831
 20
-29.7944953474
 30
0.0
  0
VERTEX
  5
437
  8
0
  6
CONTINUOUS
 62
     7
 10
62.1031597388
 20
-29.7594932648
 30
0.0
  0
VERTEX
  5
438
  8
0
  6
CONTINUOUS
 62
     7
 10
61.8536666167
 20
-29.7453911784
 30
0.0
  0
VERTEX
  5
439
  8
0
  6
CONTINUOUS
 62
     7
 10
61.624492718
 20
-29.7321917298
 30
0.0
  0
VERTEX
  5
43A
  8
0
  6
CONTINUOUS
 62
     7
 10
61.3575831187
 20
-29.7165164533
 30
0.0
  0
VERTEX
  5
43B
  8
0
  6
CONTINUOUS
 62
     7
 10
61.0507264864
 20
-29.6984595987
 30
0.0
  0
VERTEX
  5
43C
  8
0
  6
CONTINUOUS
 62
     7
 10
60.4767158758
 20
-29.665272105
 30
0.0
  0
VERTEX
  5
43D
  8
0
  6
CONTINUOUS
 62
     7
 10
59.8004892599
 20
-29.6257478925
 30
0.0
  0
VERTEX
  5
43E
  8
0
  6
CONTINUOUS
 62
     7
 10
59.031392647
 20
-29.5784758213
 30
0.0
  0
VERTEX
  5
43F
  8
0
  6
CONTINUOUS
 62
     7
 10
58.2216695082
 20
-29.5247549
 30
0.0
  0
VERTEX
  5
440
  8
0
  6
CONTINUOUS
 62
     7
 10
57.3794320357
 20
-29.464422706
 30
0.0
  0
VERTEX
  5
441
  8
0
  6
CONTINUOUS
 62
     7
 10
55.9037342799
 20
-29.3478606078
 30
0.0
  0
VERTEX
  5
442
  8
0
  6
CONTINUOUS
 62
     7
 10
54.338438822
 20
-29.2091367575
 30
0.0
  0
VERTEX
  5
443
  8
0
  6
CONTINUOUS
 62
     7
 10
52.6758924258
 20
-29.0449389997
 30
0.0
  0
VERTEX
  5
444
  8
0
  6
CONTINUOUS
 62
     7
 10
51.2951925528
 20
-28.8957448485
 30
0.0
  0
VERTEX
  5
445
  8
0
  6
CONTINUOUS
 62
     7
 10
49.7769668829
 20
-28.7194100949
 30
0.0
  0
VERTEX
  5
446
  8
0
  6
CONTINUOUS
 62
     7
 10
48.1215134394
 20
-28.5136902514
 30
0.0
  0
VERTEX
  5
447
  8
0
  6
CONTINUOUS
 62
     7
 10
46.7759385836
 20
-28.3357912483
 30
0.0
  0
SEQEND
  5
539
  8
0
  6
CONTINUOUS
 62
     7
  0
LINE
  5
1A5
  8
0
  6
CONTINUOUS
 62
     7
 10
46.6283038389
 20
-29.3973767939
 30
0.0
 11
46.6139391196
 21
-29.4606784167
 31
0.0
  0
LINE
  5
1A6
  8
0
  6
CONTINUOUS
 62
     7
 10
46.762020899
 20
-28.3328985604
 30
0.0
 11
46.7586949599
 21
-28.3598938766
 31
0.0
  0
POLYLINE
  5
1A7
  8
0
  6
CONTINUOUS
 62
     7
 66
     1
 10
0.0
 20
0.0
 30
0.0
  0
VERTEX
  5
448
  8
0
  6
CONTINUOUS
 62
     7
 10
46.7263475191
 20
-28.6225670757
 30
0.0
  0
VERTEX
  5
449
  8
0
  6
CONTINUOUS
 62
     7
 10
46.6908469927
 20
-28.9107857081
 30
0.0
  0
VERTEX
  5
44A
  8
0
  6
CONTINUOUS
 62
     7
 10
46.6141477358
 20
-29.5075045707
 30
0.0
  0
SEQEND
  5
538
  8
0
  6
CONTINUOUS
 62
     7
  0
POLYLINE
  5
1A8
  8
0
  6
CONTINUOUS
 62
     7
 66
     1
 10
0.0
 20
0.0
 30
0.0
  0
VERTEX
  5
44B
  8
0
  6
CONTINUOUS
 62
     7
 10
121.8147918713
 20
-29.5091131511
 30
0.0
  0
VERTEX
  5
44C
  8
0
  6
CONTINUOUS
 62
     7
 10
121.7379793656
 20
-28.9115810576
 30
0.0
  0
VERTEX
  5
44D
  8
0
  6
CONTINUOUS
 62
     7
 10
121.7029973995
 20
-28.6275574746
 30
0.0
  0
SEQEND
  5
537
  8
0
  6
CONTINUOUS
 62
     7
  0
LINE
  5
1A9
  8
0
  6
CONTINUOUS
 62
     7
 10
121.6689109933
 20
-28.3508041682
 30
0.0
 11
121.6667056215
 21
-28.3328993055
 31
0.0
  0
LINE
  5
1AA
  8
0
  6
CONTINUOUS
 62
     7
 10
121.8147874009
 20
-29.4606802794
 30
0.0
 11
121.8004346025
 21
-29.397417027
 31
0.0
  0
LINE
  5
1AB
  8
0
  6
CONTINUOUS
 62
     7
 10
170.1951876414
 20
-39.9201517733
 30
0.0
 11
182.9143628609
 21
-39.9201517733
 31
0.0
  0
LINE
  5
1AC
  8
0
  6
CONTINUOUS
 62
     7
 10
182.9143628609
 20
-27.7201520088
 30
0.0
 11
166.514363898
 21
-27.7201520088
 31
0.0
  0
LINE
  5
1AD
  8
0
  6
CONTINUOUS
 62
     7
 10
46.5143636
 20
-39.8512275698
 30
0.0
 11
47.3143652212
 21
-39.8512275698
 31
0.0
  0
LINE
  5
1AE
  8
0
  6
CONTINUOUS
 62
     7
 10
46.5143636
 20
-39.9201517733
 30
0.0
 11
62.9143610728
 21
-39.9201517733
 31
0.0
  0
LINE
  5
1AF
  8
0
  6
CONTINUOUS
 62
     7
 10
62.9143610728
 20
-27.7201520088
 30
0.0
 11
46.5143636
 21
-27.7201520088
 31
0.0
  0
LINE
  5
1B0
  8
0
  6
CONTINUOUS
 62
     7
 10
241.9143632185
 20
-27.7201520088
 30
0.0
 11
225.5143657458
 21
-27.7201520088
 31
0.0
  0
LINE
  5
1B1
  8
0
  6
CONTINUOUS
 62
     7
 10
225.5143657458
 20
-39.9201517733
 30
0.0
 11
238.2335379851
 21
-39.9201517733
 31
0.0
  0
LINE
  5
1B2
  8
0
  6
CONTINUOUS
 62
     7
 10
121.1143627894
 20
-39.8512275698
 30
0.0
 11
121.9143629205
 21
-39.8512275698
 31
0.0
  0
LINE
  5
1B3
  8
0
  6
CONTINUOUS
 62
     7
 10
121.9143629205
 20
-27.7201520088
 30
0.0
 11
105.5143639576
 21
-27.7201520088
 31
0.0
  0
LINE
  5
1B4
  8
0
  6
CONTINUOUS
 62
     7
 10
105.5143639576
 20
-39.9201517733
 30
0.0
 11
121.9143629205
 21
-39.9201517733
 31
0.0
  0
LINE
  5
1B5
  8
0
  6
CONTINUOUS
 62
     7
 10
242.2143653166
 20
-40.2201516363
 30
0.0
 11
245.6143692267
 21
-40.2201516363
 31
0.0
  0
LINE
  5
1B6
  8
0
  6
CONTINUOUS
 62
     7
 10
242.2143653166
 20
-27.8201518389
 30
0.0
 11
241.9143632185
 21
-27.8201518389
 31
0.0
  0
LINE
  5
1B7
  8
0
  6
CONTINUOUS
 62
     7
 10
225.5143657458
 20
-27.8201518389
 30
0.0
 11
224.8143628371
 21
-27.8201518389
 31
0.0
  0
LINE
  5
1B8
  8
0
  6
CONTINUOUS
 62
     7
 10
224.8143628371
 20
-39.8201519432
 30
0.0
 11
225.5143657458
 21
-39.8201519432
 31
0.0
  0
LINE
  5
1B9
  8
0
  6
CONTINUOUS
 62
     7
 10
241.9143632185
 20
-39.8201519432
 30
0.0
 11
242.2143653166
 21
-39.8201519432
 31
0.0
  0
LINE
  5
1BA
  8
0
  6
CONTINUOUS
 62
     7
 10
245.6143692267
 20
-25.2201517853
 30
0.0
 11
242.2143653166
 21
-25.2201517853
 31
0.0
  0
LINE
  5
1BB
  8
0
  6
CONTINUOUS
 62
     7
 10
122.2143635285
 20
-40.2201516363
 30
0.0
 11
125.6143629682
 21
-40.2201516363
 31
0.0
  0
LINE
  5
1BC
  8
0
  6
CONTINUOUS
 62
     7
 10
122.2143635285
 20
-27.8201518389
 30
0.0
 11
121.9143629205
 21
-27.8201518389
 31
0.0
  0
LINE
  5
1BD
  8
0
  6
CONTINUOUS
 62
     7
 10
105.5143639576
 20
-27.8201518389
 30
0.0
 11
104.8143640291
 21
-27.8201518389
 31
0.0
  0
LINE
  5
1BE
  8
0
  6
CONTINUOUS
 62
     7
 10
104.8143640291
 20
-39.8201519432
 30
0.0
 11
105.5143639576
 21
-39.8201519432
 31
0.0
  0
LINE
  5
1BF
  8
0
  6
CONTINUOUS
 62
     7
 10
121.9143629205
 20
-39.8201519432
 30
0.0
 11
122.2143635285
 21
-39.8201519432
 31
0.0
  0
LINE
  5
1C0
  8
0
  6
CONTINUOUS
 62
     7
 10
125.6143629682
 20
-25.2201517853
 30
0.0
 11
122.2143635285
 21
-25.2201517853
 31
0.0
  0
LINE
  5
1C1
  8
0
  6
CONTINUOUS
 62
     7
 10
42.8143575918
 20
-40.2201516363
 30
0.0
 11
46.2143615019
 21
-40.2201516363
 31
0.0
  0
LINE
  5
1C2
  8
0
  6
CONTINUOUS
 62
     7
 10
46.2143615019
 20
-39.8201519432
 30
0.0
 11
46.5143636
 21
-39.8201519432
 31
0.0
  0
LINE
  5
1C3
  8
0
  6
CONTINUOUS
 62
     7
 10
62.9143610728
 20
-39.8201519432
 30
0.0
 11
63.6143639815
 21
-39.8201519432
 31
0.0
  0
LINE
  5
1C4
  8
0
  6
CONTINUOUS
 62
     7
 10
63.6143639815
 20
-27.8201518389
 30
0.0
 11
62.9143610728
 21
-27.8201518389
 31
0.0
  0
LINE
  5
1C5
  8
0
  6
CONTINUOUS
 62
     7
 10
46.5143636
 20
-27.8201518389
 30
0.0
 11
46.2143615019
 21
-27.8201518389
 31
0.0
  0
LINE
  5
1C6
  8
0
  6
CONTINUOUS
 62
     7
 10
46.2143615019
 20
-25.2201517853
 30
0.0
 11
42.8143575918
 21
-25.2201517853
 31
0.0
  0
LINE
  5
1C7
  8
0
  6
CONTINUOUS
 62
     7
 10
162.8143638503
 20
-40.2201516363
 30
0.0
 11
166.2143632901
 21
-40.2201516363
 31
0.0
  0
LINE
  5
1C8
  8
0
  6
CONTINUOUS
 62
     7
 10
166.2143632901
 20
-39.8201519432
 30
0.0
 11
166.514363898
 21
-39.8201519432
 31
0.0
  0
LINE
  5
1C9
  8
0
  6
CONTINUOUS
 62
     7
 10
182.9143628609
 20
-39.8201519432
 30
0.0
 11
183.6143627894
 21
-39.8201519432
 31
0.0
  0
LINE
  5
1CA
  8
0
  6
CONTINUOUS
 62
     7
 10
183.6143627894
 20
-27.8201518389
 30
0.0
 11
182.9143628609
 21
-27.8201518389
 31
0.0
  0
LINE
  5
1CB
  8
0
  6
CONTINUOUS
 62
     7
 10
166.514363898
 20
-27.8201518389
 30
0.0
 11
166.2143632901
 21
-27.8201518389
 31
0.0
  0
LINE
  5
1CC
  8
0
  6
CONTINUOUS
 62
     7
 10
166.2143632901
 20
-25.2201517853
 30
0.0
 11
162.8143638503
 21
-25.2201517853
 31
0.0
  0
LINE
  5
1CD
  8
0
  6
CONTINUOUS
 62
     7
 10
41.0143688452
 20
-28.7201518002
 30
0.0
 11
42.8143575918
 21
-28.7201518002
 31
0.0
  0
LINE
  5
1CE
  8
0
  6
CONTINUOUS
 62
     7
 10
63.6143639815
 20
-28.7201518002
 30
0.0
 11
104.8143640291
 21
-28.7201518002
 31
0.0
  0
LINE
  5
1CF
  8
0
  6
CONTINUOUS
 62
     7
 10
125.6143629682
 20
-28.7201518002
 30
0.0
 11
162.8143638503
 21
-28.7201518002
 31
0.0
  0
LINE
  5
1D0
  8
0
  6
CONTINUOUS
 62
     7
 10
183.6143627894
 20
-28.7201518002
 30
0.0
 11
224.8143628371
 21
-28.7201518002
 31
0.0
  0
LINE
  5
1D1
  8
0
  6
CONTINUOUS
 62
     7
 10
245.6143692267
 20
-28.7201518002
 30
0.0
 11
247.4143579733
 21
-28.7201518002
 31
0.0
  0
LINE
  5
1D2
  8
0
  6
CONTINUOUS
 62
     7
 10
40.6143620741
 20
-29.7201519641
 30
0.0
 11
40.6143620741
 21
-29.1201518657
 31
0.0
  0
ARC
  5
1D3
  8
0
  6
CONTINUOUS
 62
     7
 10
41.0143634093
 20
-29.1201518747
 30
0.0
 40
0.4000000000000021
 50
90.0
 51
180.0
  0
LINE
  5
1D4
  8
0
  6
CONTINUOUS
 62
     7
 10
247.8143647444
 20
-29.1201518657
 30
0.0
 11
247.8143647444
 21
-29.7201519641
 31
0.0
  0
ARC
  5
1D5
  8
0
  6
CONTINUOUS
 62
     7
 10
247.4143634093
 20
-29.1201518747
 30
0.0
 40
0.4000000000000341
 50
0.0
 51
90.0
  0
LINE
  5
1D6
  8
0
  6
CONTINUOUS
 62
     7
 10
40.6143620741
 20
-37.7201517853
 30
0.0
 11
40.6143620741
 21
-29.7201519641
 31
0.0
  0
LINE
  5
1D7
  8
0
  6
CONTINUOUS
 62
     7
 10
247.8143647444
 20
-29.7201519641
 30
0.0
 11
247.8143647444
 21
-37.7201517853
 31
0.0
  0
LINE
  5
1D8
  8
0
  6
CONTINUOUS
 62
     7
 10
247.8143647444
 20
-37.7201517853
 30
0.0
 11
247.8143647444
 21
-38.3201518836
 31
0.0
  0
ARC
  5
1D9
  8
0
  6
CONTINUOUS
 62
     7
 10
247.4143634093
 20
-38.3201518747
 30
0.0
 40
0.4000000000000341
 50
270.0
 51
0.0
  0
ARC
  5
1DA
  8
0
  6
CONTINUOUS
 62
     7
 10
41.0143634093
 20
-38.3201518747
 30
0.0
 40
0.4000000000000057
 50
180.0
 51
270.0
  0
LINE
  5
1DB
  8
0
  6
CONTINUOUS
 62
     7
 10
40.6143620741
 20
-38.3201518836
 30
0.0
 11
40.6143620741
 21
-37.7201517853
 31
0.0
  0
LINE
  5
1DC
  8
0
  6
CONTINUOUS
 62
     7
 10
247.4143579733
 20
-38.7201519492
 30
0.0
 11
245.6143692267
 21
-38.7201519492
 31
0.0
  0
LINE
  5
1DD
  8
0
  6
CONTINUOUS
 62
     7
 10
224.8143628371
 20
-38.7201519492
 30
0.0
 11
214.0813604128
 21
-38.7201519492
 31
0.0
  0
LINE
  5
1DE
  8
0
  6
CONTINUOUS
 62
     7
 10
194.4662943613
 20
-38.7201519492
 30
0.0
 11
183.6143627894
 21
-38.7201519492
 31
0.0
  0
LINE
  5
1DF
  8
0
  6
CONTINUOUS
 62
     7
 10
162.8143638503
 20
-38.7201519492
 30
0.0
 11
125.6143629682
 21
-38.7201519492
 31
0.0
  0
LINE
  5
1E0
  8
0
  6
CONTINUOUS
 62
     7
 10
104.8143640291
 20
-38.7201519492
 30
0.0
 11
63.6143639815
 21
-38.7201519492
 31
0.0
  0
LINE
  5
1E1
  8
0
  6
CONTINUOUS
 62
     7
 10
42.8143575918
 20
-38.7201519492
 30
0.0
 11
41.0143688452
 21
-38.7201519492
 31
0.0
  0
ARC
  5
1E2
  8
0
  6
CONTINUOUS
 62
     7
 10
227.2143634093
 20
-25.7201518747
 30
0.0
 40
4.000000000000004
 50
0.0
 51
90.0
  0
LINE
  5
1E3
  8
0
  6
CONTINUOUS
 62
     7
 10
231.2143638861
 20
-27.7201520088
 30
0.0
 11
231.2143638861
 21
-25.7201520535
 31
0.0
  0
POLYLINE
  5
1E4
  8
0
  6
CONTINUOUS
 62
     7
 66
     1
 10
0.0
 20
0.0
 30
0.0
  0
VERTEX
  5
44E
  8
0
  6
CONTINUOUS
 62
     7
 10
230.2786424887
 20
-39.9201517733
 30
0.0
  0
VERTEX
  5
44F
  8
0
  6
CONTINUOUS
 62
     7
 10
230.208952738
 20
-40.3635164532
 30
0.0
  0
VERTEX
  5
450
  8
0
  6
CONTINUOUS
 62
     7
 10
229.8142328989
 20
-42.6218418213
 30
0.0
  0
SEQEND
  5
536
  8
0
  6
CONTINUOUS
 62
     7
  0
LINE
  5
1E5
  8
0
  6
CONTINUOUS
 62
     7
 10
207.2206154597
 20
-28.7201518002
 30
0.0
 11
207.2143629324
 21
-27.7201520088
 31
0.0
  0
LINE
  5
1E6
  8
0
  6
CONTINUOUS
 62
     7
 10
207.2143629324
 20
-25.7201520535
 30
0.0
 11
207.2143629324
 21
-27.7201520088
 31
0.0
  0
ARC
  5
1E7
  8
0
  6
CONTINUOUS
 62
     7
 10
211.2143634093
 20
-25.7201518747
 30
0.0
 40
4.000000000000028
 50
90.0
 51
180.0
  0
CIRCLE
  5
1E8
  8
0
  6
CONTINUOUS
 62
     7
 10
227.2143634093
 20
-25.7201518747
 30
0.0
 40
1.500000000000004
  0
CIRCLE
  5
1E9
  8
0
  6
CONTINUOUS
 62
     7
 10
211.2143634093
 20
-25.7201518747
 30
0.0
 40
1.500000000000011
  0
LINE
  5
1EA
  8
0
  6
CONTINUOUS
 62
     7
 10
227.2143617403
 20
-21.7201521429
 30
0.0
 11
211.2143650782
 21
-21.7201521429
 31
0.0
  0
ARC
  5
1EB
  8
0
  6
CONTINUOUS
 62
     7
 10
65.8000791238
 20
-53.7201518747
 30
0.0
 40
4.0
 50
200.0051900882
 51
270.0
  0
ARC
  5
1EC
  8
0
  6
CONTINUOUS
 62
     7
 10
137.2143634093
 20
-27.7201518747
 30
0.0
 40
80.0
 50
188.7718331197
 51
200.0051900882
  0
LINE
  5
1ED
  8
0
  6
CONTINUOUS
 62
     7
 10
57.2143629324
 20
-25.7201520535
 30
0.0
 11
57.2143629324
 21
-27.7201520088
 31
0.0
  0
ARC
  5
1EE
  8
0
  6
CONTINUOUS
 62
     7
 10
61.2143634093
 20
-25.7201518747
 30
0.0
 40
4.000000000000004
 50
90.0
 51
180.0
  0
ARC
  5
1EF
  8
0
  6
CONTINUOUS
 62
     7
 10
77.2143634093
 20
-25.7201518747
 30
0.0
 40
4.000000000000004
 50
0.0
 51
90.0
  0
LINE
  5
1F0
  8
0
  6
CONTINUOUS
 62
     7
 10
81.2143638861
 20
-27.7201520088
 30
0.0
 11
81.2143638861
 21
-25.7201520535
 31
0.0
  0
LINE
  5
1F1
  8
0
  6
CONTINUOUS
 62
     7
 10
81.2143638861
 20
-27.7201520088
 30
0.0
 11
81.2081113589
 21
-28.7201518002
 31
0.0
  0
ARC
  5
1F2
  8
0
  6
CONTINUOUS
 62
     7
 10
1.2143634093
 20
-27.7201518747
 30
0.0
 40
80.0
 50
339.9948099118
 51
352.0967922665
  0
ARC
  5
1F3
  8
0
  6
CONTINUOUS
 62
     7
 10
72.6286476947
 20
-53.7201518747
 30
0.0
 40
4.0
 50
270.0
 51
339.9948099118
  0
LINE
  5
1F4
  8
0
  6
CONTINUOUS
 62
     7
 10
65.8000782263
 20
-57.7201513382
 30
0.0
 11
72.6286485922
 21
-57.7201513382
 31
0.0
  0
CIRCLE
  5
1F5
  8
0
  6
CONTINUOUS
 62
     7
 10
61.2143634093
 20
-25.7201518747
 30
0.0
 40
1.5
  0
CIRCLE
  5
1F6
  8
0
  6
CONTINUOUS
 62
     7
 10
77.2143634093
 20
-25.7201518747
 30
0.0
 40
1.5
  0
CIRCLE
  5
1F7
  8
0
  6
CONTINUOUS
 62
     7
 10
69.2143634093
 20
-53.7201518747
 30
0.0
 40
1.500000000000007
  0
LINE
  5
1F8
  8
0
  6
CONTINUOUS
 62
     7
 10
77.2143617403
 20
-21.7201521429
 30
0.0
 11
61.2143650782
 21
-21.7201521429
 31
0.0
  0
ARC
  5
1F9
  8
0
  6
CONTINUOUS
 62
     7
 10
204.2143618495
 20
-111.9512797204
 30
0.0
 40
73.9041618133423
 50
89.9999969424
 51
115.0850157941
  0
LINE
  5
1FA
  8
0
  6
CONTINUOUS
 62
     7
 10
172.4849626553
 20
-45.2049663099
 30
0.0
 11
172.8817626965
 21
-45.0177801582
 31
0.0
  0
LINE
  5
1FB
  8
0
  6
CONTINUOUS
 62
     7
 10
235.9437659514
 20
-45.2049663099
 30
0.0
 11
235.5469659102
 21
-45.0177801582
 31
0.0
  0
ARC
  5
1FC
  8
0
  6
CONTINUOUS
 62
     7
 10
204.2143622167
 20
-111.951300129
 30
0.0
 40
73.90418222197567
 50
64.9149877259
 51
89.9999972271
  0
ARC
  5
1FD
  8
0
  6
CONTINUOUS
 62
     7
 10
232.7252471143
 20
-51.7855960223
 30
0.0
 40
7.325540328856279
 50
15.5161985504
 51
63.9372123427
  0
ARC
  5
1FE
  8
0
  6
CONTINUOUS
 62
     7
 10
232.3547608145
 20
-51.6186478377
 30
0.0
 40
7.332232095077432
 50
15.4884016411
 51
64.1914100242
  0
ARC
  5
1FF
  8
0
  6
CONTINUOUS
 62
     7
 10
176.0441902896
 20
-51.5938075175
 30
0.0
 40
7.296922920823327
 50
115.6830146952
 51
164.6371302727
  0
ARC
  5
200
  8
0
  6
CONTINUOUS
 62
     7
 10
175.6857883999
 20
-51.7708952681
 30
0.0
 40
7.304566978757732
 50
115.9887805148
 51
164.5577867343
  0
POLYLINE
  5
201
  8
0
  6
CONTINUOUS
 62
     7
 66
     1
 10
0.0
 20
0.0
 30
0.0
  0
VERTEX
  5
451
  8
0
  6
CONTINUOUS
 62
     7
 10
166.6142925751
 20
-104.5091135236
 30
0.0
  0
VERTEX
  5
452
  8
0
  6
CONTINUOUS
 62
     7
 10
166.6143268478
 20
-103.3048076364
 30
0.0
  0
VERTEX
  5
453
  8
0
  6
CONTINUOUS
 62
     7
 10
166.614457978
 20
-102.0912272664
 30
0.0
  0
VERTEX
  5
454
  8
0
  6
CONTINUOUS
 62
     7
 10
166.6149065029
 20
-99.7861010763
 30
0.0
  0
VERTEX
  5
455
  8
0
  6
CONTINUOUS
 62
     7
 10
166.6152969134
 20
-97.4781675073
 30
0.0
  0
VERTEX
  5
456
  8
0
  6
CONTINUOUS
 62
     7
 10
166.6143611204
 20
-92.8479118081
 30
0.0
  0
SEQEND
  5
535
  8
0
  6
CONTINUOUS
 62
     7
  0
LINE
  5
202
  8
0
  6
CONTINUOUS
 62
     7
 10
166.6143641007
 20
-92.8479118081
 30
0.0
 11
166.6143641007
 21
-82.8485442134
 31
0.0
  0
LINE
  5
203
  8
0
  6
CONTINUOUS
 62
     7
 10
166.6143641007
 20
-82.8485442134
 30
0.0
 11
166.6174262893
 21
-81.8201524946
 31
0.0
  0
LINE
  5
204
  8
0
  6
CONTINUOUS
 62
     7
 10
166.6143641007
 20
-72.8471262189
 30
0.0
 11
166.6143641007
 21
-64.7323204013
 31
0.0
  0
POLYLINE
  5
205
  8
0
  6
CONTINUOUS
 62
     7
 66
     1
 10
0.0
 20
0.0
 30
0.0
  0
VERTEX
  5
457
  8
0
  6
CONTINUOUS
 62
     7
 10
168.1456402075
 20
-51.6260457965
 30
0.0
  0
VERTEX
  5
458
  8
0
  6
CONTINUOUS
 62
     7
 10
168.450100733
 20
-50.5028871628
 30
0.0
  0
VERTEX
  5
459
  8
0
  6
CONTINUOUS
 62
     7
 10
168.6449200046
 20
-49.8259348604
 30
0.0
  0
SEQEND
  5
534
  8
0
  6
CONTINUOUS
 62
     7
  0
POLYLINE
  5
206
  8
0
  6
CONTINUOUS
 62
     7
 66
     1
 10
0.0
 20
0.0
 30
0.0
  0
VERTEX
  5
45A
  8
0
  6
CONTINUOUS
 62
     7
 10
169.0080165994
 20
-49.6606273385
 30
0.0
  0
VERTEX
  5
45B
  8
0
  6
CONTINUOUS
 62
     7
 10
168.2336285841
 20
-52.3872000905
 30
0.0
  0
VERTEX
  5
45C
  8
0
  6
CONTINUOUS
 62
     7
 10
167.6599651706
 20
-55.0943238469
 30
0.0
  0
VERTEX
  5
45D
  8
0
  6
CONTINUOUS
 62
     7
 10
167.2985240948
 20
-57.8132210108
 30
0.0
  0
VERTEX
  5
45E
  8
0
  6
CONTINUOUS
 62
     7
 10
167.0508891475
 20
-60.5384899112
 30
0.0
  0
VERTEX
  5
45F
  8
0
  6
CONTINUOUS
 62
     7
 10
166.8989554179
 20
-63.2646573516
 30
0.0
  0
VERTEX
  5
460
  8
0
  6
CONTINUOUS
 62
     7
 10
166.8306127322
 20
-67.813582513
 30
0.0
  0
VERTEX
  5
461
  8
0
  6
CONTINUOUS
 62
     7
 10
166.8638900053
 20
-72.3642600509
 30
0.0
  0
VERTEX
  5
462
  8
0
  6
CONTINUOUS
 62
     7
 10
166.8640464675
 20
-76.9105030032
 30
0.0
  0
VERTEX
  5
463
  8
0
  6
CONTINUOUS
 62
     7
 10
166.8285563719
 20
-81.4614636632
 30
0.0
  0
VERTEX
  5
464
  8
0
  6
CONTINUOUS
 62
     7
 10
166.7974591386
 20
-86.0217792722
 30
0.0
  0
VERTEX
  5
465
  8
0
  6
CONTINUOUS
 62
     7
 10
166.7825341356
 20
-90.5546767446
 30
0.0
  0
VERTEX
  5
466
  8
0
  6
CONTINUOUS
 62
     7
 10
166.7794868481
 20
-92.8014082643
 30
0.0
  0
VERTEX
  5
467
  8
0
  6
CONTINUOUS
 62
     7
 10
166.7780578267
 20
-95.0495285722
 30
0.0
  0
VERTEX
  5
468
  8
0
  6
CONTINUOUS
 62
     7
 10
166.7753309142
 20
-97.3249180051
 30
0.0
  0
VERTEX
  5
469
  8
0
  6
CONTINUOUS
 62
     7
 10
166.7676136029
 20
-99.6382040712
 30
0.0
  0
VERTEX
  5
46A
  8
0
  6
CONTINUOUS
 62
     7
 10
166.7510673535
 20
-101.9992751809
 30
0.0
  0
VERTEX
  5
46B
  8
0
  6
CONTINUOUS
 62
     7
 10
166.722559942
 20
-104.4214648935
 30
0.0
  0
SEQEND
  5
533
  8
0
  6
CONTINUOUS
 62
     7
  0
POLYLINE
  5
207
  8
0
  6
CONTINUOUS
 62
     7
 66
     1
 10
0.0
 20
0.0
 30
0.0
  0
VERTEX
  5
46C
  8
0
  6
CONTINUOUS
 62
     7
 10
239.4207134974
 20
-49.6606258484
 30
0.0
  0
VERTEX
  5
46D
  8
0
  6
CONTINUOUS
 62
     7
 10
240.2784899008
 20
-52.7119902703
 30
0.0
  0
VERTEX
  5
46E
  8
0
  6
CONTINUOUS
 62
     7
 10
240.8704713118
 20
-55.7457355591
 30
0.0
  0
VERTEX
  5
46F
  8
0
  6
CONTINUOUS
 62
     7
 10
241.2302926314
 20
-58.7941808435
 30
0.0
  0
VERTEX
  5
470
  8
0
  6
CONTINUOUS
 62
     7
 10
241.4629295599
 20
-61.8468804094
 30
0.0
  0
VERTEX
  5
471
  8
0
  6
CONTINUOUS
 62
     7
 10
241.5758028757
 20
-64.9016363355
 30
0.0
  0
VERTEX
  5
472
  8
0
  6
CONTINUOUS
 62
     7
 10
241.5934100878
 20
-68.9059002134
 30
0.0
  0
VERTEX
  5
473
  8
0
  6
CONTINUOUS
 62
     7
 10
241.5616586935
 20
-72.9100419017
 30
0.0
  0
VERTEX
  5
474
  8
0
  6
CONTINUOUS
 62
     7
 10
241.564680649
 20
-76.9105030032
 30
0.0
  0
VERTEX
  5
475
  8
0
  6
CONTINUOUS
 62
     7
 10
241.604794575
 20
-82.0087266895
 30
0.0
  0
VERTEX
  5
476
  8
0
  6
CONTINUOUS
 62
     7
 10
241.6361406576
 20
-87.1133668157
 30
0.0
  0
VERTEX
  5
477
  8
0
  6
CONTINUOUS
 62
     7
 10
241.6486218703
 20
-92.173991892
 30
0.0
  0
VERTEX
  5
478
  8
0
  6
CONTINUOUS
 62
     7
 10
241.6501358282
 20
-94.1478533479
 30
0.0
  0
VERTEX
  5
479
  8
0
  6
CONTINUOUS
 62
     7
 10
241.651596142
 20
-96.1376411649
 30
0.0
  0
VERTEX
  5
47A
  8
0
  6
CONTINUOUS
 62
     7
 10
241.6553989184
 20
-98.1528026792
 30
0.0
  0
VERTEX
  5
47B
  8
0
  6
CONTINUOUS
 62
     7
 10
241.6641309988
 20
-100.2001626226
 30
0.0
  0
VERTEX
  5
47C
  8
0
  6
CONTINUOUS
 62
     7
 10
241.6804209482
 20
-102.2862119409
 30
0.0
  0
VERTEX
  5
47D
  8
0
  6
CONTINUOUS
 62
     7
 10
241.7061641943
 20
-104.4214648935
 30
0.0
  0
SEQEND
  5
532
  8
0
  6
CONTINUOUS
 62
     7
  0
ARC
  5
208
  8
0
  6
CONTINUOUS
 62
     7
 10
234.94764149
 20
-104.6372222241
 30
0.0
 40
6.761965717935068
 50
275.6854189804
 51
1.8284746651
  0
ARC
  5
209
  8
0
  6
CONTINUOUS
 62
     7
 10
204.2143628132
 20
220.7865640865
 30
0.0
 40
333.6336829098944
 50
264.5990581748
 51
275.4009418252
  0
POLYLINE
  5
20A
  8
0
  6
CONTINUOUS
 62
     7
 66
     1
 10
0.0
 20
0.0
 30
0.0
  0
VERTEX
  5
47E
  8
0
  6
CONTINUOUS
 62
     7
 10
172.8111997378
 20
-111.3659245702
 30
0.0
  0
VERTEX
  5
47F
  8
0
  6
CONTINUOUS
 62
     7
 10
172.3795995247
 20
-111.3113267156
 30
0.0
  0
VERTEX
  5
480
  8
0
  6
CONTINUOUS
 62
     7
 10
171.9461098444
 20
-111.2280232641
 30
0.0
  0
VERTEX
  5
481
  8
0
  6
CONTINUOUS
 62
     7
 10
171.5132638943
 20
-111.1149830552
 30
0.0
  0
VERTEX
  5
482
  8
0
  6
CONTINUOUS
 62
     7
 10
171.1214080584
 20
-110.9853310319
 30
0.0
  0
VERTEX
  5
483
  8
0
  6
CONTINUOUS
 62
     7
 10
170.7259461415
 20
-110.8262104722
 30
0.0
  0
VERTEX
  5
484
  8
0
  6
CONTINUOUS
 62
     7
 10
170.3295782339
 20
-110.6357021066
 30
0.0
  0
VERTEX
  5
485
  8
0
  6
CONTINUOUS
 62
     7
 10
170.0222090018
 20
-110.4644877645
 30
0.0
  0
VERTEX
  5
486
  8
0
  6
CONTINUOUS
 62
     7
 10
169.7184816134
 20
-110.2730436059
 30
0.0
  0
VERTEX
  5
487
  8
0
  6
CONTINUOUS
 62
     7
 10
169.430898143
 20
-110.0691301557
 30
0.0
  0
VERTEX
  5
488
  8
0
  6
CONTINUOUS
 62
     7
 10
169.1579789054
 20
-109.8527712556
 30
0.0
  0
VERTEX
  5
489
  8
0
  6
CONTINUOUS
 62
     7
 10
168.8918441665
 20
-109.6174759599
 30
0.0
  0
VERTEX
  5
48A
  8
0
  6
CONTINUOUS
 62
     7
 10
168.6656788122
 20
-109.3959254953
 30
0.0
  0
VERTEX
  5
48B
  8
0
  6
CONTINUOUS
 62
     7
 10
168.4026211631
 20
-109.1091377469
 30
0.0
  0
VERTEX
  5
48C
  8
0
  6
CONTINUOUS
 62
     7
 10
168.1068837774
 20
-108.7415380212
 30
0.0
  0
VERTEX
  5
48D
  8
0
  6
CONTINUOUS
 62
     7
 10
167.8955406081
 20
-108.4423107835
 30
0.0
  0
VERTEX
  5
48E
  8
0
  6
CONTINUOUS
 62
     7
 10
167.6852658522
 20
-108.1058604452
 30
0.0
  0
VERTEX
  5
48F
  8
0
  6
CONTINUOUS
 62
     7
 10
167.4740493429
 20
-107.7167076799
 30
0.0
  0
VERTEX
  5
490
  8
0
  6
CONTINUOUS
 62
     7
 10
167.2979548704
 20
-107.3378605577
 30
0.0
  0
VERTEX
  5
491
  8
0
  6
CONTINUOUS
 62
     7
 10
167.1534717214
 20
-106.9732172223
 30
0.0
  0
VERTEX
  5
492
  8
0
  6
CONTINUOUS
 62
     7
 10
166.8238550556
 20
-105.7278437349
 30
0.0
  0
VERTEX
  5
493
  8
0
  6
CONTINUOUS
 62
     7
 10
166.722559942
 20
-104.4214648935
 30
0.0
  0
SEQEND
  5
531
  8
0
  6
CONTINUOUS
 62
     7
  0
LINE
  5
20B
  8
0
  6
CONTINUOUS
 62
     7
 10
241.814364506
 20
-72.8471262189
 30
0.0
 11
241.814364506
 21
-64.7323204013
 31
0.0
  0
POLYLINE
  5
20C
  8
0
  6
CONTINUOUS
 62
     7
 66
     1
 10
0.0
 20
0.0
 30
0.0
  0
VERTEX
  5
494
  8
0
  6
CONTINUOUS
 62
     7
 10
241.8125465643
 20
-81.8201524946
 30
0.0
  0
VERTEX
  5
495
  8
0
  6
CONTINUOUS
 62
     7
 10
241.814364506
 20
-82.8485442134
 30
0.0
  0
VERTEX
  5
496
  8
0
  6
CONTINUOUS
 62
     7
 10
241.8179288637
 20
-85.279075596
 30
0.0
  0
VERTEX
  5
497
  8
0
  6
CONTINUOUS
 62
     7
 10
241.8165162337
 20
-90.1403588983
 30
0.0
  0
VERTEX
  5
498
  8
0
  6
CONTINUOUS
 62
     7
 10
241.8141260874
 20
-93.732218239
 30
0.0
  0
VERTEX
  5
499
  8
0
  6
CONTINUOUS
 62
     7
 10
241.8134167921
 20
-97.3236067029
 30
0.0
  0
VERTEX
  5
49A
  8
0
  6
CONTINUOUS
 62
     7
 10
241.81377442
 20
-99.7268480989
 30
0.0
  0
VERTEX
  5
49B
  8
0
  6
CONTINUOUS
 62
     7
 10
241.8142214548
 20
-102.1285338136
 30
0.0
  0
VERTEX
  5
49C
  8
0
  6
CONTINUOUS
 62
     7
 10
241.8144360316
 20
-104.5100671979
 30
0.0
  0
SEQEND
  5
530
  8
0
  6
CONTINUOUS
 62
     7
  0
LINE
  5
20D
  8
0
  6
CONTINUOUS
 62
     7
 10
239.783807112
 20
-49.8259348604
 30
0.0
 11
240.2905658018
 21
-51.6240833136
 31
0.0
  0
LINE
  5
20E
  8
0
  6
CONTINUOUS
 62
     7
 10
241.814364506
 20
-64.7323204013
 30
0.0
 11
241.811503483
 21
-64.3501801225
 31
0.0
  0
LINE
  5
20F
  8
0
  6
CONTINUOUS
 62
     7
 10
235.6175258887
 20
-111.3659245702
 30
0.0
 11
235.726864649
 21
-111.3555652829
 31
0.0
  0
ARC
  5
210
  8
0
  6
CONTINUOUS
 62
     7
 10
235.0615904536
 20
-104.6343963444
 30
0.0
 40
6.754013744080605
 50
275.6528330981
 51
1.0547204143
  0
LINE
  5
211
  8
0
  6
CONTINUOUS
 62
     7
 10
172.7018639576
 20
-111.3555652829
 30
0.0
 11
172.8111997378
 21
-111.3659245702
 31
0.0
  0
LINE
  5
212
  8
0
  6
CONTINUOUS
 62
     7
 10
172.7018639576
 20
-111.3555652829
 30
0.0
 11
172.637783004
 21
-111.3439841005
 31
0.0
  0
POLYLINE
  5
213
  8
0
  6
CONTINUOUS
 62
     7
 66
     1
 10
0.0
 20
0.0
 30
0.0
  0
VERTEX
  5
49D
  8
0
  6
CONTINUOUS
 62
     7
 10
171.8337997925
 20
-111.1986977788
 30
0.0
  0
VERTEX
  5
49E
  8
0
  6
CONTINUOUS
 62
     7
 10
171.5784713757
 20
-111.1525518628
 30
0.0
  0
VERTEX
  5
49F
  8
0
  6
CONTINUOUS
 62
     7
 10
170.5305829775
 20
-110.7772094938
 30
0.0
  0
VERTEX
  5
4A0
  8
0
  6
CONTINUOUS
 62
     7
 10
169.7157785427
 20
-110.332934353
 30
0.0
  0
VERTEX
  5
4A1
  8
0
  6
CONTINUOUS
 62
     7
 10
168.9853519332
 20
-109.7901804181
 30
0.0
  0
VERTEX
  5
4A2
  8
0
  6
CONTINUOUS
 62
     7
 10
168.2196691763
 20
-109.0140504571
 30
0.0
  0
VERTEX
  5
4A3
  8
0
  6
CONTINUOUS
 62
     7
 10
167.5892993939
 20
-108.1199688646
 30
0.0
  0
VERTEX
  5
4A4
  8
0
  6
CONTINUOUS
 62
     7
 10
167.2090113294
 20
-107.3731345865
 30
0.0
  0
VERTEX
  5
4A5
  8
0
  6
CONTINUOUS
 62
     7
 10
166.9144302738
 20
-106.566957924
 30
0.0
  0
VERTEX
  5
4A6
  8
0
  6
CONTINUOUS
 62
     7
 10
166.7160228026
 20
-105.7178480359
 30
0.0
  0
VERTEX
  5
4A7
  8
0
  6
CONTINUOUS
 62
     7
 10
166.614265753
 20
-104.5091135236
 30
0.0
  0
SEQEND
  5
52F
  8
0
  6
CONTINUOUS
 62
     7
  0
POLYLINE
  5
214
  8
0
  6
CONTINUOUS
 62
     7
 66
     1
 10
0.0
 20
0.0
 30
0.0
  0
VERTEX
  5
4A8
  8
0
  6
CONTINUOUS
 62
     7
 10
46.614290787
 20
-29.8811001512
 30
0.0
  0
VERTEX
  5
4A9
  8
0
  6
CONTINUOUS
 62
     7
 10
46.6143265497
 20
-29.7141639325
 30
0.0
  0
VERTEX
  5
4AA
  8
0
  6
CONTINUOUS
 62
     7
 10
46.61445768
 20
-29.6023836168
 30
0.0
  0
VERTEX
  5
4AB
  8
0
  6
CONTINUOUS
 62
     7
 10
46.6149047148
 20
-29.5048156562
 30
0.0
  0
VERTEX
  5
4AC
  8
0
  6
CONTINUOUS
 62
     7
 10
46.6150954497
 20
-29.5107124182
 30
0.0
  0
SEQEND
  5
52E
  8
0
  6
CONTINUOUS
 62
     7
  0
POLYLINE
  5
215
  8
0
  6
CONTINUOUS
 62
     7
 66
     1
 10
0.0
 20
0.0
 30
0.0
  0
VERTEX
  5
4AD
  8
0
  6
CONTINUOUS
 62
     7
 10
52.7018621695
 20
-33.4108244902
 30
0.0
  0
VERTEX
  5
4AE
  8
0
  6
CONTINUOUS
 62
     7
 10
51.5784695875
 20
-33.1984414062
 30
0.0
  0
VERTEX
  5
4AF
  8
0
  6
CONTINUOUS
 62
     7
 10
50.5305841696
 20
-32.8633779469
 30
0.0
  0
VERTEX
  5
4B0
  8
0
  6
CONTINUOUS
 62
     7
 10
49.7157767546
 20
-32.501135468
 30
0.0
  0
VERTEX
  5
4B1
  8
0
  6
CONTINUOUS
 62
     7
 10
48.9853516352
 20
-32.0942742559
 30
0.0
  0
VERTEX
  5
4B2
  8
0
  6
CONTINUOUS
 62
     7
 10
48.2196703684
 20
-31.5733538749
 30
0.0
  0
VERTEX
  5
4B3
  8
0
  6
CONTINUOUS
 62
     7
 10
47.5892976057
 20
-31.0602325755
 30
0.0
  0
VERTEX
  5
4B4
  8
0
  6
CONTINUOUS
 62
     7
 10
47.2090080511
 20
-30.7059336262
 30
0.0
  0
VERTEX
  5
4B5
  8
0
  6
CONTINUOUS
 62
     7
 10
46.9144299757
 20
-30.39410131
 30
0.0
  0
VERTEX
  5
4B6
  8
0
  6
CONTINUOUS
 62
     7
 10
46.7160239947
 20
-30.1375103923
 30
0.0
  0
VERTEX
  5
4B7
  8
0
  6
CONTINUOUS
 62
     7
 10
46.6142669451
 20
-29.8810975435
 30
0.0
  0
SEQEND
  5
52D
  8
0
  6
CONTINUOUS
 62
     7
  0
POLYLINE
  5
216
  8
0
  6
CONTINUOUS
 62
     7
 66
     1
 10
0.0
 20
0.0
 30
0.0
  0
VERTEX
  5
4B8
  8
0
  6
CONTINUOUS
 62
     7
 10
115.7268628609
 20
-33.4108244902
 30
0.0
  0
VERTEX
  5
4B9
  8
0
  6
CONTINUOUS
 62
     7
 10
108.6836293471
 20
-34.1968456092
 30
0.0
  0
VERTEX
  5
4BA
  8
0
  6
CONTINUOUS
 62
     7
 10
101.6129836571
 20
-34.8143887515
 30
0.0
  0
VERTEX
  5
4BB
  8
0
  6
CONTINUOUS
 62
     7
 10
94.4873914254
 20
-35.236509684
 30
0.0
  0
VERTEX
  5
4BC
  8
0
  6
CONTINUOUS
 62
     7
 10
87.3477831614
 20
-35.4449827033
 30
0.0
  0
VERTEX
  5
4BD
  8
0
  6
CONTINUOUS
 62
     7
 10
81.5739229452
 20
-35.4505911278
 30
0.0
  0
VERTEX
  5
4BE
  8
0
  6
CONTINUOUS
 62
     7
 10
75.8011594546
 20
-35.3116320255
 30
0.0
  0
VERTEX
  5
4BF
  8
0
  6
CONTINUOUS
 62
     7
 10
70.0373187792
 20
-35.0313094253
 30
0.0
  0
VERTEX
  5
4C0
  8
0
  6
CONTINUOUS
 62
     7
 10
64.2420962584
 20
-34.610725827
 30
0.0
  0
VERTEX
  5
4C1
  8
0
  6
CONTINUOUS
 62
     7
 10
58.4620669615
 20
-34.0651289834
 30
0.0
  0
VERTEX
  5
4C2
  8
0
  6
CONTINUOUS
 62
     7
 10
52.7018621695
 20
-33.4108244902
 30
0.0
  0
SEQEND
  5
52C
  8
0
  6
CONTINUOUS
 62
     7
  0
POLYLINE
  5
217
  8
0
  6
CONTINUOUS
 62
     7
 66
     1
 10
0.0
 20
0.0
 30
0.0
  0
VERTEX
  5
4C3
  8
0
  6
CONTINUOUS
 62
     7
 10
121.8144610655
 20
-29.881258476
 30
0.0
  0
VERTEX
  5
4C4
  8
0
  6
CONTINUOUS
 62
     7
 10
121.7252999675
 20
-30.1170134726
 30
0.0
  0
VERTEX
  5
4C5
  8
0
  6
CONTINUOUS
 62
     7
 10
121.4694827926
 20
-30.4424410495
 30
0.0
  0
VERTEX
  5
4C6
  8
0
  6
CONTINUOUS
 62
     7
 10
121.0696697366
 20
-30.849723685
 30
0.0
  0
VERTEX
  5
4C7
  8
0
  6
CONTINUOUS
 62
     7
 10
120.5384612214
 20
-31.3158735442
 30
0.0
  0
VERTEX
  5
4C8
  8
0
  6
CONTINUOUS
 62
     7
 10
119.8050916326
 20
-31.8608110579
 30
0.0
  0
VERTEX
  5
4C9
  8
0
  6
CONTINUOUS
 62
     7
 10
118.9275428784
 20
-32.3902337621
 30
0.0
  0
VERTEX
  5
4CA
  8
0
  6
CONTINUOUS
 62
     7
 10
118.0492624771
 20
-32.8026475194
 30
0.0
  0
VERTEX
  5
4CB
  8
0
  6
CONTINUOUS
 62
     7
 10
117.0769676697
 20
-33.1385030686
 30
0.0
  0
VERTEX
  5
4CC
  8
0
  6
CONTINUOUS
 62
     7
 10
116.4133414757
 20
-33.2992748166
 30
0.0
  0
VERTEX
  5
4CD
  8
0
  6
CONTINUOUS
 62
     7
 10
115.7268628609
 20
-33.4108244902
 30
0.0
  0
SEQEND
  5
52B
  8
0
  6
CONTINUOUS
 62
     7
  0
POLYLINE
  5
218
  8
0
  6
CONTINUOUS
 62
     7
 66
     1
 10
0.0
 20
0.0
 30
0.0
  0
VERTEX
  5
4CE
  8
0
  6
CONTINUOUS
 62
     7
 10
121.8125462663
 20
-29.6656539472
 30
0.0
  0
VERTEX
  5
4CF
  8
0
  6
CONTINUOUS
 62
     7
 10
121.8143627178
 20
-29.6664355131
 30
0.0
  0
VERTEX
  5
4D0
  8
0
  6
CONTINUOUS
 62
     7
 10
121.8179255855
 20
-29.6880593332
 30
0.0
  0
VERTEX
  5
4D1
  8
0
  6
CONTINUOUS
 62
     7
 10
121.8165174258
 20
-29.7082638177
 30
0.0
  0
VERTEX
  5
4D2
  8
0
  6
CONTINUOUS
 62
     7
 10
121.8142479789
 20
-29.6344386222
 30
0.0
  0
SEQEND
  5
52A
  8
0
  6
CONTINUOUS
 62
     7
  0
POLYLINE
  5
219
  8
0
  6
CONTINUOUS
 62
     7
 66
     1
 10
0.0
 20
0.0
 30
0.0
  0
VERTEX
  5
4D3
  8
0
  6
CONTINUOUS
 62
     7
 10
121.8136176598
 20
-29.5091921272
 30
0.0
  0
VERTEX
  5
4D4
  8
0
  6
CONTINUOUS
 62
     7
 10
121.8137756121
 20
-29.5002920362
 30
0.0
  0
VERTEX
  5
4D5
  8
0
  6
CONTINUOUS
 62
     7
 10
121.8142196667
 20
-29.5982161346
 30
0.0
  0
VERTEX
  5
4D6
  8
0
  6
CONTINUOUS
 62
     7
 10
121.8144342434
 20
-29.8812607112
 30
0.0
  0
SEQEND
  5
529
  8
0
  6
CONTINUOUS
 62
     7
  0
POLYLINE
  5
21A
  8
0
  6
CONTINUOUS
 62
     7
 66
     1
 10
0.0
 20
0.0
 30
0.0
  0
VERTEX
  5
4D7
  8
0
  6
CONTINUOUS
 62
     7
 10
49.0080192816
 20
-28.5054700258
 30
0.0
  0
VERTEX
  5
4D8
  8
0
  6
CONTINUOUS
 62
     7
 10
48.2336297762
 20
-28.5034676823
 30
0.0
  0
VERTEX
  5
4D9
  8
0
  6
CONTINUOUS
 62
     7
 10
48.0375424158
 20
-28.5025888863
 30
0.0
  0
SEQEND
  5
528
  8
0
  6
CONTINUOUS
 62
     7
  0
POLYLINE
  5
21B
  8
0
  6
CONTINUOUS
 62
     7
 66
     1
 10
0.0
 20
0.0
 30
0.0
  0
VERTEX
  5
4DA
  8
0
  6
CONTINUOUS
 62
     7
 10
46.7609480154
 20
-28.34784368
 30
0.0
  0
VERTEX
  5
4DB
  8
0
  6
CONTINUOUS
 62
     7
 10
46.7510655653
 20
-28.400706667
 30
0.0
  0
VERTEX
  5
4DC
  8
0
  6
CONTINUOUS
 62
     7
 10
46.7225626242
 20
-28.6565368804
 30
0.0
  0
SEQEND
  5
527
  8
0
  6
CONTINUOUS
 62
     7
  0
ARC
  5
21C
  8
0
  6
CONTINUOUS
 62
     7
 10
47.8304895582
 20
-43.0685409387
 30
0.0
 40
14.61056116507717
 50
75.6824506524
 51
85.3773129971
  0
ARC
  5
21D
  8
0
  6
CONTINUOUS
 62
     7
 10
120.438336035
 20
-42.2807383848
 30
0.0
 40
13.81276703267415
 50
94.2249274432
 51
104.9752332572
  0
POLYLINE
  5
21E
  8
0
  6
CONTINUOUS
 62
     7
 66
     1
 10
0.0
 20
0.0
 30
0.0
  0
VERTEX
  5
4DD
  8
0
  6
CONTINUOUS
 62
     7
 10
119.4207161796
 20
-28.5055083963
 30
0.0
  0
VERTEX
  5
4DE
  8
0
  6
CONTINUOUS
 62
     7
 10
120.2784910929
 20
-28.5031379941
 30
0.0
  0
VERTEX
  5
4DF
  8
0
  6
CONTINUOUS
 62
     7
 10
120.3987196219
 20
-28.5026022973
 30
0.0
  0
SEQEND
  5
526
  8
0
  6
CONTINUOUS
 62
     7
  0
POLYLINE
  5
21F
  8
0
  6
CONTINUOUS
 62
     7
 66
     1
 10
0.0
 20
0.0
 30
0.0
  0
VERTEX
  5
4E0
  8
0
  6
CONTINUOUS
 62
     7
 10
121.6266140473
 20
-28.5060865613
 30
0.0
  0
VERTEX
  5
4E1
  8
0
  6
CONTINUOUS
 62
     7
 10
121.6361388695
 20
-28.5177385243
 30
0.0
  0
VERTEX
  5
4E2
  8
0
  6
CONTINUOUS
 62
     7
 10
121.6486200821
 20
-28.4935684683
 30
0.0
  0
VERTEX
  5
4E3
  8
0
  6
CONTINUOUS
 62
     7
 10
121.6501370203
 20
-28.436093572
 30
0.0
  0
VERTEX
  5
4E4
  8
0
  6
CONTINUOUS
 62
     7
 10
121.6515943539
 20
-28.3652091208
 30
0.0
  0
SEQEND
  5
525
  8
0
  6
CONTINUOUS
 62
     7
  0
POLYLINE
  5
220
  8
0
  6
CONTINUOUS
 62
     7
 66
     1
 10
0.0
 20
0.0
 30
0.0
  0
VERTEX
  5
4E5
  8
0
  6
CONTINUOUS
 62
     7
 10
121.6533750427
 20
-28.3417852404
 30
0.0
  0
VERTEX
  5
4E6
  8
0
  6
CONTINUOUS
 62
     7
 10
121.6554016006
 20
-28.3151482972
 30
0.0
  0
VERTEX
  5
4E7
  8
0
  6
CONTINUOUS
 62
     7
 10
121.6641307008
 20
-28.3216098132
 30
0.0
  0
VERTEX
  5
4E8
  8
0
  6
CONTINUOUS
 62
     7
 10
121.6804236305
 20
-28.4211208853
 30
0.0
  0
VERTEX
  5
4E9
  8
0
  6
CONTINUOUS
 62
     7
 10
121.7061668765
 20
-28.6565372529
 30
0.0
  0
SEQEND
  5
524
  8
0
  6
CONTINUOUS
 62
     7
  0
POLYLINE
  5
221
  8
0
  6
CONTINUOUS
 62
     7
 66
     1
 10
0.0
 20
0.0
 30
0.0
  0
VERTEX
  5
4EA
  8
0
  6
CONTINUOUS
 62
     7
 10
121.7061668765
 20
-28.6565368804
 30
0.0
  0
VERTEX
  5
4EB
  8
0
  6
CONTINUOUS
 62
     7
 10
121.6317847502
 20
-28.8708014222
 30
0.0
  0
VERTEX
  5
4EC
  8
0
  6
CONTINUOUS
 62
     7
 10
121.3871687782
 20
-29.1644623312
 30
0.0
  0
VERTEX
  5
4ED
  8
0
  6
CONTINUOUS
 62
     7
 10
120.9849044812
 20
-29.5369038167
 30
0.0
  0
VERTEX
  5
4EE
  8
0
  6
CONTINUOUS
 62
     7
 10
120.4413488638
 20
-29.9680786016
 30
0.0
  0
VERTEX
  5
4EF
  8
0
  6
CONTINUOUS
 62
     7
 10
119.7104245555
 20
-30.4634792539
 30
0.0
  0
VERTEX
  5
4F0
  8
0
  6
CONTINUOUS
 62
     7
 10
118.8378527891
 20
-30.949535388
 30
0.0
  0
VERTEX
  5
4F1
  8
0
  6
CONTINUOUS
 62
     7
 10
117.9459229243
 20
-31.3401542413
 30
0.0
  0
VERTEX
  5
4F2
  8
0
  6
CONTINUOUS
 62
     7
 10
116.9604435694
 20
-31.6589591833
 30
0.0
  0
VERTEX
  5
4F3
  8
0
  6
CONTINUOUS
 62
     7
 10
116.299738003
 20
-31.8092005136
 30
0.0
  0
VERTEX
  5
4F4
  8
0
  6
CONTINUOUS
 62
     7
 10
115.6175270808
 20
-31.9136617514
 30
0.0
  0
SEQEND
  5
523
  8
0
  6
CONTINUOUS
 62
     7
  0
POLYLINE
  5
222
  8
0
  6
CONTINUOUS
 62
     7
 66
     1
 10
0.0
 20
0.0
 30
0.0
  0
VERTEX
  5
4F5
  8
0
  6
CONTINUOUS
 62
     7
 10
115.6175270808
 20
-31.9136649179
 30
0.0
  0
VERTEX
  5
4F6
  8
0
  6
CONTINUOUS
 62
     7
 10
110.552917434
 20
-32.4634449365
 30
0.0
  0
VERTEX
  5
4F7
  8
0
  6
CONTINUOUS
 62
     7
 10
105.5748149884
 20
-32.9272988992
 30
0.0
  0
VERTEX
  5
4F8
  8
0
  6
CONTINUOUS
 62
     7
 10
100.5824938547
 20
-33.3065201337
 30
0.0
  0
VERTEX
  5
4F9
  8
0
  6
CONTINUOUS
 62
     7
 10
95.5360219013
 20
-33.5941430106
 30
0.0
  0
VERTEX
  5
4FA
  8
0
  6
CONTINUOUS
 62
     7
 10
90.5166462195
 20
-33.7790061587
 30
0.0
  0
VERTEX
  5
4FB
  8
0
  6
CONTINUOUS
 62
     7
 10
85.4742959273
 20
-33.8593200589
 30
0.0
  0
VERTEX
  5
4FC
  8
0
  6
CONTINUOUS
 62
     7
 10
80.44471295
 20
-33.8326678304
 30
0.0
  0
VERTEX
  5
4FD
  8
0
  6
CONTINUOUS
 62
     7
 10
75.8226588499
 20
-33.7146318759
 30
0.0
  0
VERTEX
  5
4FE
  8
0
  6
CONTINUOUS
 62
     7
 10
71.2210849058
 20
-33.5099270842
 30
0.0
  0
VERTEX
  5
4FF
  8
0
  6
CONTINUOUS
 62
     7
 10
66.6215196383
 20
-33.2219112473
 30
0.0
  0
VERTEX
  5
500
  8
0
  6
CONTINUOUS
 62
     7
 10
62.0111599695
 20
-32.8545629787
 30
0.0
  0
VERTEX
  5
501
  8
0
  6
CONTINUOUS
 62
     7
 10
57.4651315939
 20
-32.4216437335
 30
0.0
  0
VERTEX
  5
502
  8
0
  6
CONTINUOUS
 62
     7
 10
52.8112009299
 20
-31.9136649179
 30
0.0
  0
SEQEND
  5
522
  8
0
  6
CONTINUOUS
 62
     7
  0
POLYLINE
  5
223
  8
0
  6
CONTINUOUS
 62
     7
 66
     1
 10
0.0
 20
0.0
 30
0.0
  0
VERTEX
  5
503
  8
0
  6
CONTINUOUS
 62
     7
 10
52.8112009299
 20
-31.9136649179
 30
0.0
  0
VERTEX
  5
504
  8
0
  6
CONTINUOUS
 62
     7
 10
52.379603697
 20
-31.8535459968
 30
0.0
  0
VERTEX
  5
505
  8
0
  6
CONTINUOUS
 62
     7
 10
51.9461110365
 20
-31.772578116
 30
0.0
  0
VERTEX
  5
506
  8
0
  6
CONTINUOUS
 62
     7
 10
51.5132621062
 20
-31.6707687261
 30
0.0
  0
VERTEX
  5
507
  8
0
  6
CONTINUOUS
 62
     7
 10
51.1214092505
 20
-31.559935193
 30
0.0
  0
VERTEX
  5
508
  8
0
  6
CONTINUOUS
 62
     7
 10
50.7259443533
 20
-31.4298644471
 30
0.0
  0
VERTEX
  5
509
  8
0
  6
CONTINUOUS
 62
     7
 10
50.329579426
 20
-31.2806300628
 30
0.0
  0
VERTEX
  5
50A
  8
0
  6
CONTINUOUS
 62
     7
 10
50.0222101939
 20
-31.1513799983
 30
0.0
  0
VERTEX
  5
50B
  8
0
  6
CONTINUOUS
 62
     7
 10
49.7184828055
 20
-31.0117905768
 30
0.0
  0
VERTEX
  5
50C
  8
0
  6
CONTINUOUS
 62
     7
 10
49.4308963549
 20
-30.8683929774
 30
0.0
  0
VERTEX
  5
50D
  8
0
  6
CONTINUOUS
 62
     7
 10
49.1579786074
 20
-30.7218950051
 30
0.0
  0
VERTEX
  5
50E
  8
0
  6
CONTINUOUS
 62
     7
 10
48.8918438685
 20
-30.5689444574
 30
0.0
  0
VERTEX
  5
50F
  8
0
  6
CONTINUOUS
 62
     7
 10
48.6656800043
 20
-30.4307518336
 30
0.0
  0
VERTEX
  5
510
  8
0
  6
CONTINUOUS
 62
     7
 10
48.4026208651
 20
-30.2602877649
 30
0.0
  0
VERTEX
  5
511
  8
0
  6
CONTINUOUS
 62
     7
 10
48.1068864596
 20
-30.0552876475
 30
0.0
  0
VERTEX
  5
512
  8
0
  6
CONTINUOUS
 62
     7
 10
47.8955403101
 20
-29.8993540737
 30
0.0
  0
VERTEX
  5
513
  8
0
  6
CONTINUOUS
 62
     7
 10
47.6852670443
 20
-29.7357575777
 30
0.0
  0
VERTEX
  5
514
  8
0
  6
CONTINUOUS
 62
     7
 10
47.4740520251
 20
-29.5620621922
 30
0.0
  0
VERTEX
  5
515
  8
0
  6
CONTINUOUS
 62
     7
 10
47.2979560625
 20
-29.4084386709
 30
0.0
  0
VERTEX
  5
516
  8
0
  6
CONTINUOUS
 62
     7
 10
47.1534684431
 20
-29.2746944162
 30
0.0
  0
VERTEX
  5
517
  8
0
  6
CONTINUOUS
 62
     7
 10
46.8238547575
 20
-28.9114704164
 30
0.0
  0
VERTEX
  5
518
  8
0
  6
CONTINUOUS
 62
     7
 10
46.7225626242
 20
-28.6565372529
 30
0.0
  0
SEQEND
  5
521
  8
0
  6
CONTINUOUS
 62
     7
  0
POLYLINE
  5
224
  8
0
  6
CONTINUOUS
 62
     7
 66
     1
 10
0.0
 20
0.0
 30
0.0
  0
VERTEX
  5
519
  8
0
  6
CONTINUOUS
 62
     7
 10
166.514363898
 20
-38.7445809128
 30
0.0
  0
VERTEX
  5
51A
  8
0
  6
CONTINUOUS
 62
     7
 10
166.5274590385
 20
-38.6830603513
 30
0.0
  0
VERTEX
  5
51B
  8
0
  6
CONTINUOUS
 62
     7
 10
166.5403872859
 20
-38.6201517465
 30
0.0
  0
SEQEND
  5
520
  8
0
  6
CONTINUOUS
 62
     7
  0
LINE
  5
225
  8
0
  6
CONTINUOUS
 62
     7
 10
166.514363898
 20
-38.7445809128
 30
0.0
 11
166.514363898
 21
-27.7201520088
 31
0.0
  0
LINE
  5
226
  8
0
  6
CONTINUOUS
 62
     7
 10
182.9143628609
 20
-39.9201517733
 30
0.0
 11
182.9143628609
 21
-27.7201520088
 31
0.0
  0
LINE
  5
227
  8
0
  6
CONTINUOUS
 62
     7
 10
166.6395113003
 20
-81.8201524946
 30
0.0
 11
166.6572779548
 21
-81.8201524946
 31
0.0
  0
LINE
  5
228
  8
0
  6
CONTINUOUS
 62
     7
 10
166.6395113003
 20
-38.6201517465
 30
0.0
 11
166.6395113003
 21
-81.8201524946
 31
0.0
  0
LINE
  5
229
  8
0
  6
CONTINUOUS
 62
     7
 10
170.1951876414
 20
-38.9948623064
 30
0.0
 11
170.1951876414
 21
-45.0925765368
 31
0.0
  0
ARC
  5
22A
  8
0
  6
CONTINUOUS
 62
     7
 10
171.3929566253
 20
-45.0977024647
 30
0.0
 40
1.197779952257834
 50
179.7548005922
 51
249.5392102241
  0
ARC
  5
22B
  8
0
  6
CONTINUOUS
 62
     7
 10
183.5363622735
 20
104.8544698608
 30
0.0
 40
144.4666650321586
 50
263.6006721768
 51
264.7013128449
  0
LINE
  5
22C
  8
0
  6
CONTINUOUS
 62
     7
 10
166.6395113003
 20
-38.6201517465
 30
0.0
 11
167.4395114314
 21
-38.6201517465
 31
0.0
  0
LINE
  5
22D
  8
0
  6
CONTINUOUS
 62
     7
 10
166.6395113003
 20
-81.8201524946
 30
0.0
 11
166.514363898
 21
-81.8201524946
 31
0.0
  0
LINE
  5
22E
  8
0
  6
CONTINUOUS
 62
     7
 10
166.5403872859
 20
-38.6201517465
 30
0.0
 11
166.6395113003
 21
-38.6201517465
 31
0.0
  0
LINE
  5
22F
  8
0
  6
CONTINUOUS
 62
     7
 10
166.514363898
 20
-81.8201524946
 30
0.0
 11
166.514363898
 21
-38.7445809128
 31
0.0
  0
LINE
  5
230
  8
0
  6
CONTINUOUS
 62
     7
 10
47.3143652212
 20
-30.8040860849
 30
0.0
 11
47.3143652212
 21
-31.9138467121
 31
0.0
  0
LINE
  5
231
  8
0
  6
CONTINUOUS
 62
     7
 10
46.5143636
 20
-31.9138467121
 30
0.0
 11
46.5143636
 21
-30.2201518598
 31
0.0
  0
LINE
  5
232
  8
0
  6
CONTINUOUS
 62
     7
 10
46.5716079008
 20
-29.85872345
 30
0.0
 11
46.5143636
 21
-30.2201518598
 31
0.0
  0
LINE
  5
233
  8
0
  6
CONTINUOUS
 62
     7
 10
46.5143636
 20
-33.8386900066
 30
0.0
 11
46.5143636
 21
-31.9138467121
 31
0.0
  0
LINE
  5
234
  8
0
  6
CONTINUOUS
 62
     7
 10
47.3143652212
 20
-33.8386900066
 30
0.0
 11
47.3143652212
 21
-31.9138467121
 31
0.0
  0
LINE
  5
235
  8
0
  6
CONTINUOUS
 62
     7
 10
46.5143636
 20
-39.8512275698
 30
0.0
 11
46.5143636
 21
-33.8386900066
 31
0.0
  0
LINE
  5
236
  8
0
  6
CONTINUOUS
 62
     7
 10
47.3143652212
 20
-39.8512275698
 30
0.0
 11
47.3143652212
 21
-33.8386900066
 31
0.0
  0
LINE
  5
237
  8
0
  6
CONTINUOUS
 62
     7
 10
62.9143610728
 20
-29.7814948293
 30
0.0
 11
62.9143610728
 21
-27.7201520088
 31
0.0
  0
LINE
  5
238
  8
0
  6
CONTINUOUS
 62
     7
 10
62.9143610728
 20
-39.9201517733
 30
0.0
 11
62.9143610728
 21
-34.4887992642
 31
0.0
  0
LINE
  5
239
  8
0
  6
CONTINUOUS
 62
     7
 10
46.5143636
 20
-30.2201518598
 30
0.0
 11
46.5143636
 21
-27.7201520088
 31
0.0
  0
LINE
  5
23A
  8
0
  6
CONTINUOUS
 62
     7
 10
46.5143636
 20
-39.9201517733
 30
0.0
 11
46.5143636
 21
-39.8512275698
 31
0.0
  0
POLYLINE
  5
23B
  8
0
  6
CONTINUOUS
 62
     7
 66
     1
 10
0.0
 20
0.0
 30
0.0
  0
VERTEX
  5
51C
  8
0
  6
CONTINUOUS
 62
     7
 10
241.8883398306
 20
-38.6201517465
 30
0.0
  0
VERTEX
  5
51D
  8
0
  6
CONTINUOUS
 62
     7
 10
241.9012680781
 20
-38.6830603513
 30
0.0
  0
VERTEX
  5
51E
  8
0
  6
CONTINUOUS
 62
     7
 10
241.9143632185
 20
-38.7445809128
 30
0.0
  0
SEQEND
  5
51F
  8
0
  6
CONTINUOUS
 62
     7
  0
LINE
  5
23C
  8
0
  6
CONTINUOUS
 62
     7
 10
225.5143657458
 20
-27.7201520088
 30
0.0
 11
225.5143657458
 21
-39.9201517733
 31
0.0
  0
LINE
  5
23D
  8
0
  6
CONTINUOUS
 62
     7
 10
241.9143632185
 20
-27.7201520088
 30
0.0
 11
241.9143632185
 21
-38.7445809128
 31
0.0
  0
LINE
  5
23E
  8
0
  6
CONTINUOUS
 62
     7
 10
241.7714491617
 20
-81.8201524946
 30
0.0
 11
241.7892173064
 21
-81.8201524946
 31
0.0
  0
ARC
  5
23F
  8
0
  6
CONTINUOUS
 62
     7
 10
237.0359051845
 20
-45.097764255
 30
0.0
 40
1.19764403614864
 50
290.0294013085
 51
0.2481833311
  0
LINE
  5
240
  8
0
  6
CONTINUOUS
 62
     7
 10
238.2335379851
 20
-45.0925765368
 30
0.0
 11
238.2335379851
 21
-38.9948623064
 31
0.0
  0
ARC
  5
241
  8
0
  6
CONTINUOUS
 62
     7
 10
225.0314006944
 20
103.4971365246
 30
0.0
 40
143.1022926436848
 50
275.2934435342
 51
276.4045777145
  0
LINE
  5
242
  8
0
  6
CONTINUOUS
 62
     7
 10
241.7892173064
 20
-81.8201524946
 30
0.0
 11
241.7892173064
 21
-38.6201517465
 31
0.0
  0
LINE
  5
243
  8
0
  6
CONTINUOUS
 62
     7
 10
240.9892156851
 20
-38.6201517465
 30
0.0
 11
241.7892173064
 21
-38.6201517465
 31
0.0
  0
LINE
  5
244
  8
0
  6
CONTINUOUS
 62
     7
 10
241.7892173064
 20
-81.8201524946
 30
0.0
 11
241.9143632185
 21
-81.8201524946
 31
0.0
  0
LINE
  5
245
  8
0
  6
CONTINUOUS
 62
     7
 10
241.7892173064
 20
-38.6201517465
 30
0.0
 11
241.8883398306
 21
-38.6201517465
 31
0.0
  0
LINE
  5
246
  8
0
  6
CONTINUOUS
 62
     7
 10
241.9143632185
 20
-38.7445809128
 30
0.0
 11
241.9143632185
 21
-81.8201524946
 31
0.0
  0
LINE
  5
247
  8
0
  6
CONTINUOUS
 62
     7
 10
121.8570321929
 20
-29.85817844
 30
0.0
 11
121.9143629205
 21
-30.2201518598
 31
0.0
  0
LINE
  5
248
  8
0
  6
CONTINUOUS
 62
     7
 10
121.9143629205
 20
-30.2201518598
 30
0.0
 11
121.9143629205
 21
-31.9138467121
 31
0.0
  0
LINE
  5
249
  8
0
  6
CONTINUOUS
 62
     7
 10
121.1143627894
 20
-31.9138467121
 30
0.0
 11
121.1143627894
 21
-30.8041946771
 31
0.0
  0
LINE
  5
24A
  8
0
  6
CONTINUOUS
 62
     7
 10
121.9143629205
 20
-31.9138467121
 30
0.0
 11
121.9143629205
 21
-33.8386900066
 31
0.0
  0
LINE
  5
24B
  8
0
  6
CONTINUOUS
 62
     7
 10
121.1143627894
 20
-31.9138467121
 30
0.0
 11
121.1143627894
 21
-33.8386900066
 31
0.0
  0
LINE
  5
24C
  8
0
  6
CONTINUOUS
 62
     7
 10
121.9143629205
 20
-33.8386900066
 30
0.0
 11
121.9143629205
 21
-39.8512275698
 31
0.0
  0
LINE
  5
24D
  8
0
  6
CONTINUOUS
 62
     7
 10
121.1143627894
 20
-33.8386900066
 30
0.0
 11
121.1143627894
 21
-39.8512275698
 31
0.0
  0
LINE
  5
24E
  8
0
  6
CONTINUOUS
 62
     7
 10
105.5143639576
 20
-27.7201520088
 30
0.0
 11
105.5143639576
 21
-29.7855296912
 31
0.0
  0
LINE
  5
24F
  8
0
  6
CONTINUOUS
 62
     7
 10
105.5143639576
 20
-34.4765695086
 30
0.0
 11
105.5143639576
 21
-39.9201517733
 31
0.0
  0
LINE
  5
250
  8
0
  6
CONTINUOUS
 62
     7
 10
121.9143629205
 20
-39.8512275698
 30
0.0
 11
121.9143629205
 21
-39.9201517733
 31
0.0
  0
LINE
  5
251
  8
0
  6
CONTINUOUS
 62
     7
 10
121.9143629205
 20
-27.7201520088
 30
0.0
 11
121.9143629205
 21
-30.2201518598
 31
0.0
  0
LINE
  5
252
  8
0
  6
CONTINUOUS
 62
     7
 10
245.6143692267
 20
-28.206344861
 30
0.0
 11
245.6143692267
 21
-40.2201516363
 31
0.0
  0
LINE
  5
253
  8
0
  6
CONTINUOUS
 62
     7
 10
242.2143653166
 20
-28.206344861
 30
0.0
 11
242.2143653166
 21
-40.2201516363
 31
0.0
  0
LINE
  5
254
  8
0
  6
CONTINUOUS
 62
     7
 10
224.8143628371
 20
-27.8201518389
 30
0.0
 11
224.8143628371
 21
-39.8201519432
 31
0.0
  0
LINE
  5
255
  8
0
  6
CONTINUOUS
 62
     7
 10
245.6143692267
 20
-25.2201517853
 30
0.0
 11
245.6143692267
 21
-28.206344861
 31
0.0
  0
LINE
  5
256
  8
0
  6
CONTINUOUS
 62
     7
 10
242.2143653166
 20
-25.2201517853
 30
0.0
 11
242.2143653166
 21
-28.206344861
 31
0.0
  0
LINE
  5
257
  8
0
  6
CONTINUOUS
 62
     7
 10
122.2143635285
 20
-28.206344861
 30
0.0
 11
122.2143635285
 21
-40.2201516363
 31
0.0
  0
LINE
  5
258
  8
0
  6
CONTINUOUS
 62
     7
 10
125.6143629682
 20
-28.206344861
 30
0.0
 11
125.6143629682
 21
-40.2201516363
 31
0.0
  0
LINE
  5
259
  8
0
  6
CONTINUOUS
 62
     7
 10
104.8143640291
 20
-27.8201518389
 30
0.0
 11
104.8143640291
 21
-29.8315105769
 31
0.0
  0
LINE
  5
25A
  8
0
  6
CONTINUOUS
 62
     7
 10
104.8143640291
 20
-34.536288287
 30
0.0
 11
104.8143640291
 21
-39.8201519432
 31
0.0
  0
LINE
  5
25B
  8
0
  6
CONTINUOUS
 62
     7
 10
122.2143635285
 20
-25.2201517853
 30
0.0
 11
122.2143635285
 21
-28.206344861
 31
0.0
  0
LINE
  5
25C
  8
0
  6
CONTINUOUS
 62
     7
 10
125.6143629682
 20
-25.2201517853
 30
0.0
 11
125.6143629682
 21
-28.206344861
 31
0.0
  0
LINE
  5
25D
  8
0
  6
CONTINUOUS
 62
     7
 10
46.2143615019
 20
-28.206344861
 30
0.0
 11
46.2143615019
 21
-40.2201516363
 31
0.0
  0
LINE
  5
25E
  8
0
  6
CONTINUOUS
 62
     7
 10
42.8143575918
 20
-28.206344861
 30
0.0
 11
42.8143575918
 21
-40.2201516363
 31
0.0
  0
LINE
  5
25F
  8
0
  6
CONTINUOUS
 62
     7
 10
63.6143639815
 20
-27.8201518389
 30
0.0
 11
63.6143639815
 21
-29.8316484126
 31
0.0
  0
LINE
  5
260
  8
0
  6
CONTINUOUS
 62
     7
 10
63.6143639815
 20
-34.5529078315
 30
0.0
 11
63.6143639815
 21
-39.8201519432
 31
0.0
  0
LINE
  5
261
  8
0
  6
CONTINUOUS
 62
     7
 10
46.2143615019
 20
-25.2201517853
 30
0.0
 11
46.2143615019
 21
-28.206344861
 31
0.0
  0
LINE
  5
262
  8
0
  6
CONTINUOUS
 62
     7
 10
42.8143575918
 20
-25.2201517853
 30
0.0
 11
42.8143575918
 21
-28.206344861
 31
0.0
  0
LINE
  5
263
  8
0
  6
CONTINUOUS
 62
     7
 10
166.2143632901
 20
-28.206344861
 30
0.0
 11
166.2143632901
 21
-40.2201516363
 31
0.0
  0
LINE
  5
264
  8
0
  6
CONTINUOUS
 62
     7
 10
162.8143638503
 20
-28.206344861
 30
0.0
 11
162.8143638503
 21
-40.2201516363
 31
0.0
  0
LINE
  5
265
  8
0
  6
CONTINUOUS
 62
     7
 10
183.6143627894
 20
-27.8201518389
 30
0.0
 11
183.6143627894
 21
-39.8201519432
 31
0.0
  0
LINE
  5
266
  8
0
  6
CONTINUOUS
 62
     7
 10
166.2143632901
 20
-25.2201517853
 30
0.0
 11
166.2143632901
 21
-28.206344861
 31
0.0
  0
LINE
  5
267
  8
0
  6
CONTINUOUS
 62
     7
 10
162.8143638503
 20
-25.2201517853
 30
0.0
 11
162.8143638503
 21
-28.206344861
 31
0.0
  0
ENDSEC
  0
EOF
