  0
SECTION
  2
HEADER
  9
$ACADVER
  1
AC1009
  9
$DWGCODEPAGE
  3
ansi_1252
  9
$INSBASE
 10
0.0
 20
0.0
 30
0.0
  9
$EXTMIN
 10
0.0
 20
0.0
 30
0.0
  9
$EXTMAX
 10
420.0
 20
297.0
 30
0.0
  9
$LIMMIN
 10
0.0
 20
0.0
  9
$LIMMAX
 10
420.0
 20
297.0
  9
$ORTHOMODE
 70
     0
  9
$REGENMODE
 70
     1
  9
$FILLMODE
 70
     1
  9
$QTEXTMODE
 70
     0
  9
$MIRRTEXT
 70
     1
  9
$DRAGMODE
 70
     2
  9
$LTSCALE
 40
1.0
  9
$OSMODE
 70
    37
  9
$ATTMODE
 70
     1
  9
$TEXTSIZE
 40
3.5
  9
$TRACEWID
 40
1.0
  9
$TEXTSTYLE
  7
STANDARD
  9
$CLAYER
  8
0
  9
$CELTYPE
  6
BYLAYER
  9
$CECOLOR
 62
   256
  9
$DIMSCALE
 40
1.0
  9
$DIMASZ
 40
4.0
  9
$DIMEXO
 40
0.0
  9
$DIMDLI
 40
3.75
  9
$DIMRND
 40
0.0
  9
$DIMDLE
 40
0.0
  9
$DIMEXE
 40
2.0
  9
$DIMTP
 40
0.0
  9
$DIMTM
 40
0.0
  9
$DIMTXT
 40
3.5
  9
$DIMCEN
 40
2.5
  9
$DIMTSZ
 40
0.0
  9
$DIMTOL
 70
     0
  9
$DIMLIM
 70
     0
  9
$DIMTIH
 70
     1
  9
$DIMTOH
 70
     1
  9
$DIMSE1
 70
     0
  9
$DIMSE2
 70
     0
  9
$DIMTAD
 70
     1
  9
$DIMZIN
 70
     0
  9
$DIMBLK
  1

  9
$DIMASO
 70
     1
  9
$DIMSHO
 70
     1
  9
$DIMPOST
  1

  9
$DIMAPOST
  1

  9
$DIMALT
 70
     0
  9
$DIMALTD
 70
     3
  9
$DIMALTF
 40
0.0393700787
  9
$DIMLFAC
 40
5.0
  9
$DIMTOFL
 70
     1
  9
$DIMTVP
 40
0.0
  9
$DIMTIX
 70
     0
  9
$DIMSOXD
 70
     0
  9
$DIMSAH
 70
     0
  9
$DIMBLK1
  1

  9
$DIMBLK2
  1

  9
$DIMSTYLE
  2
ISO-25
  9
$DIMCLRD
 70
     0
  9
$DIMCLRE
 70
     0
  9
$DIMCLRT
 70
     0
  9
$DIMTFAC
 40
1.0
  9
$DIMGAP
 40
1.524
  9
$LUNITS
 70
     2
  9
$LUPREC
 70
     2
  9
$SKETCHINC
 40
1.0
  9
$FILLETRAD
 40
10.0
  9
$AUNITS
 70
     0
  9
$AUPREC
 70
     2
  9
$MENU
  1
.
  9
$ELEVATION
 40
0.0
  9
$PELEVATION
 40
0.0
  9
$THICKNESS
 40
0.0
  9
$LIMCHECK
 70
     0
  9
$CHAMFERA
 40
10.0
  9
$CHAMFERB
 40
10.0
  9
$SKPOLY
 70
     0
  9
$TDCREATE
 40
2457802.335905139
  9
$TDUPDATE
 40
2457802.335905405
  9
$TDINDWG
 40
0.0000000116
  9
$TDUSRTIMER
 40
0.0000000116
  9
$USRTIMER
 70
     1
  9
$ANGBASE
 50
0.0
  9
$ANGDIR
 70
     0
  9
$PDMODE
 70
     0
  9
$PDSIZE
 40
-1.0
  9
$PLINEWID
 40
0.0
  9
$COORDS
 70
     1
  9
$SPLFRAME
 70
     0
  9
$SPLINETYPE
 70
     6
  9
$SPLINESEGS
 70
     8
  9
$ATTDIA
 70
     0
  9
$ATTREQ
 70
     1
  9
$HANDLING
 70
     1
  9
$HANDSEED
  5
820
  9
$SURFTAB1
 70
     6
  9
$SURFTAB2
 70
     6
  9
$SURFTYPE
 70
     6
  9
$SURFU
 70
     6
  9
$SURFV
 70
     6
  9
$UCSNAME
  2

  9
$UCSORG
 10
0.0
 20
0.0
 30
0.0
  9
$UCSXDIR
 10
1.0
 20
0.0
 30
0.0
  9
$UCSYDIR
 10
0.0
 20
1.0
 30
0.0
  9
$PUCSNAME
  2

  9
$PUCSORG
 10
0.0
 20
0.0
 30
0.0
  9
$PUCSXDIR
 10
1.0
 20
0.0
 30
0.0
  9
$PUCSYDIR
 10
0.0
 20
1.0
 30
0.0
  9
$USERI1
 70
     0
  9
$USERI2
 70
     0
  9
$USERI3
 70
     0
  9
$USERI4
 70
     0
  9
$USERI5
 70
     0
  9
$USERR1
 40
0.0
  9
$USERR2
 40
0.0
  9
$USERR3
 40
0.0
  9
$USERR4
 40
0.0
  9
$USERR5
 40
0.0
  9
$WORLDVIEW
 70
     1
  9
$SHADEDGE
 70
     3
  9
$SHADEDIF
 70
    70
  9
$TILEMODE
 70
     1
  9
$MAXACTVP
 70
    64
  9
$PLIMCHECK
 70
     0
  9
$PEXTMIN
 10
1.0000000000E+20
 20
1.0000000000E+20
 30
1.0000000000E+20
  9
$PEXTMAX
 10
-1.0000000000E+20
 20
-1.0000000000E+20
 30
-1.0000000000E+20
  9
$PLIMMIN
 10
0.0
 20
0.0
  9
$PLIMMAX
 10
420.0
 20
297.0
  9
$UNITMODE
 70
     0
  9
$VISRETAIN
 70
     1
  9
$PLINEGEN
 70
     0
  9
$PSLTSCALE
 70
     1
  0
ENDSEC
  0
SECTION
  2
TABLES
  0
TABLE
  2
VPORT
 70
     1
  0
VPORT
  2
*ACTIVE
 70
     0
 10
0.0
 20
0.0
 11
1.0
 21
1.0
 12
210.0
 22
148.5
 13
0.0
 23
0.0
 14
10.0
 24
10.0
 15
10.0
 25
10.0
 16
0.0
 26
0.0
 36
1.0
 17
0.0
 27
0.0
 37
0.0
 40
297.0
 41
1.4141414141
 42
50.0
 43
0.0
 44
0.0
 50
0.0
 51
0.0
 71
     0
 72
  2000
 73
     1
 74
     3
 75
     0
 76
     0
 77
     0
 78
     0
  0
ENDTAB
  0
TABLE
  2
LTYPE
 70
     6
  0
LTYPE
  2
CONTINUOUS
 70
     0
  3
Solid line
 72
    65
 73
     0
 40
0.0
  0
LTYPE
  2
HIDDEN
 70
     0
  3
Hidden __ __ __ __ __ __ __ __ __ __ __ __ __ __
 72
    65
 73
     2
 40
1.905
 49
1.27
 49
-0.635
  0
LTYPE
  2
PHANTOM
 70
     0
  3
Phantom ______  __  __  ______  __  __  ______
 72
    65
 73
     6
 40
12.7
 49
6.35
 49
-1.27
 49
1.27
 49
-1.27
 49
1.27
 49
-1.27
  0
LTYPE
  2
CENTER
 70
     0
  3
Center ____ _ ____ _ ____ _ ____ _ ____ _ ____
 72
    65
 73
     4
 40
10.16
 49
6.35
 49
-1.27
 49
1.27
 49
-1.27
  0
LTYPE
  2
CENTERX2
 70
     0
  3
Center (2x) ________  __  ________  __  _____
 72
    65
 73
     4
 40
20.32
 49
12.7
 49
-2.54
 49
2.54
 49
-2.54
  0
LTYPE
  2
DOT2
 70
     0
  3
Dot (.5x) ........................................
 72
    65
 73
     2
 40
0.635
 49
0.0
 49
-0.635
  0
ENDTAB
  0
TABLE
  2
LAYER
 70
     2
  0
LAYER
  2
0
 70
     0
 62
     7
  6
CONTINUOUS
  0
LAYER
  2
FORMAT
 70
     0
 62
     7
  6
CONTINUOUS
  0
ENDTAB
  0
TABLE
  2
STYLE
 70
     1
  0
STYLE
  2
STANDARD
 70
     0
 40
0.0
 41
1.0
 50
0.0
 71
     0
 42
3.5
  3
txt
  4

  0
ENDTAB
  0
TABLE
  2
VIEW
 70
     0
  0
ENDTAB
  0
TABLE
  2
UCS
 70
     0
  0
ENDTAB
  0
TABLE
  2
APPID
 70
     1
  0
APPID
  2
ACAD
 70
     0
  0
ENDTAB
  0
TABLE
  2
DIMSTYLE
 70
     1
  0
DIMSTYLE
  2
ISO-25
 70
     0
  3

  4

  5

  6

  7

 40
1.0
 41
2.5
 42
0.625
 43
3.75
 44
1.25
 45
0.0
 46
0.0
 47
0.0
 48
0.0
140
2.5
141
2.5
142
0.0
143
0.0393700787
144
1.0
145
0.0
146
1.0
147
0.625
 71
     0
 72
     0
 73
     0
 74
     0
 75
     0
 76
     0
 77
     1
 78
     8
170
     0
171
     3
172
     1
173
     0
174
     0
175
     0
176
     0
177
     0
178
     0
  0
ENDTAB
  0
ENDSEC
  0
SECTION
  2
BLOCKS
  0
BLOCK
  8
0
  2
$MODEL_SPACE
 70
     0
 10
0.0
 20
0.0
 30
0.0
  3
$MODEL_SPACE
  1

  0
ENDBLK
  5
21
  8
0
  0
BLOCK
 67
     1
  8
0
  2
$PAPER_SPACE
 70
     0
 10
0.0
 20
0.0
 30
0.0
  3
$PAPER_SPACE
  1

  0
ENDBLK
  5
1D
 67
     1
  8
0
  0
ENDSEC
  0
SECTION
  2
ENTITIES
  0
POLYLINE
  5
45
  8
0
  6
CONTINUOUS
 62
     7
 66
     1
 10
0.0
 20
0.0
 30
0.0
  0
VERTEX
  5
342
  8
0
  6
CONTINUOUS
 62
     7
 10
113.261611294
 20
237.2480005244
 30
0.0
  0
VERTEX
  5
343
  8
0
  6
CONTINUOUS
 62
     7
 10
113.1970982067
 20
237.277433298
 30
0.0
  0
VERTEX
  5
344
  8
0
  6
CONTINUOUS
 62
     7
 10
112.666780781
 20
237.5187605837
 30
0.0
  0
SEQEND
  5
81F
  8
0
  6
CONTINUOUS
 62
     7
  0
LINE
  5
46
  8
0
  6
CONTINUOUS
 62
     7
 10
49.9965797179
 20
237.519392393
 30
0.0
 11
49.3996690028
 21
237.2474163989
 31
0.0
  0
POLYLINE
  5
47
  8
0
  6
CONTINUOUS
 62
     7
 66
     1
 10
0.0
 20
0.0
 30
0.0
  0
VERTEX
  5
345
  8
0
  6
CONTINUOUS
 62
     7
 10
233.2616101019
 20
237.2480005244
 30
0.0
  0
VERTEX
  5
346
  8
0
  6
CONTINUOUS
 62
     7
 10
233.1970999949
 20
237.277433298
 30
0.0
  0
VERTEX
  5
347
  8
0
  6
CONTINUOUS
 62
     7
 10
232.6667795889
 20
237.5187605837
 30
0.0
  0
SEQEND
  5
81E
  8
0
  6
CONTINUOUS
 62
     7
  0
LINE
  5
48
  8
0
  6
CONTINUOUS
 62
     7
 10
169.996581506
 20
237.519392393
 30
0.0
 11
169.3996678107
 21
237.2474163989
 31
0.0
  0
POLYLINE
  5
49
  8
0
  6
CONTINUOUS
 62
     7
 66
     1
 10
0.0
 20
0.0
 30
0.0
  0
VERTEX
  5
348
  8
0
  6
CONTINUOUS
 62
     7
 10
238.7694190256
 20
162.4465435961
 30
0.0
  0
VERTEX
  5
349
  8
0
  6
CONTINUOUS
 62
     7
 10
237.781811785
 20
162.31467428
 30
0.0
  0
VERTEX
  5
34A
  8
0
  6
CONTINUOUS
 62
     7
 10
236.5722964518
 20
162.1587604502
 30
0.0
  0
VERTEX
  5
34B
  8
0
  6
CONTINUOUS
 62
     7
 10
235.5881820433
 20
162.0358675936
 30
0.0
  0
VERTEX
  5
34C
  8
0
  6
CONTINUOUS
 62
     7
 10
234.8297725432
 20
161.9435757617
 30
0.0
  0
VERTEX
  5
34D
  8
0
  6
CONTINUOUS
 62
     7
 10
234.2240880244
 20
161.872282646
 30
0.0
  0
VERTEX
  5
34E
  8
0
  6
CONTINUOUS
 62
     7
 10
233.6279104464
 20
161.8061512927
 30
0.0
  0
VERTEX
  5
34F
  8
0
  6
CONTINUOUS
 62
     7
 10
232.7444205992
 20
161.7157966117
 30
0.0
  0
VERTEX
  5
350
  8
0
  6
CONTINUOUS
 62
     7
 10
231.8739484064
 20
161.6353899458
 30
0.0
  0
VERTEX
  5
351
  8
0
  6
CONTINUOUS
 62
     7
 10
231.0166369192
 20
161.5634948233
 30
0.0
  0
VERTEX
  5
352
  8
0
  6
CONTINUOUS
 62
     7
 10
230.1727543585
 20
161.4976912955
 30
0.0
  0
VERTEX
  5
353
  8
0
  6
CONTINUOUS
 62
     7
 10
229.3374012225
 20
161.4334494093
 30
0.0
  0
VERTEX
  5
354
  8
0
  6
CONTINUOUS
 62
     7
 10
228.4832487814
 20
161.364957712
 30
0.0
  0
VERTEX
  5
355
  8
0
  6
CONTINUOUS
 62
     7
 10
227.6060114615
 20
161.2957686404
 30
0.0
  0
VERTEX
  5
356
  8
0
  6
CONTINUOUS
 62
     7
 10
226.7054091208
 20
161.2291842917
 30
0.0
  0
VERTEX
  5
357
  8
0
  6
CONTINUOUS
 62
     7
 10
225.7812689059
 20
161.1657232264
 30
0.0
  0
VERTEX
  5
358
  8
0
  6
CONTINUOUS
 62
     7
 10
224.8335848563
 20
161.1051589469
 30
0.0
  0
VERTEX
  5
359
  8
0
  6
CONTINUOUS
 62
     7
 10
223.9526103251
 20
161.0525638083
 30
0.0
  0
VERTEX
  5
35A
  8
0
  6
CONTINUOUS
 62
     7
 10
223.2890675776
 20
161.0148936728
 30
0.0
  0
VERTEX
  5
35B
  8
0
  6
CONTINUOUS
 62
     7
 10
222.7892528288
 20
160.9875709036
 30
0.0
  0
VERTEX
  5
35C
  8
0
  6
CONTINUOUS
 62
     7
 10
222.1730898135
 20
160.9550327281
 30
0.0
  0
VERTEX
  5
35D
  8
0
  6
CONTINUOUS
 62
     7
 10
221.4004765265
 20
160.9159261206
 30
0.0
  0
VERTEX
  5
35E
  8
0
  6
CONTINUOUS
 62
     7
 10
220.4713414423
 20
160.8712941626
 30
0.0
  0
VERTEX
  5
35F
  8
0
  6
CONTINUOUS
 62
     7
 10
219.3856487982
 20
160.8223647097
 30
0.0
  0
VERTEX
  5
360
  8
0
  6
CONTINUOUS
 62
     7
 10
217.727042269
 20
160.7540995101
 30
0.0
  0
VERTEX
  5
361
  8
0
  6
CONTINUOUS
 62
     7
 10
215.8078740351
 20
160.6845706919
 30
0.0
  0
VERTEX
  5
362
  8
0
  6
CONTINUOUS
 62
     7
 10
213.805932831
 20
160.6223315219
 30
0.0
  0
VERTEX
  5
363
  8
0
  6
CONTINUOUS
 62
     7
 10
208.3934853785
 20
160.5031103114
 30
0.0
  0
VERTEX
  5
364
  8
0
  6
CONTINUOUS
 62
     7
 10
202.908958029
 20
160.4507476309
 30
0.0
  0
VERTEX
  5
365
  8
0
  6
CONTINUOUS
 62
     7
 10
199.3817518465
 20
160.4521960238
 30
0.0
  0
VERTEX
  5
366
  8
0
  6
CONTINUOUS
 62
     7
 10
195.8260427229
 20
160.4814738253
 30
0.0
  0
VERTEX
  5
367
  8
0
  6
CONTINUOUS
 62
     7
 10
192.3466692679
 20
160.5377704123
 30
0.0
  0
VERTEX
  5
368
  8
0
  6
CONTINUOUS
 62
     7
 10
189.1184668057
 20
160.6153995017
 30
0.0
  0
VERTEX
  5
369
  8
0
  6
CONTINUOUS
 62
     7
 10
187.5288615935
 20
160.6629640082
 30
0.0
  0
VERTEX
  5
36A
  8
0
  6
CONTINUOUS
 62
     7
 10
186.0089550726
 20
160.7144564608
 30
0.0
  0
VERTEX
  5
36B
  8
0
  6
CONTINUOUS
 62
     7
 10
184.5587502234
 20
160.7692629317
 30
0.0
  0
VERTEX
  5
36C
  8
0
  6
CONTINUOUS
 62
     7
 10
183.1782530062
 20
160.8268231371
 30
0.0
  0
VERTEX
  5
36D
  8
0
  6
CONTINUOUS
 62
     7
 10
181.8674604409
 20
160.8865589121
 30
0.0
  0
VERTEX
  5
36E
  8
0
  6
CONTINUOUS
 62
     7
 10
180.6768606417
 20
160.9453350524
 30
0.0
  0
VERTEX
  5
36F
  8
0
  6
CONTINUOUS
 62
     7
 10
179.8565785401
 20
160.9884470919
 30
0.0
  0
VERTEX
  5
370
  8
0
  6
CONTINUOUS
 62
     7
 10
179.2199204676
 20
161.0234528998
 30
0.0
  0
VERTEX
  5
371
  8
0
  6
CONTINUOUS
 62
     7
 10
178.9704303257
 20
161.0375493983
 30
0.0
  0
VERTEX
  5
372
  8
0
  6
CONTINUOUS
 62
     7
 10
178.7412534468
 20
161.0507518271
 30
0.0
  0
VERTEX
  5
373
  8
0
  6
CONTINUOUS
 62
     7
 10
178.4743438475
 20
161.0664278487
 30
0.0
  0
VERTEX
  5
374
  8
0
  6
CONTINUOUS
 62
     7
 10
178.1674901955
 20
161.0844820956
 30
0.0
  0
VERTEX
  5
375
  8
0
  6
CONTINUOUS
 62
     7
 10
177.5934766047
 20
161.1176699618
 30
0.0
  0
VERTEX
  5
376
  8
0
  6
CONTINUOUS
 62
     7
 10
176.9172499888
 20
161.1571938017
 30
0.0
  0
VERTEX
  5
377
  8
0
  6
CONTINUOUS
 62
     7
 10
176.1481533758
 20
161.2044662455
 30
0.0
  0
VERTEX
  5
378
  8
0
  6
CONTINUOUS
 62
     7
 10
175.3384272568
 20
161.2581879119
 30
0.0
  0
VERTEX
  5
379
  8
0
  6
CONTINUOUS
 62
     7
 10
174.4961957447
 20
161.3185197333
 30
0.0
  0
VERTEX
  5
37A
  8
0
  6
CONTINUOUS
 62
     7
 10
173.0204979889
 20
161.4350825766
 30
0.0
  0
VERTEX
  5
37B
  8
0
  6
CONTINUOUS
 62
     7
 10
171.4552025311
 20
161.5738064269
 30
0.0
  0
VERTEX
  5
37C
  8
0
  6
CONTINUOUS
 62
     7
 10
169.7926501744
 20
161.7380053023
 30
0.0
  0
VERTEX
  5
37D
  8
0
  6
CONTINUOUS
 62
     7
 10
168.4119532816
 20
161.8871957282
 30
0.0
  0
VERTEX
  5
37E
  8
0
  6
CONTINUOUS
 62
     7
 10
166.8937276118
 20
162.0635360697
 30
0.0
  0
VERTEX
  5
37F
  8
0
  6
CONTINUOUS
 62
     7
 10
165.2382726781
 20
162.2692555407
 30
0.0
  0
VERTEX
  5
380
  8
0
  6
CONTINUOUS
 62
     7
 10
163.8927037828
 20
162.4471515635
 30
0.0
  0
SEQEND
  5
81D
  8
0
  6
CONTINUOUS
 62
     7
  0
LINE
  5
4A
  8
0
  6
CONTINUOUS
 62
     7
 10
163.7450630777
 20
161.3855689982
 30
0.0
 11
163.7307013385
 21
161.322262905
 31
0.0
  0
LINE
  5
4B
  8
0
  6
CONTINUOUS
 62
     7
 10
163.878783118
 20
162.4500423888
 30
0.0
 11
163.8754586689
 21
162.4230474452
 31
0.0
  0
POLYLINE
  5
4C
  8
0
  6
CONTINUOUS
 62
     7
 66
     1
 10
0.0
 20
0.0
 30
0.0
  0
VERTEX
  5
381
  8
0
  6
CONTINUOUS
 62
     7
 10
163.843108248
 20
162.1603757361
 30
0.0
  0
VERTEX
  5
382
  8
0
  6
CONTINUOUS
 62
     7
 10
163.8076107018
 20
161.8721574763
 30
0.0
  0
VERTEX
  5
383
  8
0
  6
CONTINUOUS
 62
     7
 10
163.7309069745
 20
161.275437496
 30
0.0
  0
SEQEND
  5
81C
  8
0
  6
CONTINUOUS
 62
     7
  0
POLYLINE
  5
4D
  8
0
  6
CONTINUOUS
 62
     7
 66
     1
 10
0.0
 20
0.0
 30
0.0
  0
VERTEX
  5
384
  8
0
  6
CONTINUOUS
 62
     7
 10
238.9315555804
 20
161.2738281706
 30
0.0
  0
VERTEX
  5
385
  8
0
  6
CONTINUOUS
 62
     7
 10
238.8547430746
 20
161.8713647345
 30
0.0
  0
VERTEX
  5
386
  8
0
  6
CONTINUOUS
 62
     7
 10
238.8197611086
 20
162.1553868273
 30
0.0
  0
SEQEND
  5
81B
  8
0
  6
CONTINUOUS
 62
     7
  0
LINE
  5
4E
  8
0
  6
CONTINUOUS
 62
     7
 10
238.7856732123
 20
162.4321371535
 30
0.0
 11
238.7834678404
 21
162.4500423888
 31
0.0
  0
LINE
  5
4F
  8
0
  6
CONTINUOUS
 62
     7
 10
238.9315496199
 20
161.322262905
 30
0.0
 11
238.9171968214
 21
161.3855272749
 31
0.0
  0
LINE
  5
50
  8
0
  6
CONTINUOUS
 62
     7
 10
43.6311255209
 20
150.8627921561
 30
0.0
 11
60.0311229937
 21
150.8627921561
 31
0.0
  0
LINE
  5
51
  8
0
  6
CONTINUOUS
 62
     7
 10
60.0311229937
 20
163.062790058
 30
0.0
 11
44.4311271422
 21
163.062790058
 31
0.0
  0
LINE
  5
52
  8
0
  6
CONTINUOUS
 62
     7
 10
58.5300455801
 20
165.3819412211
 30
0.0
 11
58.5941146128
 21
165.3819412211
 31
0.0
  0
LINE
  5
53
  8
0
  6
CONTINUOUS
 62
     7
 10
163.631125819
 20
150.9317130068
 30
0.0
 11
164.4311259501
 21
150.9317130068
 31
0.0
  0
LINE
  5
54
  8
0
  6
CONTINUOUS
 62
     7
 10
163.631125819
 20
150.8627921561
 30
0.0
 11
180.0311247818
 21
150.8627921561
 31
0.0
  0
LINE
  5
55
  8
0
  6
CONTINUOUS
 62
     7
 10
180.0311247818
 20
163.062790058
 30
0.0
 11
163.631125819
 21
163.062790058
 31
0.0
  0
LINE
  5
56
  8
0
  6
CONTINUOUS
 62
     7
 10
118.2311247103
 20
163.062790058
 30
0.0
 11
102.6311258786
 21
163.062790058
 31
0.0
  0
LINE
  5
57
  8
0
  6
CONTINUOUS
 62
     7
 10
102.6311258786
 20
150.8627921561
 30
0.0
 11
119.0311248414
 21
150.8627921561
 31
0.0
  0
LINE
  5
58
  8
0
  6
CONTINUOUS
 62
     7
 10
104.0681372397
 20
165.3819412211
 30
0.0
 11
104.1322062723
 21
165.3819412211
 31
0.0
  0
LINE
  5
59
  8
0
  6
CONTINUOUS
 62
     7
 10
238.2311235182
 20
150.9317130068
 30
0.0
 11
239.0311251395
 21
150.9317130068
 31
0.0
  0
LINE
  5
5A
  8
0
  6
CONTINUOUS
 62
     7
 10
239.0311251395
 20
163.062790058
 30
0.0
 11
222.6311276667
 21
163.062790058
 31
0.0
  0
LINE
  5
5B
  8
0
  6
CONTINUOUS
 62
     7
 10
222.6311276667
 20
150.8627921561
 30
0.0
 11
239.0311251395
 21
150.8627921561
 31
0.0
  0
LINE
  5
5C
  8
0
  6
CONTINUOUS
 62
     7
 10
242.7311311476
 20
163.3627921561
 30
0.0
 11
239.3311272375
 21
163.3627921561
 31
0.0
  0
LINE
  5
5D
  8
0
  6
CONTINUOUS
 62
     7
 10
239.3311272375
 20
162.9627913455
 30
0.0
 11
239.0311251395
 21
162.9627913455
 31
0.0
  0
LINE
  5
5E
  8
0
  6
CONTINUOUS
 62
     7
 10
222.6311276667
 20
162.9627913455
 30
0.0
 11
221.931124758
 21
162.9627913455
 31
0.0
  0
LINE
  5
5F
  8
0
  6
CONTINUOUS
 62
     7
 10
221.931124758
 20
150.9627908686
 30
0.0
 11
222.6311276667
 21
150.9627908686
 31
0.0
  0
LINE
  5
60
  8
0
  6
CONTINUOUS
 62
     7
 10
239.0311251395
 20
150.9627908686
 30
0.0
 11
239.3311272375
 21
150.9627908686
 31
0.0
  0
LINE
  5
61
  8
0
  6
CONTINUOUS
 62
     7
 10
122.7311248891
 20
163.3627921561
 30
0.0
 11
119.3311254494
 21
163.3627921561
 31
0.0
  0
LINE
  5
62
  8
0
  6
CONTINUOUS
 62
     7
 10
119.3311254494
 20
162.9627913455
 30
0.0
 11
119.0311248414
 21
162.9627913455
 31
0.0
  0
LINE
  5
63
  8
0
  6
CONTINUOUS
 62
     7
 10
102.6311258786
 20
162.9627913455
 30
0.0
 11
101.9311259501
 21
162.9627913455
 31
0.0
  0
LINE
  5
64
  8
0
  6
CONTINUOUS
 62
     7
 10
101.9311259501
 20
150.9627908686
 30
0.0
 11
102.6311258786
 21
150.9627908686
 31
0.0
  0
LINE
  5
65
  8
0
  6
CONTINUOUS
 62
     7
 10
119.0311248414
 20
150.9627908686
 30
0.0
 11
119.3311254494
 21
150.9627908686
 31
0.0
  0
LINE
  5
66
  8
0
  6
CONTINUOUS
 62
     7
 10
43.3311234228
 20
163.3627921561
 30
0.0
 11
39.9311195128
 21
163.3627921561
 31
0.0
  0
LINE
  5
67
  8
0
  6
CONTINUOUS
 62
     7
 10
43.3311234228
 20
150.9627908686
 30
0.0
 11
43.6311255209
 21
150.9627908686
 31
0.0
  0
LINE
  5
68
  8
0
  6
CONTINUOUS
 62
     7
 10
60.0311229937
 20
150.9627908686
 30
0.0
 11
60.7311259024
 21
150.9627908686
 31
0.0
  0
LINE
  5
69
  8
0
  6
CONTINUOUS
 62
     7
 10
60.7311259024
 20
162.9627913455
 30
0.0
 11
60.0311229937
 21
162.9627913455
 31
0.0
  0
LINE
  5
6A
  8
0
  6
CONTINUOUS
 62
     7
 10
43.6311255209
 20
162.9627913455
 30
0.0
 11
43.3311234228
 21
162.9627913455
 31
0.0
  0
LINE
  5
6B
  8
0
  6
CONTINUOUS
 62
     7
 10
163.331125211
 20
163.3627921561
 30
0.0
 11
159.9311257713
 21
163.3627921561
 31
0.0
  0
LINE
  5
6C
  8
0
  6
CONTINUOUS
 62
     7
 10
163.331125211
 20
150.9627908686
 30
0.0
 11
163.631125819
 21
150.9627908686
 31
0.0
  0
LINE
  5
6D
  8
0
  6
CONTINUOUS
 62
     7
 10
180.0311247818
 20
150.9627908686
 30
0.0
 11
180.7311247103
 21
150.9627908686
 31
0.0
  0
LINE
  5
6E
  8
0
  6
CONTINUOUS
 62
     7
 10
180.7311247103
 20
162.9627913455
 30
0.0
 11
180.0311247818
 21
162.9627913455
 31
0.0
  0
LINE
  5
6F
  8
0
  6
CONTINUOUS
 62
     7
 10
163.631125819
 20
162.9627913455
 30
0.0
 11
163.331125211
 21
162.9627913455
 31
0.0
  0
LINE
  5
70
  8
0
  6
CONTINUOUS
 62
     7
 10
59.1581950896
 20
71.5627914513
 30
0.0
 11
62.9168401472
 21
71.5627914513
 31
0.0
  0
LINE
  5
71
  8
0
  6
CONTINUOUS
 62
     7
 10
62.9168401472
 20
70.3627914408
 30
0.0
 11
59.1581950896
 21
70.3627914408
 31
0.0
  0
LINE
  5
72
  8
0
  6
CONTINUOUS
 62
     7
 10
62.9168401472
 20
71.5627914513
 30
0.0
 11
69.7454105131
 21
71.5627914513
 31
0.0
  0
LINE
  5
73
  8
0
  6
CONTINUOUS
 62
     7
 10
62.9168401472
 20
70.3627914408
 30
0.0
 11
69.7454105131
 21
70.3627914408
 31
0.0
  0
LINE
  5
74
  8
0
  6
CONTINUOUS
 62
     7
 10
69.7454105131
 20
71.5627914513
 30
0.0
 11
73.5040555708
 21
71.5627914513
 31
0.0
  0
LINE
  5
75
  8
0
  6
CONTINUOUS
 62
     7
 10
73.5040555708
 20
70.3627914408
 30
0.0
 11
69.7454105131
 21
70.3627914408
 31
0.0
  0
LINE
  5
76
  8
0
  6
CONTINUOUS
 62
     7
 10
212.9168401472
 20
70.3627914408
 30
0.0
 11
209.1581950896
 21
70.3627914408
 31
0.0
  0
LINE
  5
77
  8
0
  6
CONTINUOUS
 62
     7
 10
209.1581950896
 20
71.5627914513
 30
0.0
 11
212.9168401472
 21
71.5627914513
 31
0.0
  0
LINE
  5
78
  8
0
  6
CONTINUOUS
 62
     7
 10
212.9168401472
 20
70.3627914408
 30
0.0
 11
219.7454105131
 21
70.3627914408
 31
0.0
  0
LINE
  5
79
  8
0
  6
CONTINUOUS
 62
     7
 10
212.9168401472
 20
71.5627914513
 30
0.0
 11
219.7454105131
 21
71.5627914513
 31
0.0
  0
LINE
  5
7A
  8
0
  6
CONTINUOUS
 62
     7
 10
223.5040555708
 20
70.3627914408
 30
0.0
 11
219.7454105131
 21
70.3627914408
 31
0.0
  0
LINE
  5
7B
  8
0
  6
CONTINUOUS
 62
     7
 10
219.7454105131
 20
71.5627914513
 30
0.0
 11
223.5040555708
 21
71.5627914513
 31
0.0
  0
LINE
  5
7C
  8
0
  6
CONTINUOUS
 62
     7
 10
54.3311248534
 20
70.3627914408
 30
0.0
 11
54.3311248534
 21
71.5627914513
 31
0.0
  0
LINE
  5
7D
  8
0
  6
CONTINUOUS
 62
     7
 10
59.1581950896
 20
71.5627914513
 30
0.0
 11
54.3311248534
 21
71.5627914513
 31
0.0
  0
LINE
  5
7E
  8
0
  6
CONTINUOUS
 62
     7
 10
54.3311248534
 20
70.3627914408
 30
0.0
 11
59.1581950896
 21
70.3627914408
 31
0.0
  0
LINE
  5
7F
  8
0
  6
CONTINUOUS
 62
     7
 10
78.331125807
 20
70.3627914408
 30
0.0
 11
78.331125807
 21
71.5627914513
 31
0.0
  0
LINE
  5
80
  8
0
  6
CONTINUOUS
 62
     7
 10
78.331125807
 20
71.5627914513
 30
0.0
 11
73.5040555708
 21
71.5627914513
 31
0.0
  0
LINE
  5
81
  8
0
  6
CONTINUOUS
 62
     7
 10
73.5040555708
 20
70.3627914408
 30
0.0
 11
78.331125807
 21
70.3627914408
 31
0.0
  0
LINE
  5
82
  8
0
  6
CONTINUOUS
 62
     7
 10
204.3311248534
 20
70.3627914408
 30
0.0
 11
204.3311248534
 21
71.5627914513
 31
0.0
  0
LINE
  5
83
  8
0
  6
CONTINUOUS
 62
     7
 10
204.3311248534
 20
70.3627914408
 30
0.0
 11
209.1581950896
 21
70.3627914408
 31
0.0
  0
LINE
  5
84
  8
0
  6
CONTINUOUS
 62
     7
 10
209.1581950896
 20
71.5627914513
 30
0.0
 11
204.3311248534
 21
71.5627914513
 31
0.0
  0
LINE
  5
85
  8
0
  6
CONTINUOUS
 62
     7
 10
228.331125807
 20
70.3627914408
 30
0.0
 11
228.331125807
 21
71.5627914513
 31
0.0
  0
LINE
  5
86
  8
0
  6
CONTINUOUS
 62
     7
 10
223.5040555708
 20
70.3627914408
 30
0.0
 11
228.331125807
 21
70.3627914408
 31
0.0
  0
LINE
  5
87
  8
0
  6
CONTINUOUS
 62
     7
 10
228.331125807
 20
71.5627914513
 30
0.0
 11
223.5040555708
 21
71.5627914513
 31
0.0
  0
ARC
  5
88
  8
0
  6
CONTINUOUS
 62
     7
 10
244.5311253302
 20
145.1627914408
 30
0.0
 40
0.4000000000000057
 50
0.0
 51
90.0
  0
LINE
  5
89
  8
0
  6
CONTINUOUS
 62
     7
 10
244.9311266653
 20
145.1627940157
 30
0.0
 11
244.9311266653
 21
144.5627898196
 31
0.0
  0
LINE
  5
8A
  8
0
  6
CONTINUOUS
 62
     7
 10
38.1311307661
 20
145.5627888659
 30
0.0
 11
39.9311195128
 21
145.5627888659
 31
0.0
  0
LINE
  5
8B
  8
0
  6
CONTINUOUS
 62
     7
 10
49.7311244719
 20
145.5627888659
 30
0.0
 11
63.3311281912
 21
145.5627888659
 31
0.0
  0
LINE
  5
8C
  8
0
  6
CONTINUOUS
 62
     7
 10
99.3311266415
 20
145.5627888659
 30
0.0
 11
112.9311244004
 21
145.5627888659
 31
0.0
  0
LINE
  5
8D
  8
0
  6
CONTINUOUS
 62
     7
 10
122.7311248891
 20
145.5627888659
 30
0.0
 11
159.9311257713
 21
145.5627888659
 31
0.0
  0
LINE
  5
8E
  8
0
  6
CONTINUOUS
 62
     7
 10
169.73112626
 20
145.5627888659
 30
0.0
 11
183.3311240189
 21
145.5627888659
 31
0.0
  0
LINE
  5
8F
  8
0
  6
CONTINUOUS
 62
     7
 10
219.3311224692
 20
145.5627888659
 30
0.0
 11
232.9311261885
 21
145.5627888659
 31
0.0
  0
LINE
  5
90
  8
0
  6
CONTINUOUS
 62
     7
 10
242.7311311476
 20
145.5627888659
 30
0.0
 11
244.5311198943
 21
145.5627888659
 31
0.0
  0
LINE
  5
91
  8
0
  6
CONTINUOUS
 62
     7
 10
244.9311266653
 20
144.5627898196
 30
0.0
 11
244.9311266653
 21
136.5627914885
 31
0.0
  0
POLYLINE
  5
92
  8
0
  6
CONTINUOUS
 62
     7
 66
     1
 10
0.0
 20
0.0
 30
0.0
  0
VERTEX
  5
387
  8
0
  6
CONTINUOUS
 62
     7
 10
221.3311265223
 20
135.5627924422
 30
0.0
  0
VERTEX
  5
388
  8
0
  6
CONTINUOUS
 62
     7
 10
221.3119099848
 20
135.5820089797
 30
0.0
  0
VERTEX
  5
389
  8
0
  6
CONTINUOUS
 62
     7
 10
221.2550054304
 20
135.638913534
 30
0.0
  0
VERTEX
  5
38A
  8
0
  6
CONTINUOUS
 62
     7
 10
221.1625943892
 20
135.7313245753
 30
0.0
  0
VERTEX
  5
38B
  8
0
  6
CONTINUOUS
 62
     7
 10
221.0382292979
 20
135.8556837061
 30
0.0
  0
VERTEX
  5
38C
  8
0
  6
CONTINUOUS
 62
     7
 10
220.8866964094
 20
136.007222555
 30
0.0
  0
VERTEX
  5
38D
  8
0
  6
CONTINUOUS
 62
     7
 10
220.7138071768
 20
136.1801058272
 30
0.0
  0
VERTEX
  5
38E
  8
0
  6
CONTINUOUS
 62
     7
 10
220.5262134783
 20
136.3676995257
 30
0.0
  0
VERTEX
  5
38F
  8
0
  6
CONTINUOUS
 62
     7
 10
220.331127476
 20
136.5627914885
 30
0.0
  0
SEQEND
  5
81A
  8
0
  6
CONTINUOUS
 62
     7
  0
LINE
  5
93
  8
0
  6
CONTINUOUS
 62
     7
 10
244.5311198943
 20
135.5627924422
 30
0.0
 11
241.6029105894
 21
135.5627924422
 31
0.0
  0
LINE
  5
94
  8
0
  6
CONTINUOUS
 62
     7
 10
234.0593467467
 20
135.5627924422
 30
0.0
 11
221.3311265223
 21
135.5627924422
 31
0.0
  0
POLYLINE
  5
95
  8
0
  6
CONTINUOUS
 62
     7
 66
     1
 10
0.0
 20
0.0
 30
0.0
  0
VERTEX
  5
390
  8
0
  6
CONTINUOUS
 62
     7
 10
71.1311231367
 20
135.7627898673
 30
0.0
  0
VERTEX
  5
391
  8
0
  6
CONTINUOUS
 62
     7
 10
71.1625943892
 20
135.7313245753
 30
0.0
  0
VERTEX
  5
392
  8
0
  6
CONTINUOUS
 62
     7
 10
71.2550054304
 20
135.638913534
 30
0.0
  0
VERTEX
  5
393
  8
0
  6
CONTINUOUS
 62
     7
 10
71.3119099848
 20
135.5820089797
 30
0.0
  0
VERTEX
  5
394
  8
0
  6
CONTINUOUS
 62
     7
 10
71.3311265223
 20
135.5627924422
 30
0.0
  0
SEQEND
  5
819
  8
0
  6
CONTINUOUS
 62
     7
  0
LINE
  5
96
  8
0
  6
CONTINUOUS
 62
     7
 10
71.3311265223
 20
135.5627924422
 30
0.0
 11
71.3311265223
 21
71.5627914513
 31
0.0
  0
POLYLINE
  5
97
  8
0
  6
CONTINUOUS
 62
     7
 66
     1
 10
0.0
 20
0.0
 30
0.0
  0
VERTEX
  5
395
  8
0
  6
CONTINUOUS
 62
     7
 10
211.5311275236
 20
135.7627898673
 30
0.0
  0
VERTEX
  5
396
  8
0
  6
CONTINUOUS
 62
     7
 10
211.4996562712
 20
135.7313245753
 30
0.0
  0
VERTEX
  5
397
  8
0
  6
CONTINUOUS
 62
     7
 10
211.4072452299
 20
135.638913534
 30
0.0
  0
VERTEX
  5
398
  8
0
  6
CONTINUOUS
 62
     7
 10
211.3503406756
 20
135.5820089797
 30
0.0
  0
VERTEX
  5
399
  8
0
  6
CONTINUOUS
 62
     7
 10
211.3311241381
 20
135.5627924422
 30
0.0
  0
SEQEND
  5
818
  8
0
  6
CONTINUOUS
 62
     7
  0
LINE
  5
98
  8
0
  6
CONTINUOUS
 62
     7
 10
211.3311241381
 20
135.5627924422
 30
0.0
 11
168.6029057019
 21
135.5627924422
 31
0.0
  0
LINE
  5
99
  8
0
  6
CONTINUOUS
 62
     7
 10
161.0593448393
 20
135.5627924422
 30
0.0
 11
121.6029058211
 21
135.5627924422
 31
0.0
  0
LINE
  5
9A
  8
0
  6
CONTINUOUS
 62
     7
 10
114.0593449585
 20
135.5627924422
 30
0.0
 11
71.3311265223
 21
135.5627924422
 31
0.0
  0
LINE
  5
9B
  8
0
  6
CONTINUOUS
 62
     7
 10
37.731123995
 20
135.9627932528
 30
0.0
 11
37.731123995
 21
136.5627914885
 31
0.0
  0
ARC
  5
9C
  8
0
  6
CONTINUOUS
 62
     7
 10
38.1311253302
 20
135.9627914408
 30
0.0
 40
0.4000000000000057
 50
180.0
 51
270.0
  0
LINE
  5
9D
  8
0
  6
CONTINUOUS
 62
     7
 10
37.731123995
 20
144.5627898196
 30
0.0
 11
37.731123995
 21
145.1627940157
 31
0.0
  0
ARC
  5
9E
  8
0
  6
CONTINUOUS
 62
     7
 10
38.1311253302
 20
145.1627914408
 30
0.0
 40
0.3999999999999915
 50
90.0
 51
180.0
  0
CIRCLE
  5
9F
  8
0
  6
CONTINUOUS
 62
     7
 10
118.8311253302
 20
139.7627914408
 30
0.0
 40
1.049999999999983
  0
CIRCLE
  5
A0
  8
0
  6
CONTINUOUS
 62
     7
 10
43.8311253302
 20
139.7627914408
 30
0.0
 40
1.049999999999997
  0
CIRCLE
  5
A1
  8
0
  6
CONTINUOUS
 62
     7
 10
238.8311253302
 20
139.7627914408
 30
0.0
 40
1.050000000000011
  0
CIRCLE
  5
A2
  8
0
  6
CONTINUOUS
 62
     7
 10
163.8311253302
 20
139.7627914408
 30
0.0
 40
1.049999999999983
  0
POLYLINE
  5
A3
  8
0
  6
CONTINUOUS
 62
     7
 66
     1
 10
0.0
 20
0.0
 30
0.0
  0
VERTEX
  5
39A
  8
0
  6
CONTINUOUS
 62
     7
 10
61.3311241381
 20
135.5627924422
 30
0.0
  0
VERTEX
  5
39B
  8
0
  6
CONTINUOUS
 62
     7
 10
61.3503406756
 20
135.5820089797
 30
0.0
  0
VERTEX
  5
39C
  8
0
  6
CONTINUOUS
 62
     7
 10
61.4072452299
 20
135.638913534
 30
0.0
  0
VERTEX
  5
39D
  8
0
  6
CONTINUOUS
 62
     7
 10
61.4996562712
 20
135.7313245753
 30
0.0
  0
VERTEX
  5
39E
  8
0
  6
CONTINUOUS
 62
     7
 10
61.6240213625
 20
135.8556837061
 30
0.0
  0
VERTEX
  5
39F
  8
0
  6
CONTINUOUS
 62
     7
 10
61.7755542509
 20
136.007222555
 30
0.0
  0
VERTEX
  5
3A0
  8
0
  6
CONTINUOUS
 62
     7
 10
61.9484434836
 20
136.1801058272
 30
0.0
  0
VERTEX
  5
3A1
  8
0
  6
CONTINUOUS
 62
     7
 10
62.1360371821
 20
136.3676995257
 30
0.0
  0
VERTEX
  5
3A2
  8
0
  6
CONTINUOUS
 62
     7
 10
62.3311231844
 20
136.5627914885
 30
0.0
  0
SEQEND
  5
817
  8
0
  6
CONTINUOUS
 62
     7
  0
LINE
  5
A4
  8
0
  6
CONTINUOUS
 62
     7
 10
61.3311241381
 20
135.5627924422
 30
0.0
 11
48.6029039137
 21
135.5627924422
 31
0.0
  0
LINE
  5
A5
  8
0
  6
CONTINUOUS
 62
     7
 10
41.0593400709
 20
135.5627924422
 30
0.0
 11
38.1311307661
 21
135.5627924422
 31
0.0
  0
LINE
  5
A6
  8
0
  6
CONTINUOUS
 62
     7
 10
61.3311241381
 20
71.5627914513
 30
0.0
 11
61.3311241381
 21
135.5627924422
 31
0.0
  0
LINE
  5
A7
  8
0
  6
CONTINUOUS
 62
     7
 10
211.3311241381
 20
71.5627914513
 30
0.0
 11
211.3311241381
 21
135.5627924422
 31
0.0
  0
LINE
  5
A8
  8
0
  6
CONTINUOUS
 62
     7
 10
37.731123995
 20
136.5627914885
 30
0.0
 11
37.731123995
 21
144.5627898196
 31
0.0
  0
LINE
  5
A9
  8
0
  6
CONTINUOUS
 62
     7
 10
221.3311265223
 20
135.5627924422
 30
0.0
 11
221.3311265223
 21
71.5627914513
 31
0.0
  0
LINE
  5
AA
  8
0
  6
CONTINUOUS
 62
     7
 10
244.9311266653
 20
136.5627914885
 30
0.0
 11
244.9311266653
 21
135.9627932528
 31
0.0
  0
ARC
  5
AB
  8
0
  6
CONTINUOUS
 62
     7
 10
244.5311253302
 20
135.9627914408
 30
0.0
 40
0.4000000000000057
 50
270.0
 51
0.0
  0
ARC
  5
AC
  8
0
  6
CONTINUOUS
 62
     7
 10
110.034147883
 20
231.8736405331
 30
0.0
 40
6.227688142671418
 50
13.1078424302
 51
94.4237570051
  0
ARC
  5
AD
  8
0
  6
CONTINUOUS
 62
     7
 10
52.6231727406
 20
231.8816227998
 30
0.0
 40
6.220116194658209
 50
85.5248456604
 51
167.0715330357
  0
POLYLINE
  5
AE
  8
0
  6
CONTINUOUS
 62
     7
 66
     1
 10
0.0
 20
0.0
 30
0.0
  0
VERTEX
  5
3A3
  8
0
  6
CONTINUOUS
 62
     7
 10
109.5537911169
 20
238.0827754954
 30
0.0
  0
VERTEX
  5
3A4
  8
0
  6
CONTINUOUS
 62
     7
 10
106.3702831976
 20
237.9240364054
 30
0.0
  0
VERTEX
  5
3A5
  8
0
  6
CONTINUOUS
 62
     7
 10
103.1316856854
 20
237.7844184855
 30
0.0
  0
VERTEX
  5
3A6
  8
0
  6
CONTINUOUS
 62
     7
 10
99.8452405445
 20
237.6642316798
 30
0.0
  0
VERTEX
  5
3A7
  8
0
  6
CONTINUOUS
 62
     7
 10
96.2012718432
 20
237.5552863101
 30
0.0
  0
VERTEX
  5
3A8
  8
0
  6
CONTINUOUS
 62
     7
 10
92.5181190483
 20
237.4702424029
 30
0.0
  0
VERTEX
  5
3A9
  8
0
  6
CONTINUOUS
 62
     7
 10
88.8055752032
 20
237.4093383769
 30
0.0
  0
VERTEX
  5
3AA
  8
0
  6
CONTINUOUS
 62
     7
 10
85.0732575171
 20
237.372729204
 30
0.0
  0
VERTEX
  5
3AB
  8
0
  6
CONTINUOUS
 62
     7
 10
81.331122946
 20
237.3605221728
 30
0.0
  0
VERTEX
  5
3AC
  8
0
  6
CONTINUOUS
 62
     7
 10
77.5889883749
 20
237.372729204
 30
0.0
  0
VERTEX
  5
3AD
  8
0
  6
CONTINUOUS
 62
     7
 10
73.8566766493
 20
237.4093383769
 30
0.0
  0
VERTEX
  5
3AE
  8
0
  6
CONTINUOUS
 62
     7
 10
70.1441298239
 20
237.4702424029
 30
0.0
  0
VERTEX
  5
3AF
  8
0
  6
CONTINUOUS
 62
     7
 10
66.4609800093
 20
237.5552863101
 30
0.0
  0
VERTEX
  5
3B0
  8
0
  6
CONTINUOUS
 62
     7
 10
62.8170083277
 20
237.6642316798
 30
0.0
  0
VERTEX
  5
3B1
  8
0
  6
CONTINUOUS
 62
     7
 10
59.5305810683
 20
237.7844184855
 30
0.0
  0
VERTEX
  5
3B2
  8
0
  6
CONTINUOUS
 62
     7
 10
56.2919984572
 20
237.9240364054
 30
0.0
  0
VERTEX
  5
3B3
  8
0
  6
CONTINUOUS
 62
     7
 10
53.1085084193
 20
238.0827754954
 30
0.0
  0
SEQEND
  5
816
  8
0
  6
CONTINUOUS
 62
     7
  0
POLYLINE
  5
AF
  8
0
  6
CONTINUOUS
 62
     7
 66
     1
 10
0.0
 20
0.0
 30
0.0
  0
VERTEX
  5
3B4
  8
0
  6
CONTINUOUS
 62
     7
 10
113.2509897463
 20
237.2235149363
 30
0.0
  0
VERTEX
  5
3B5
  8
0
  6
CONTINUOUS
 62
     7
 10
113.6447559111
 20
237.0559185961
 30
0.0
  0
VERTEX
  5
3B6
  8
0
  6
CONTINUOUS
 62
     7
 10
114.6117250435
 20
236.4015072802
 30
0.0
  0
VERTEX
  5
3B7
  8
0
  6
CONTINUOUS
 62
     7
 10
115.4310743325
 20
235.5727881411
 30
0.0
  0
VERTEX
  5
3B8
  8
0
  6
CONTINUOUS
 62
     7
 10
116.0903881304
 20
234.5909327487
 30
0.0
  0
VERTEX
  5
3B9
  8
0
  6
CONTINUOUS
 62
     7
 10
116.5740395896
 20
233.4768384913
 30
0.0
  0
VERTEX
  5
3BA
  8
0
  6
CONTINUOUS
 62
     7
 10
116.7576829903
 20
232.7341884593
 30
0.0
  0
SEQEND
  5
815
  8
0
  6
CONTINUOUS
 62
     7
  0
POLYLINE
  5
B0
  8
0
  6
CONTINUOUS
 62
     7
 66
     1
 10
0.0
 20
0.0
 30
0.0
  0
VERTEX
  5
3BB
  8
0
  6
CONTINUOUS
 62
     7
 10
45.8850811236
 20
232.7132910708
 30
0.0
  0
VERTEX
  5
3BC
  8
0
  6
CONTINUOUS
 62
     7
 10
46.1970160715
 20
233.778247259
 30
0.0
  0
VERTEX
  5
3BD
  8
0
  6
CONTINUOUS
 62
     7
 10
46.7289815657
 20
234.8634809474
 30
0.0
  0
VERTEX
  5
3BE
  8
0
  6
CONTINUOUS
 62
     7
 10
47.4366734736
 20
235.8116954783
 30
0.0
  0
VERTEX
  5
3BF
  8
0
  6
CONTINUOUS
 62
     7
 10
48.3013461344
 20
236.5988821009
 30
0.0
  0
VERTEX
  5
3C0
  8
0
  6
CONTINUOUS
 62
     7
 10
49.3001113646
 20
237.2001618365
 30
0.0
  0
VERTEX
  5
3C1
  8
0
  6
CONTINUOUS
 62
     7
 10
49.4033406489
 20
237.2379750231
 30
0.0
  0
SEQEND
  5
814
  8
0
  6
CONTINUOUS
 62
     7
  0
POLYLINE
  5
B1
  8
0
  6
CONTINUOUS
 62
     7
 66
     1
 10
0.0
 20
0.0
 30
0.0
  0
VERTEX
  5
3C2
  8
0
  6
CONTINUOUS
 62
     7
 10
236.3564501517
 20
230.2908510188
 30
0.0
  0
VERTEX
  5
3C3
  8
0
  6
CONTINUOUS
 62
     7
 10
236.3838563673
 20
231.6023200968
 30
0.0
  0
VERTEX
  5
3C4
  8
0
  6
CONTINUOUS
 62
     7
 10
236.2220178358
 20
232.871648691
 30
0.0
  0
VERTEX
  5
3C5
  8
0
  6
CONTINUOUS
 62
     7
 10
235.869879555
 20
234.0631813029
 30
0.0
  0
VERTEX
  5
3C6
  8
0
  6
CONTINUOUS
 62
     7
 10
235.3351722472
 20
235.1466983775
 30
0.0
  0
VERTEX
  5
3C7
  8
0
  6
CONTINUOUS
 62
     7
 10
234.624833893
 20
236.0928148249
 30
0.0
  0
VERTEX
  5
3C8
  8
0
  6
CONTINUOUS
 62
     7
 10
233.7576339953
 20
236.8776172618
 30
0.0
  0
VERTEX
  5
3C9
  8
0
  6
CONTINUOUS
 62
     7
 10
232.7567229979
 20
237.4762505511
 30
0.0
  0
VERTEX
  5
3CA
  8
0
  6
CONTINUOUS
 62
     7
 10
231.6476891749
 20
237.8790587405
 30
0.0
  0
VERTEX
  5
3CB
  8
0
  6
CONTINUOUS
 62
     7
 10
230.6193004362
 20
238.0600780467
 30
0.0
  0
VERTEX
  5
3CC
  8
0
  6
CONTINUOUS
 62
     7
 10
229.5537899248
 20
238.0827754954
 30
0.0
  0
SEQEND
  5
813
  8
0
  6
CONTINUOUS
 62
     7
  0
POLYLINE
  5
B2
  8
0
  6
CONTINUOUS
 62
     7
 66
     1
 10
0.0
 20
0.0
 30
0.0
  0
VERTEX
  5
3CD
  8
0
  6
CONTINUOUS
 62
     7
 10
235.0148568861
 20
215.7172650317
 30
0.0
  0
VERTEX
  5
3CE
  8
0
  6
CONTINUOUS
 62
     7
 10
235.3487561457
 20
219.3652600268
 30
0.0
  0
VERTEX
  5
3CF
  8
0
  6
CONTINUOUS
 62
     7
 10
235.6847236864
 20
223.0104655245
 30
0.0
  0
VERTEX
  5
3D0
  8
0
  6
CONTINUOUS
 62
     7
 10
236.0214601271
 20
226.6628355006
 30
0.0
  0
VERTEX
  5
3D1
  8
0
  6
CONTINUOUS
 62
     7
 10
236.3564501517
 20
230.2908510188
 30
0.0
  0
SEQEND
  5
812
  8
0
  6
CONTINUOUS
 62
     7
  0
POLYLINE
  5
B3
  8
0
  6
CONTINUOUS
 62
     7
 66
     1
 10
0.0
 20
0.0
 30
0.0
  0
VERTEX
  5
3D2
  8
0
  6
CONTINUOUS
 62
     7
 10
226.8910418265
 20
207.213231943
 30
0.0
  0
VERTEX
  5
3D3
  8
0
  6
CONTINUOUS
 62
     7
 10
228.2923529856
 20
207.4084133128
 30
0.0
  0
VERTEX
  5
3D4
  8
0
  6
CONTINUOUS
 62
     7
 10
229.6417186968
 20
207.8510016421
 30
0.0
  0
VERTEX
  5
3D5
  8
0
  6
CONTINUOUS
 62
     7
 10
230.9014509432
 20
208.5331768015
 30
0.0
  0
VERTEX
  5
3D6
  8
0
  6
CONTINUOUS
 62
     7
 10
232.0392320864
 20
209.4322651843
 30
0.0
  0
VERTEX
  5
3D7
  8
0
  6
CONTINUOUS
 62
     7
 10
233.0204973929
 20
210.5207175234
 30
0.0
  0
VERTEX
  5
3D8
  8
0
  6
CONTINUOUS
 62
     7
 10
233.8283429854
 20
211.7673963526
 30
0.0
  0
VERTEX
  5
3D9
  8
0
  6
CONTINUOUS
 62
     7
 10
234.4427178614
 20
213.141235731
 30
0.0
  0
VERTEX
  5
3DA
  8
0
  6
CONTINUOUS
 62
     7
 10
234.8509798758
 20
214.598521612
 30
0.0
  0
VERTEX
  5
3DB
  8
0
  6
CONTINUOUS
 62
     7
 10
235.0148568861
 20
215.7172650317
 30
0.0
  0
SEQEND
  5
811
  8
0
  6
CONTINUOUS
 62
     7
  0
POLYLINE
  5
B4
  8
0
  6
CONTINUOUS
 62
     7
 66
     1
 10
0.0
 20
0.0
 30
0.0
  0
VERTEX
  5
3DC
  8
0
  6
CONTINUOUS
 62
     7
 10
175.7712076418
 20
207.213231943
 30
0.0
  0
VERTEX
  5
3DD
  8
0
  6
CONTINUOUS
 62
     7
 10
178.5956482403
 20
207.0864051798
 30
0.0
  0
VERTEX
  5
3DE
  8
0
  6
CONTINUOUS
 62
     7
 10
181.461412739
 20
206.9745153407
 30
0.0
  0
VERTEX
  5
3DF
  8
0
  6
CONTINUOUS
 62
     7
 10
184.3631993048
 20
206.8777770022
 30
0.0
  0
VERTEX
  5
3E0
  8
0
  6
CONTINUOUS
 62
     7
 10
188.5501633398
 20
206.7664355258
 30
0.0
  0
VERTEX
  5
3E1
  8
0
  6
CONTINUOUS
 62
     7
 10
192.7842150442
 20
206.6866010645
 30
0.0
  0
VERTEX
  5
3E2
  8
0
  6
CONTINUOUS
 62
     7
 10
197.0497737639
 20
206.6385954836
 30
0.0
  0
VERTEX
  5
3E3
  8
0
  6
CONTINUOUS
 62
     7
 10
201.3311277144
 20
206.6225737551
 30
0.0
  0
VERTEX
  5
3E4
  8
0
  6
CONTINUOUS
 62
     7
 10
205.6124757044
 20
206.6385954836
 30
0.0
  0
VERTEX
  5
3E5
  8
0
  6
CONTINUOUS
 62
     7
 10
209.8780344241
 20
206.6866010645
 30
0.0
  0
VERTEX
  5
3E6
  8
0
  6
CONTINUOUS
 62
     7
 10
214.1120861285
 20
206.7664355258
 30
0.0
  0
VERTEX
  5
3E7
  8
0
  6
CONTINUOUS
 62
     7
 10
218.2990501635
 20
206.8777770022
 30
0.0
  0
VERTEX
  5
3E8
  8
0
  6
CONTINUOUS
 62
     7
 10
221.2008367293
 20
206.9745153407
 30
0.0
  0
VERTEX
  5
3E9
  8
0
  6
CONTINUOUS
 62
     7
 10
224.0666042082
 20
207.0864051798
 30
0.0
  0
VERTEX
  5
3EA
  8
0
  6
CONTINUOUS
 62
     7
 10
226.8910418265
 20
207.213231943
 30
0.0
  0
SEQEND
  5
810
  8
0
  6
CONTINUOUS
 62
     7
  0
POLYLINE
  5
B5
  8
0
  6
CONTINUOUS
 62
     7
 66
     1
 10
0.0
 20
0.0
 30
0.0
  0
VERTEX
  5
3EB
  8
0
  6
CONTINUOUS
 62
     7
 10
167.6473925822
 20
215.7172650317
 30
0.0
  0
VERTEX
  5
3EC
  8
0
  6
CONTINUOUS
 62
     7
 10
167.8955028765
 20
214.2218560198
 30
0.0
  0
VERTEX
  5
3ED
  8
0
  6
CONTINUOUS
 62
     7
 10
168.3571825735
 20
212.7791613558
 30
0.0
  0
VERTEX
  5
3EE
  8
0
  6
CONTINUOUS
 62
     7
 10
169.025511574
 20
211.4318937281
 30
0.0
  0
VERTEX
  5
3EF
  8
0
  6
CONTINUOUS
 62
     7
 10
169.8829243891
 20
210.2176755885
 30
0.0
  0
VERTEX
  5
3F0
  8
0
  6
CONTINUOUS
 62
     7
 10
170.9111402743
 20
209.1747015933
 30
0.0
  0
VERTEX
  5
3F1
  8
0
  6
CONTINUOUS
 62
     7
 10
172.0829199068
 20
208.3300203303
 30
0.0
  0
VERTEX
  5
3F2
  8
0
  6
CONTINUOUS
 62
     7
 10
173.366106581
 20
207.7125042895
 30
0.0
  0
VERTEX
  5
3F3
  8
0
  6
CONTINUOUS
 62
     7
 10
174.728084635
 20
207.3331922511
 30
0.0
  0
VERTEX
  5
3F4
  8
0
  6
CONTINUOUS
 62
     7
 10
175.7712076418
 20
207.213231943
 30
0.0
  0
SEQEND
  5
80F
  8
0
  6
CONTINUOUS
 62
     7
  0
POLYLINE
  5
B6
  8
0
  6
CONTINUOUS
 62
     7
 66
     1
 10
0.0
 20
0.0
 30
0.0
  0
VERTEX
  5
3F5
  8
0
  6
CONTINUOUS
 62
     7
 10
166.3057948463
 20
230.2908867816
 30
0.0
  0
VERTEX
  5
3F6
  8
0
  6
CONTINUOUS
 62
     7
 10
166.6407893412
 20
226.6628831843
 30
0.0
  0
VERTEX
  5
3F7
  8
0
  6
CONTINUOUS
 62
     7
 10
166.9775287621
 20
223.0104893664
 30
0.0
  0
VERTEX
  5
3F8
  8
0
  6
CONTINUOUS
 62
     7
 10
167.3134963028
 20
219.3652719477
 30
0.0
  0
VERTEX
  5
3F9
  8
0
  6
CONTINUOUS
 62
     7
 10
167.6473925822
 20
215.7172650317
 30
0.0
  0
SEQEND
  5
80E
  8
0
  6
CONTINUOUS
 62
     7
  0
POLYLINE
  5
B7
  8
0
  6
CONTINUOUS
 62
     7
 66
     1
 10
0.0
 20
0.0
 30
0.0
  0
VERTEX
  5
3FA
  8
0
  6
CONTINUOUS
 62
     7
 10
173.1085072272
 20
238.0827754954
 30
0.0
  0
VERTEX
  5
3FB
  8
0
  6
CONTINUOUS
 62
     7
 10
171.8811343424
 20
238.042065523
 30
0.0
  0
VERTEX
  5
3FC
  8
0
  6
CONTINUOUS
 62
     7
 10
170.7076708786
 20
237.7911180476
 30
0.0
  0
VERTEX
  5
3FD
  8
0
  6
CONTINUOUS
 62
     7
 10
169.6219186299
 20
237.3324364642
 30
0.0
  0
VERTEX
  5
3FE
  8
0
  6
CONTINUOUS
 62
     7
 10
168.652595114
 20
236.680409334
 30
0.0
  0
VERTEX
  5
3FF
  8
0
  6
CONTINUOUS
 62
     7
 10
167.8309182637
 20
235.854038618
 30
0.0
  0
VERTEX
  5
400
  8
0
  6
CONTINUOUS
 62
     7
 10
167.1691129916
 20
234.8743170718
 30
0.0
  0
VERTEX
  5
401
  8
0
  6
CONTINUOUS
 62
     7
 10
166.6828284972
 20
233.7620347956
 30
0.0
  0
VERTEX
  5
402
  8
0
  6
CONTINUOUS
 62
     7
 10
166.3800875656
 20
232.5501173953
 30
0.0
  0
VERTEX
  5
403
  8
0
  6
CONTINUOUS
 62
     7
 10
166.2710602395
 20
231.4347714404
 30
0.0
  0
VERTEX
  5
404
  8
0
  6
CONTINUOUS
 62
     7
 10
166.3057948463
 20
230.2908867816
 30
0.0
  0
SEQEND
  5
80D
  8
0
  6
CONTINUOUS
 62
     7
  0
POLYLINE
  5
B8
  8
0
  6
CONTINUOUS
 62
     7
 66
     1
 10
0.0
 20
0.0
 30
0.0
  0
VERTEX
  5
405
  8
0
  6
CONTINUOUS
 62
     7
 10
229.5537899248
 20
238.0827754954
 30
0.0
  0
VERTEX
  5
406
  8
0
  6
CONTINUOUS
 62
     7
 10
226.3702820055
 20
237.9240364054
 30
0.0
  0
VERTEX
  5
407
  8
0
  6
CONTINUOUS
 62
     7
 10
223.1316874735
 20
237.7844184855
 30
0.0
  0
VERTEX
  5
408
  8
0
  6
CONTINUOUS
 62
     7
 10
219.8452423327
 20
237.6642316798
 30
0.0
  0
VERTEX
  5
409
  8
0
  6
CONTINUOUS
 62
     7
 10
216.2012706511
 20
237.5552863101
 30
0.0
  0
VERTEX
  5
40A
  8
0
  6
CONTINUOUS
 62
     7
 10
212.5181208365
 20
237.4702424029
 30
0.0
  0
VERTEX
  5
40B
  8
0
  6
CONTINUOUS
 62
     7
 10
208.8055740111
 20
237.4093383769
 30
0.0
  0
VERTEX
  5
40C
  8
0
  6
CONTINUOUS
 62
     7
 10
205.0732622855
 20
237.372729204
 30
0.0
  0
VERTEX
  5
40D
  8
0
  6
CONTINUOUS
 62
     7
 10
201.3311277144
 20
237.3605221728
 30
0.0
  0
VERTEX
  5
40E
  8
0
  6
CONTINUOUS
 62
     7
 10
197.5889931433
 20
237.372729204
 30
0.0
  0
VERTEX
  5
40F
  8
0
  6
CONTINUOUS
 62
     7
 10
193.8566754572
 20
237.4093383769
 30
0.0
  0
VERTEX
  5
410
  8
0
  6
CONTINUOUS
 62
     7
 10
190.144131612
 20
237.4702424029
 30
0.0
  0
VERTEX
  5
411
  8
0
  6
CONTINUOUS
 62
     7
 10
186.4609788172
 20
237.5552863101
 30
0.0
  0
VERTEX
  5
412
  8
0
  6
CONTINUOUS
 62
     7
 10
182.8170101158
 20
237.6642316798
 30
0.0
  0
VERTEX
  5
413
  8
0
  6
CONTINUOUS
 62
     7
 10
179.5305798762
 20
237.7844184855
 30
0.0
  0
VERTEX
  5
414
  8
0
  6
CONTINUOUS
 62
     7
 10
176.2920002453
 20
237.9240364054
 30
0.0
  0
VERTEX
  5
415
  8
0
  6
CONTINUOUS
 62
     7
 10
173.1085072272
 20
238.0827754954
 30
0.0
  0
SEQEND
  5
80C
  8
0
  6
CONTINUOUS
 62
     7
  0
POLYLINE
  5
B9
  8
0
  6
CONTINUOUS
 62
     7
 66
     1
 10
0.0
 20
0.0
 30
0.0
  0
VERTEX
  5
416
  8
0
  6
CONTINUOUS
 62
     7
 10
235.5864177458
 20
215.5862778643
 30
0.0
  0
VERTEX
  5
417
  8
0
  6
CONTINUOUS
 62
     7
 10
235.33495171
 20
214.0913695315
 30
0.0
  0
VERTEX
  5
418
  8
0
  6
CONTINUOUS
 62
     7
 10
234.8700831644
 20
212.6498073557
 30
0.0
  0
VERTEX
  5
419
  8
0
  6
CONTINUOUS
 62
     7
 10
234.1988335364
 20
211.3042801837
 30
0.0
  0
VERTEX
  5
41A
  8
0
  6
CONTINUOUS
 62
     7
 10
233.3388934843
 20
210.0923389414
 30
0.0
  0
VERTEX
  5
41B
  8
0
  6
CONTINUOUS
 62
     7
 10
232.3086450808
 20
209.052082918
 30
0.0
  0
VERTEX
  5
41C
  8
0
  6
CONTINUOUS
 62
     7
 10
231.1354468577
 20
208.2104891757
 30
0.0
  0
VERTEX
  5
41D
  8
0
  6
CONTINUOUS
 62
     7
 10
229.851431679
 20
207.5962871531
 30
0.0
  0
VERTEX
  5
41E
  8
0
  6
CONTINUOUS
 62
     7
 10
228.4893522971
 20
207.2205156306
 30
0.0
  0
VERTEX
  5
41F
  8
0
  6
CONTINUOUS
 62
     7
 10
227.4653564207
 20
207.104167364
 30
0.0
  0
SEQEND
  5
80B
  8
0
  6
CONTINUOUS
 62
     7
  0
POLYLINE
  5
BA
  8
0
  6
CONTINUOUS
 62
     7
 66
     1
 10
0.0
 20
0.0
 30
0.0
  0
VERTEX
  5
420
  8
0
  6
CONTINUOUS
 62
     7
 10
175.1968960278
 20
207.104167364
 30
0.0
  0
VERTEX
  5
421
  8
0
  6
CONTINUOUS
 62
     7
 10
173.7965862267
 20
207.2989911059
 30
0.0
  0
VERTEX
  5
422
  8
0
  6
CONTINUOUS
 62
     7
 10
172.4479566328
 20
207.7412575701
 30
0.0
  0
VERTEX
  5
423
  8
0
  6
CONTINUOUS
 62
     7
 10
171.1887012236
 20
208.4231108645
 30
0.0
  0
VERTEX
  5
424
  8
0
  6
CONTINUOUS
 62
     7
 10
170.0511257164
 20
209.3218893031
 30
0.0
  0
VERTEX
  5
425
  8
0
  6
CONTINUOUS
 62
     7
 10
169.0697173588
 20
210.4101747492
 30
0.0
  0
VERTEX
  5
426
  8
0
  6
CONTINUOUS
 62
     7
 10
168.2615826838
 20
211.656758211
 30
0.0
  0
VERTEX
  5
427
  8
0
  6
CONTINUOUS
 62
     7
 10
167.6468591206
 20
213.030490301
 30
0.0
  0
VERTEX
  5
428
  8
0
  6
CONTINUOUS
 62
     7
 10
167.2381739132
 20
214.4877404193
 30
0.0
  0
VERTEX
  5
429
  8
0
  6
CONTINUOUS
 62
     7
 10
167.0758347027
 20
215.5862778643
 30
0.0
  0
SEQEND
  5
80A
  8
0
  6
CONTINUOUS
 62
     7
  0
POLYLINE
  5
BB
  8
0
  6
CONTINUOUS
 62
     7
 66
     1
 10
0.0
 20
0.0
 30
0.0
  0
VERTEX
  5
42A
  8
0
  6
CONTINUOUS
 62
     7
 10
235.5864177458
 20
215.5862778643
 30
0.0
  0
VERTEX
  5
42B
  8
0
  6
CONTINUOUS
 62
     7
 10
235.9261344187
 20
219.2086309413
 30
0.0
  0
VERTEX
  5
42C
  8
0
  6
CONTINUOUS
 62
     7
 10
236.2659941428
 20
222.8270143488
 30
0.0
  0
VERTEX
  5
42D
  8
0
  6
CONTINUOUS
 62
     7
 10
236.6054187529
 20
226.4305204371
 30
0.0
  0
VERTEX
  5
42E
  8
0
  6
CONTINUOUS
 62
     7
 10
236.9436989539
 20
230.0034016589
 30
0.0
  0
SEQEND
  5
809
  8
0
  6
CONTINUOUS
 62
     7
  0
POLYLINE
  5
BC
  8
0
  6
CONTINUOUS
 62
     7
 66
     1
 10
0.0
 20
0.0
 30
0.0
  0
VERTEX
  5
42F
  8
0
  6
CONTINUOUS
 62
     7
 10
165.7185475342
 20
230.0034374217
 30
0.0
  0
VERTEX
  5
430
  8
0
  6
CONTINUOUS
 62
     7
 10
166.0568277352
 20
226.4305561999
 30
0.0
  0
VERTEX
  5
431
  8
0
  6
CONTINUOUS
 62
     7
 10
166.3962553255
 20
222.8270381907
 30
0.0
  0
VERTEX
  5
432
  8
0
  6
CONTINUOUS
 62
     7
 10
166.7361150496
 20
219.2086428622
 30
0.0
  0
VERTEX
  5
433
  8
0
  6
CONTINUOUS
 62
     7
 10
167.0758347027
 20
215.5862778643
 30
0.0
  0
SEQEND
  5
808
  8
0
  6
CONTINUOUS
 62
     7
  0
POLYLINE
  5
BD
  8
0
  6
CONTINUOUS
 62
     7
 66
     1
 10
0.0
 20
0.0
 30
0.0
  0
VERTEX
  5
434
  8
0
  6
CONTINUOUS
 62
     7
 10
233.2509885542
 20
237.2235149363
 30
0.0
  0
VERTEX
  5
435
  8
0
  6
CONTINUOUS
 62
     7
 10
233.644754719
 20
237.0559185961
 30
0.0
  0
VERTEX
  5
436
  8
0
  6
CONTINUOUS
 62
     7
 10
234.6117268317
 20
236.4015072802
 30
0.0
  0
VERTEX
  5
437
  8
0
  6
CONTINUOUS
 62
     7
 10
235.4310761206
 20
235.5727881411
 30
0.0
  0
VERTEX
  5
438
  8
0
  6
CONTINUOUS
 62
     7
 10
236.0903869383
 20
234.5909327487
 30
0.0
  0
VERTEX
  5
439
  8
0
  6
CONTINUOUS
 62
     7
 10
236.5740369074
 20
233.4768384913
 30
0.0
  0
VERTEX
  5
43A
  8
0
  6
CONTINUOUS
 62
     7
 10
236.8740747683
 20
232.2634786585
 30
0.0
  0
VERTEX
  5
43B
  8
0
  6
CONTINUOUS
 62
     7
 10
236.9807193987
 20
231.1475247363
 30
0.0
  0
VERTEX
  5
43C
  8
0
  6
CONTINUOUS
 62
     7
 10
236.9436989539
 20
230.0034016589
 30
0.0
  0
SEQEND
  5
807
  8
0
  6
CONTINUOUS
 62
     7
  0
POLYLINE
  5
BE
  8
0
  6
CONTINUOUS
 62
     7
 66
     1
 10
0.0
 20
0.0
 30
0.0
  0
VERTEX
  5
43D
  8
0
  6
CONTINUOUS
 62
     7
 10
165.7185475342
 20
230.0034374217
 30
0.0
  0
VERTEX
  5
43E
  8
0
  6
CONTINUOUS
 62
     7
 10
165.6885127537
 20
231.3152522067
 30
0.0
  0
VERTEX
  5
43F
  8
0
  6
CONTINUOUS
 62
     7
 10
165.8476303332
 20
232.5854271868
 30
0.0
  0
VERTEX
  5
440
  8
0
  6
CONTINUOUS
 62
     7
 10
166.1970148794
 20
233.778247259
 30
0.0
  0
VERTEX
  5
441
  8
0
  6
CONTINUOUS
 62
     7
 10
166.7289833538
 20
234.8634809474
 30
0.0
  0
VERTEX
  5
442
  8
0
  6
CONTINUOUS
 62
     7
 10
167.4366752617
 20
235.8116954783
 30
0.0
  0
VERTEX
  5
443
  8
0
  6
CONTINUOUS
 62
     7
 10
168.3013449423
 20
236.5988821009
 30
0.0
  0
VERTEX
  5
444
  8
0
  6
CONTINUOUS
 62
     7
 10
169.3001101725
 20
237.2001618365
 30
0.0
  0
VERTEX
  5
445
  8
0
  6
CONTINUOUS
 62
     7
 10
169.403342437
 20
237.2379750231
 30
0.0
  0
SEQEND
  5
806
  8
0
  6
CONTINUOUS
 62
     7
  0
POLYLINE
  5
BF
  8
0
  6
CONTINUOUS
 62
     7
 66
     1
 10
0.0
 20
0.0
 30
0.0
  0
VERTEX
  5
446
  8
0
  6
CONTINUOUS
 62
     7
 10
175.1968960278
 20
207.104167364
 30
0.0
  0
VERTEX
  5
447
  8
0
  6
CONTINUOUS
 62
     7
 10
178.1144778244
 20
206.9739192942
 30
0.0
  0
VERTEX
  5
448
  8
0
  6
CONTINUOUS
 62
     7
 10
181.0755918734
 20
206.859192274
 30
0.0
  0
VERTEX
  5
449
  8
0
  6
CONTINUOUS
 62
     7
 10
184.0746740811
 20
206.760188959
 30
0.0
  0
VERTEX
  5
44A
  8
0
  6
CONTINUOUS
 62
     7
 10
188.3328358643
 20
206.6482156733
 30
0.0
  0
VERTEX
  5
44B
  8
0
  6
CONTINUOUS
 62
     7
 10
192.6388869994
 20
206.5679401377
 30
0.0
  0
VERTEX
  5
44C
  8
0
  6
CONTINUOUS
 62
     7
 10
196.9769845717
 20
206.5196603755
 30
0.0
  0
VERTEX
  5
44D
  8
0
  6
CONTINUOUS
 62
     7
 10
201.3311277144
 20
206.5035432795
 30
0.0
  0
VERTEX
  5
44E
  8
0
  6
CONTINUOUS
 62
     7
 10
205.6852648966
 20
206.5196603755
 30
0.0
  0
VERTEX
  5
44F
  8
0
  6
CONTINUOUS
 62
     7
 10
210.0233624689
 20
206.5679401377
 30
0.0
  0
VERTEX
  5
450
  8
0
  6
CONTINUOUS
 62
     7
 10
214.3294165842
 20
206.6482156733
 30
0.0
  0
VERTEX
  5
451
  8
0
  6
CONTINUOUS
 62
     7
 10
218.5875783675
 20
206.760188959
 30
0.0
  0
VERTEX
  5
452
  8
0
  6
CONTINUOUS
 62
     7
 10
221.5866575949
 20
206.859192274
 30
0.0
  0
VERTEX
  5
453
  8
0
  6
CONTINUOUS
 62
     7
 10
224.5477746241
 20
206.9739192942
 30
0.0
  0
VERTEX
  5
454
  8
0
  6
CONTINUOUS
 62
     7
 10
227.4653564207
 20
207.104167364
 30
0.0
  0
SEQEND
  5
805
  8
0
  6
CONTINUOUS
 62
     7
  0
LINE
  5
C0
  8
0
  6
CONTINUOUS
 62
     7
 10
63.3311281912
 20
145.1627940157
 30
0.0
 11
63.3311281912
 21
146.1627930621
 31
0.0
  0
LINE
  5
C1
  8
0
  6
CONTINUOUS
 62
     7
 10
63.3311281912
 20
146.1627930621
 30
0.0
 11
99.3311266415
 21
146.1627930621
 31
0.0
  0
LINE
  5
C2
  8
0
  6
CONTINUOUS
 62
     7
 10
99.3311266415
 20
146.1627930621
 30
0.0
 11
99.3311266415
 21
145.1627940157
 31
0.0
  0
LINE
  5
C3
  8
0
  6
CONTINUOUS
 62
     7
 10
99.3311266415
 20
138.7627929667
 30
0.0
 11
99.3311266415
 21
145.1627940157
 31
0.0
  0
LINE
  5
C4
  8
0
  6
CONTINUOUS
 62
     7
 10
63.3311281912
 20
138.7627929667
 30
0.0
 11
63.3311281912
 21
145.1627940157
 31
0.0
  0
ARC
  5
C5
  8
0
  6
CONTINUOUS
 62
     7
 10
66.3311253302
 20
138.7627914408
 30
0.0
 40
3.0
 50
180.0
 51
270.0
  0
LINE
  5
C6
  8
0
  6
CONTINUOUS
 62
     7
 10
96.3311265223
 20
135.7627898673
 30
0.0
 11
66.3311253302
 21
135.7627898673
 31
0.0
  0
ARC
  5
C7
  8
0
  6
CONTINUOUS
 62
     7
 10
96.3311253302
 20
138.7627914408
 30
0.0
 40
3.0
 50
270.0
 51
0.0
  0
LINE
  5
C8
  8
0
  6
CONTINUOUS
 62
     7
 10
78.331125807
 20
155.8840781668
 30
0.0
 11
78.331125807
 21
160.1581484297
 31
0.0
  0
LINE
  5
C9
  8
0
  6
CONTINUOUS
 62
     7
 10
84.3311260454
 20
160.1581484297
 30
0.0
 11
84.3311260454
 21
155.8840781668
 31
0.0
  0
LINE
  5
CA
  8
0
  6
CONTINUOUS
 62
     7
 10
78.331125807
 20
146.1627930621
 30
0.0
 11
78.331125807
 21
155.8840781668
 31
0.0
  0
LINE
  5
CB
  8
0
  6
CONTINUOUS
 62
     7
 10
84.3311260454
 20
155.8840781668
 30
0.0
 11
84.3311260454
 21
146.1627930621
 31
0.0
  0
LINE
  5
CC
  8
0
  6
CONTINUOUS
 62
     7
 10
78.331125807
 20
160.1581484297
 30
0.0
 11
78.331125807
 21
161.2583011607
 31
0.0
  0
LINE
  5
CD
  8
0
  6
CONTINUOUS
 62
     7
 10
84.3311260454
 20
161.2639099578
 30
0.0
 11
84.3311260454
 21
160.1581484297
 31
0.0
  0
LINE
  5
CE
  8
0
  6
CONTINUOUS
 62
     7
 10
183.3311240189
 20
145.1627940157
 30
0.0
 11
183.3311240189
 21
146.1627930621
 31
0.0
  0
LINE
  5
CF
  8
0
  6
CONTINUOUS
 62
     7
 10
183.3311240189
 20
146.1627930621
 30
0.0
 11
219.3311224692
 21
146.1627930621
 31
0.0
  0
LINE
  5
D0
  8
0
  6
CONTINUOUS
 62
     7
 10
219.3311224692
 20
146.1627930621
 30
0.0
 11
219.3311224692
 21
145.1627940157
 31
0.0
  0
LINE
  5
D1
  8
0
  6
CONTINUOUS
 62
     7
 10
183.3311240189
 20
138.7627929667
 30
0.0
 11
183.3311240189
 21
145.1627940157
 31
0.0
  0
LINE
  5
D2
  8
0
  6
CONTINUOUS
 62
     7
 10
216.3311253302
 20
135.7627898673
 30
0.0
 11
186.3311241381
 21
135.7627898673
 31
0.0
  0
ARC
  5
D3
  8
0
  6
CONTINUOUS
 62
     7
 10
216.3311253302
 20
138.7627914408
 30
0.0
 40
3.0
 50
270.0
 51
0.0
  0
ARC
  5
D4
  8
0
  6
CONTINUOUS
 62
     7
 10
186.3311253302
 20
138.7627914408
 30
0.0
 40
3.0
 50
180.0
 51
270.0
  0
LINE
  5
D5
  8
0
  6
CONTINUOUS
 62
     7
 10
219.3311224692
 20
138.7627929667
 30
0.0
 11
219.3311224692
 21
145.1627940157
 31
0.0
  0
LINE
  5
D6
  8
0
  6
CONTINUOUS
 62
     7
 10
198.3311246149
 20
146.1627930621
 30
0.0
 11
198.3311246149
 21
155.3410083273
 31
0.0
  0
LINE
  5
D7
  8
0
  6
CONTINUOUS
 62
     7
 10
204.3311248534
 20
155.3378313998
 30
0.0
 11
204.3311248534
 21
146.1627930621
 31
0.0
  0
LINE
  5
D8
  8
0
  6
CONTINUOUS
 62
     7
 10
204.3311248534
 20
201.2644618968
 30
0.0
 11
204.3311248534
 21
160.464325569
 31
0.0
  0
LINE
  5
D9
  8
0
  6
CONTINUOUS
 62
     7
 10
198.3311246149
 20
160.4608446578
 30
0.0
 11
198.3311246149
 21
201.2644618968
 31
0.0
  0
LINE
  5
DA
  8
0
  6
CONTINUOUS
 62
     7
 10
198.3311246149
 20
201.2644618968
 30
0.0
 11
198.3311246149
 21
202.8106898287
 31
0.0
  0
LINE
  5
DB
  8
0
  6
CONTINUOUS
 62
     7
 10
204.3311248534
 20
202.8106898287
 30
0.0
 11
204.3311248534
 21
201.2644618968
 31
0.0
  0
LINE
  5
DC
  8
0
  6
CONTINUOUS
 62
     7
 10
204.3311248534
 20
206.5146535853
 30
0.0
 11
204.3311248534
 21
202.8106898287
 31
0.0
  0
LINE
  5
DD
  8
0
  6
CONTINUOUS
 62
     7
 10
198.3311246149
 20
202.8106898287
 30
0.0
 11
198.3311246149
 21
206.5146535853
 31
0.0
  0
POLYLINE
  5
DE
  8
0
  6
CONTINUOUS
 62
     7
 66
     1
 10
0.0
 20
0.0
 30
0.0
  0
VERTEX
  5
455
  8
0
  6
CONTINUOUS
 62
     7
 10
163.731054496
 20
160.9018415431
 30
0.0
  0
VERTEX
  5
456
  8
0
  6
CONTINUOUS
 62
     7
 10
163.7310887687
 20
161.0687822321
 30
0.0
  0
VERTEX
  5
457
  8
0
  6
CONTINUOUS
 62
     7
 10
163.7312198989
 20
161.1805588225
 30
0.0
  0
VERTEX
  5
458
  8
0
  6
CONTINUOUS
 62
     7
 10
163.7316684239
 20
161.2781256655
 30
0.0
  0
VERTEX
  5
459
  8
0
  6
CONTINUOUS
 62
     7
 10
163.7318576686
 20
161.2722307662
 30
0.0
  0
SEQEND
  5
804
  8
0
  6
CONTINUOUS
 62
     7
  0
POLYLINE
  5
DF
  8
0
  6
CONTINUOUS
 62
     7
 66
     1
 10
0.0
 20
0.0
 30
0.0
  0
VERTEX
  5
45A
  8
0
  6
CONTINUOUS
 62
     7
 10
169.8186258786
 20
157.3721200446
 30
0.0
  0
VERTEX
  5
45B
  8
0
  6
CONTINUOUS
 62
     7
 10
168.7159101479
 20
157.5781971434
 30
0.0
  0
VERTEX
  5
45C
  8
0
  6
CONTINUOUS
 62
     7
 10
167.6473448984
 20
157.919564865
 30
0.0
  0
VERTEX
  5
45D
  8
0
  6
CONTINUOUS
 62
     7
 10
166.8398271315
 20
158.2779258708
 30
0.0
  0
VERTEX
  5
45E
  8
0
  6
CONTINUOUS
 62
     7
 10
166.1021138542
 20
158.6886674384
 30
0.0
  0
VERTEX
  5
45F
  8
0
  6
CONTINUOUS
 62
     7
 10
165.3441737406
 20
159.2036932925
 30
0.0
  0
VERTEX
  5
460
  8
0
  6
CONTINUOUS
 62
     7
 10
164.7060613148
 20
159.7227126578
 30
0.0
  0
VERTEX
  5
461
  8
0
  6
CONTINUOUS
 62
     7
 10
164.1750658862
 20
160.2333575705
 30
0.0
  0
VERTEX
  5
462
  8
0
  6
CONTINUOUS
 62
     7
 10
163.9755363576
 20
160.4560345629
 30
0.0
  0
VERTEX
  5
463
  8
0
  6
CONTINUOUS
 62
     7
 10
163.8327847235
 20
160.6454342822
 30
0.0
  0
VERTEX
  5
464
  8
0
  6
CONTINUOUS
 62
     7
 10
163.7310276739
 20
160.9018475035
 30
0.0
  0
SEQEND
  5
803
  8
0
  6
CONTINUOUS
 62
     7
  0
POLYLINE
  5
E0
  8
0
  6
CONTINUOUS
 62
     7
 66
     1
 10
0.0
 20
0.0
 30
0.0
  0
VERTEX
  5
465
  8
0
  6
CONTINUOUS
 62
     7
 10
232.84362657
 20
157.3721200446
 30
0.0
  0
VERTEX
  5
466
  8
0
  6
CONTINUOUS
 62
     7
 10
225.8003900759
 20
156.5860957125
 30
0.0
  0
VERTEX
  5
467
  8
0
  6
CONTINUOUS
 62
     7
 10
218.7297473662
 20
155.9685558299
 30
0.0
  0
VERTEX
  5
468
  8
0
  6
CONTINUOUS
 62
     7
 10
211.6041551344
 20
155.5464357356
 30
0.0
  0
VERTEX
  5
469
  8
0
  6
CONTINUOUS
 62
     7
 10
204.4645438902
 20
155.33796253
 30
0.0
  0
VERTEX
  5
46A
  8
0
  6
CONTINUOUS
 62
     7
 10
198.6906896345
 20
155.3323537329
 30
0.0
  0
VERTEX
  5
46B
  8
0
  6
CONTINUOUS
 62
     7
 10
192.9179261439
 20
155.4713100413
 30
0.0
  0
VERTEX
  5
46C
  8
0
  6
CONTINUOUS
 62
     7
 10
187.1540824883
 20
155.7516366461
 30
0.0
  0
VERTEX
  5
46D
  8
0
  6
CONTINUOUS
 62
     7
 10
181.3588569872
 20
156.1722189406
 30
0.0
  0
VERTEX
  5
46E
  8
0
  6
CONTINUOUS
 62
     7
 10
175.5788276903
 20
156.717816017
 30
0.0
  0
VERTEX
  5
46F
  8
0
  6
CONTINUOUS
 62
     7
 10
169.8186258786
 20
157.3721200446
 30
0.0
  0
SEQEND
  5
802
  8
0
  6
CONTINUOUS
 62
     7
  0
POLYLINE
  5
E1
  8
0
  6
CONTINUOUS
 62
     7
 66
     1
 10
0.0
 20
0.0
 30
0.0
  0
VERTEX
  5
470
  8
0
  6
CONTINUOUS
 62
     7
 10
238.9312217944
 20
160.901686571
 30
0.0
  0
VERTEX
  5
471
  8
0
  6
CONTINUOUS
 62
     7
 10
238.845367264
 20
160.6704145888
 30
0.0
  0
VERTEX
  5
472
  8
0
  6
CONTINUOUS
 62
     7
 10
238.5862420313
 20
160.34050288
 30
0.0
  0
VERTEX
  5
473
  8
0
  6
CONTINUOUS
 62
     7
 10
238.1919453852
 20
159.9385708788
 30
0.0
  0
VERTEX
  5
474
  8
0
  6
CONTINUOUS
 62
     7
 10
237.6552234404
 20
159.4670683364
 30
0.0
  0
VERTEX
  5
475
  8
0
  6
CONTINUOUS
 62
     7
 10
236.9321356528
 20
158.9288681964
 30
0.0
  0
VERTEX
  5
476
  8
0
  6
CONTINUOUS
 62
     7
 10
236.0443065874
 20
158.3927124957
 30
0.0
  0
VERTEX
  5
477
  8
0
  6
CONTINUOUS
 62
     7
 10
235.1789901965
 20
157.9850942114
 30
0.0
  0
VERTEX
  5
478
  8
0
  6
CONTINUOUS
 62
     7
 10
234.1937313788
 20
157.6444417456
 30
0.0
  0
VERTEX
  5
479
  8
0
  6
CONTINUOUS
 62
     7
 10
233.5352431052
 20
157.484552286
 30
0.0
  0
VERTEX
  5
47A
  8
0
  6
CONTINUOUS
 62
     7
 10
232.84362657
 20
157.3721200446
 30
0.0
  0
SEQEND
  5
801
  8
0
  6
CONTINUOUS
 62
     7
  0
POLYLINE
  5
E2
  8
0
  6
CONTINUOUS
 62
     7
 66
     1
 10
0.0
 20
0.0
 30
0.0
  0
VERTEX
  5
47B
  8
0
  6
CONTINUOUS
 62
     7
 10
238.9303754084
 20
161.2781971911
 30
0.0
  0
VERTEX
  5
47C
  8
0
  6
CONTINUOUS
 62
     7
 10
238.930446934
 20
161.2839132765
 30
0.0
  0
VERTEX
  5
47D
  8
0
  6
CONTINUOUS
 62
     7
 10
238.9308164828
 20
161.2473577479
 30
0.0
  0
VERTEX
  5
47E
  8
0
  6
CONTINUOUS
 62
     7
 10
238.9310966246
 20
161.130967758
 30
0.0
  0
VERTEX
  5
47F
  8
0
  6
CONTINUOUS
 62
     7
 10
238.9311979525
 20
160.9016806105
 30
0.0
  0
SEQEND
  5
800
  8
0
  6
CONTINUOUS
 62
     7
  0
POLYLINE
  5
E3
  8
0
  6
CONTINUOUS
 62
     7
 66
     1
 10
0.0
 20
0.0
 30
0.0
  0
VERTEX
  5
480
  8
0
  6
CONTINUOUS
 62
     7
 10
166.1247785203
 20
162.2774750212
 30
0.0
  0
VERTEX
  5
481
  8
0
  6
CONTINUOUS
 62
     7
 10
165.3503905051
 20
162.2794777373
 30
0.0
  0
VERTEX
  5
482
  8
0
  6
CONTINUOUS
 62
     7
 10
165.1543031447
 20
162.2803539256
 30
0.0
  0
SEQEND
  5
7FF
  8
0
  6
CONTINUOUS
 62
     7
  0
POLYLINE
  5
E4
  8
0
  6
CONTINUOUS
 62
     7
 66
     1
 10
0.0
 20
0.0
 30
0.0
  0
VERTEX
  5
483
  8
0
  6
CONTINUOUS
 62
     7
 10
163.8777102344
 20
162.4350995043
 30
0.0
  0
VERTEX
  5
484
  8
0
  6
CONTINUOUS
 62
     7
 10
163.8678292744
 20
162.3822361449
 30
0.0
  0
VERTEX
  5
485
  8
0
  6
CONTINUOUS
 62
     7
 10
163.8393218629
 20
162.126407049
 30
0.0
  0
SEQEND
  5
7FE
  8
0
  6
CONTINUOUS
 62
     7
  0
ARC
  5
E5
  8
0
  6
CONTINUOUS
 62
     7
 10
164.9474554109
 20
147.7154606108
 30
0.0
 40
14.60948711236477
 50
75.6822058374
 51
85.3777794934
  0
ARC
  5
E6
  8
0
  6
CONTINUOUS
 62
     7
 10
237.5550138812
 20
148.5025556184
 30
0.0
 40
13.81240846050392
 50
94.224692577
 51
104.9752624252
  0
POLYLINE
  5
E7
  8
0
  6
CONTINUOUS
 62
     7
 66
     1
 10
0.0
 20
0.0
 30
0.0
  0
VERTEX
  5
486
  8
0
  6
CONTINUOUS
 62
     7
 10
236.5374754183
 20
162.277433298
 30
0.0
  0
VERTEX
  5
487
  8
0
  6
CONTINUOUS
 62
     7
 10
237.3952518217
 20
162.2798055628
 30
0.0
  0
VERTEX
  5
488
  8
0
  6
CONTINUOUS
 62
     7
 10
237.5154803507
 20
162.2803420046
 30
0.0
  0
SEQEND
  5
7FD
  8
0
  6
CONTINUOUS
 62
     7
  0
POLYLINE
  5
E8
  8
0
  6
CONTINUOUS
 62
     7
 66
     1
 10
0.0
 20
0.0
 30
0.0
  0
VERTEX
  5
489
  8
0
  6
CONTINUOUS
 62
     7
 10
238.7433777563
 20
162.2768551329
 30
0.0
  0
VERTEX
  5
48A
  8
0
  6
CONTINUOUS
 62
     7
 10
238.7529025786
 20
162.2652024249
 30
0.0
  0
VERTEX
  5
48B
  8
0
  6
CONTINUOUS
 62
     7
 10
238.7653837912
 20
162.2893721083
 30
0.0
  0
VERTEX
  5
48C
  8
0
  6
CONTINUOUS
 62
     7
 10
238.7668977492
 20
162.3468488673
 30
0.0
  0
VERTEX
  5
48D
  8
0
  6
CONTINUOUS
 62
     7
 10
238.768358063
 20
162.4177366713
 30
0.0
  0
SEQEND
  5
7FC
  8
0
  6
CONTINUOUS
 62
     7
  0
POLYLINE
  5
E9
  8
0
  6
CONTINUOUS
 62
     7
 66
     1
 10
0.0
 20
0.0
 30
0.0
  0
VERTEX
  5
48E
  8
0
  6
CONTINUOUS
 62
     7
 10
238.7701402418
 20
162.4411553362
 30
0.0
  0
VERTEX
  5
48F
  8
0
  6
CONTINUOUS
 62
     7
 10
238.7721608393
 20
162.467792652
 30
0.0
  0
VERTEX
  5
490
  8
0
  6
CONTINUOUS
 62
     7
 10
238.7808929198
 20
162.4613315085
 30
0.0
  0
VERTEX
  5
491
  8
0
  6
CONTINUOUS
 62
     7
 10
238.7971828692
 20
162.361821554
 30
0.0
  0
VERTEX
  5
492
  8
0
  6
CONTINUOUS
 62
     7
 10
238.8229261153
 20
162.126407049
 30
0.0
  0
SEQEND
  5
7FB
  8
0
  6
CONTINUOUS
 62
     7
  0
POLYLINE
  5
EA
  8
0
  6
CONTINUOUS
 62
     7
 66
     1
 10
0.0
 20
0.0
 30
0.0
  0
VERTEX
  5
493
  8
0
  6
CONTINUOUS
 62
     7
 10
238.8229261153
 20
162.126407049
 30
0.0
  0
VERTEX
  5
494
  8
0
  6
CONTINUOUS
 62
     7
 10
238.7515197508
 20
161.9161516646
 30
0.0
  0
VERTEX
  5
495
  8
0
  6
CONTINUOUS
 62
     7
 10
238.5039280169
 20
161.6184801081
 30
0.0
  0
VERTEX
  5
496
  8
0
  6
CONTINUOUS
 62
     7
 10
238.1076226942
 20
161.251953266
 30
0.0
  0
VERTEX
  5
497
  8
0
  6
CONTINUOUS
 62
     7
 10
237.5581095927
 20
160.8148664454
 30
0.0
  0
VERTEX
  5
498
  8
0
  6
CONTINUOUS
 62
     7
 10
236.8376205675
 20
160.3257924536
 30
0.0
  0
VERTEX
  5
499
  8
0
  6
CONTINUOUS
 62
     7
 10
235.954613518
 20
159.8334104041
 30
0.0
  0
VERTEX
  5
49A
  8
0
  6
CONTINUOUS
 62
     7
 10
235.0759814493
 20
159.4473988036
 30
0.0
  0
VERTEX
  5
49B
  8
0
  6
CONTINUOUS
 62
     7
 10
234.0772042982
 20
159.123984001
 30
0.0
  0
VERTEX
  5
49C
  8
0
  6
CONTINUOUS
 62
     7
 10
233.4213803522
 20
158.9745193938
 30
0.0
  0
VERTEX
  5
49D
  8
0
  6
CONTINUOUS
 62
     7
 10
232.7342878096
 20
158.869281433
 30
0.0
  0
SEQEND
  5
7FA
  8
0
  6
CONTINUOUS
 62
     7
  0
POLYLINE
  5
EB
  8
0
  6
CONTINUOUS
 62
     7
 66
     1
 10
0.0
 20
0.0
 30
0.0
  0
VERTEX
  5
49E
  8
0
  6
CONTINUOUS
 62
     7
 10
232.7342878096
 20
158.869281433
 30
0.0
  0
VERTEX
  5
49F
  8
0
  6
CONTINUOUS
 62
     7
 10
227.669681143
 20
158.3195001105
 30
0.0
  0
VERTEX
  5
4A0
  8
0
  6
CONTINUOUS
 62
     7
 10
222.6915786974
 20
157.8556448439
 30
0.0
  0
VERTEX
  5
4A1
  8
0
  6
CONTINUOUS
 62
     7
 10
217.6992545836
 20
157.4764222125
 30
0.0
  0
VERTEX
  5
4A2
  8
0
  6
CONTINUOUS
 62
     7
 10
212.6527856104
 20
157.1887999991
 30
0.0
  0
VERTEX
  5
4A3
  8
0
  6
CONTINUOUS
 62
     7
 10
207.6334069483
 20
157.0039361933
 30
0.0
  0
VERTEX
  5
4A4
  8
0
  6
CONTINUOUS
 62
     7
 10
202.5910566561
 20
156.923624895
 30
0.0
  0
VERTEX
  5
4A5
  8
0
  6
CONTINUOUS
 62
     7
 10
197.5614736788
 20
156.9502741316
 30
0.0
  0
VERTEX
  5
4A6
  8
0
  6
CONTINUOUS
 62
     7
 10
192.9394195788
 20
157.0683092097
 30
0.0
  0
VERTEX
  5
4A7
  8
0
  6
CONTINUOUS
 62
     7
 10
188.3378486149
 20
157.2730154017
 30
0.0
  0
VERTEX
  5
4A8
  8
0
  6
CONTINUOUS
 62
     7
 10
183.7382803671
 20
157.5610310057
 30
0.0
  0
VERTEX
  5
4A9
  8
0
  6
CONTINUOUS
 62
     7
 10
179.1279236786
 20
157.9283803919
 30
0.0
  0
VERTEX
  5
4AA
  8
0
  6
CONTINUOUS
 62
     7
 10
174.5818923228
 20
158.3613008479
 30
0.0
  0
VERTEX
  5
4AB
  8
0
  6
CONTINUOUS
 62
     7
 10
169.9279616587
 20
158.869281433
 30
0.0
  0
SEQEND
  5
7F9
  8
0
  6
CONTINUOUS
 62
     7
  0
POLYLINE
  5
EC
  8
0
  6
CONTINUOUS
 62
     7
 66
     1
 10
0.0
 20
0.0
 30
0.0
  0
VERTEX
  5
4AC
  8
0
  6
CONTINUOUS
 62
     7
 10
169.9279616587
 20
158.869281433
 30
0.0
  0
VERTEX
  5
4AD
  8
0
  6
CONTINUOUS
 62
     7
 10
169.4963614456
 20
158.9293986777
 30
0.0
  0
VERTEX
  5
4AE
  8
0
  6
CONTINUOUS
 62
     7
 10
169.0628717654
 20
159.0103656272
 30
0.0
  0
VERTEX
  5
4AF
  8
0
  6
CONTINUOUS
 62
     7
 10
168.6300258152
 20
159.1121763209
 30
0.0
  0
VERTEX
  5
4B0
  8
0
  6
CONTINUOUS
 62
     7
 10
168.2381699793
 20
159.2230111579
 30
0.0
  0
VERTEX
  5
4B1
  8
0
  6
CONTINUOUS
 62
     7
 10
167.8427080624
 20
159.3530804137
 30
0.0
  0
VERTEX
  5
4B2
  8
0
  6
CONTINUOUS
 62
     7
 10
167.4463401549
 20
159.5023125628
 30
0.0
  0
VERTEX
  5
4B3
  8
0
  6
CONTINUOUS
 62
     7
 10
167.1389709227
 20
159.631565235
 30
0.0
  0
VERTEX
  5
4B4
  8
0
  6
CONTINUOUS
 62
     7
 10
166.8352435343
 20
159.7711533526
 30
0.0
  0
VERTEX
  5
4B5
  8
0
  6
CONTINUOUS
 62
     7
 10
166.547660064
 20
159.914550207
 30
0.0
  0
VERTEX
  5
4B6
  8
0
  6
CONTINUOUS
 62
     7
 10
166.2747408264
 20
160.0610465029
 30
0.0
  0
VERTEX
  5
4B7
  8
0
  6
CONTINUOUS
 62
     7
 10
166.0086060874
 20
160.2139979819
 30
0.0
  0
VERTEX
  5
4B8
  8
0
  6
CONTINUOUS
 62
     7
 10
165.7824407332
 20
160.3521913508
 30
0.0
  0
VERTEX
  5
4B9
  8
0
  6
CONTINUOUS
 62
     7
 10
165.519383084
 20
160.5226546744
 30
0.0
  0
VERTEX
  5
4BA
  8
0
  6
CONTINUOUS
 62
     7
 10
165.2236456983
 20
160.7276529292
 30
0.0
  0
VERTEX
  5
4BB
  8
0
  6
CONTINUOUS
 62
     7
 10
165.0123025291
 20
160.8835906008
 30
0.0
  0
VERTEX
  5
4BC
  8
0
  6
CONTINUOUS
 62
     7
 10
164.8020277731
 20
161.0471874693
 30
0.0
  0
VERTEX
  5
4BD
  8
0
  6
CONTINUOUS
 62
     7
 10
164.5908112638
 20
161.2208813647
 30
0.0
  0
VERTEX
  5
4BE
  8
0
  6
CONTINUOUS
 62
     7
 10
164.4147167914
 20
161.3745063761
 30
0.0
  0
VERTEX
  5
4BF
  8
0
  6
CONTINUOUS
 62
     7
 10
164.2702336423
 20
161.5082472781
 30
0.0
  0
VERTEX
  5
4C0
  8
0
  6
CONTINUOUS
 62
     7
 10
163.9406169765
 20
161.8714720229
 30
0.0
  0
VERTEX
  5
4C1
  8
0
  6
CONTINUOUS
 62
     7
 10
163.8393218629
 20
162.126407049
 30
0.0
  0
SEQEND
  5
7F8
  8
0
  6
CONTINUOUS
 62
     7
  0
ARC
  5
ED
  8
0
  6
CONTINUOUS
 62
     7
 10
81.3311244361
 20
235.097576467
 30
0.0
 40
73.90746562411371
 50
244.5760600083
 51
295.4239399917
  0
LINE
  5
EE
  8
0
  6
CONTINUOUS
 62
     7
 10
49.8186240904
 20
234.4982117632
 30
0.0
 11
49.9279628508
 21
234.5085591296
 31
0.0
  0
LINE
  5
EF
  8
0
  6
CONTINUOUS
 62
     7
 10
112.7342890017
 20
234.5085591296
 30
0.0
 11
112.8436247818
 21
234.4982117632
 31
0.0
  0
ARC
  5
F0
  8
0
  6
CONTINUOUS
 62
     7
 10
81.3311244361
 20
-97.6556471143
 30
0.0
 40
333.6453560973292
 50
84.5803875638
 51
95.4196124362
  0
POLYLINE
  5
F1
  8
0
  6
CONTINUOUS
 62
     7
 66
     1
 10
0.0
 20
0.0
 30
0.0
  0
VERTEX
  5
4C2
  8
0
  6
CONTINUOUS
 62
     7
 10
113.0605260842
 20
168.3476060847
 30
0.0
  0
VERTEX
  5
4C3
  8
0
  6
CONTINUOUS
 62
     7
 10
114.0613834374
 20
168.9313978175
 30
0.0
  0
VERTEX
  5
4C4
  8
0
  6
CONTINUOUS
 62
     7
 10
114.5546684973
 20
169.3442732314
 30
0.0
  0
SEQEND
  5
7F7
  8
0
  6
CONTINUOUS
 62
     7
  0
POLYLINE
  5
F2
  8
0
  6
CONTINUOUS
 62
     7
 66
     1
 10
0.0
 20
0.0
 30
0.0
  0
VERTEX
  5
4C5
  8
0
  6
CONTINUOUS
 62
     7
 10
48.0920086615
 20
169.3583399275
 30
0.0
  0
VERTEX
  5
4C6
  8
0
  6
CONTINUOUS
 62
     7
 10
48.4685848467
 20
169.0265208701
 30
0.0
  0
VERTEX
  5
4C7
  8
0
  6
CONTINUOUS
 62
     7
 10
49.6017227881
 20
168.3476060847
 30
0.0
  0
SEQEND
  5
7F6
  8
0
  6
CONTINUOUS
 62
     7
  0
LINE
  5
F3
  8
0
  6
CONTINUOUS
 62
     7
 10
43.7311242335
 20
205.991181753
 30
0.0
 11
43.7341879122
 21
204.9627870539
 31
0.0
  0
LINE
  5
F4
  8
0
  6
CONTINUOUS
 62
     7
 10
43.7311242335
 20
215.990552328
 30
0.0
 11
43.7311242335
 21
205.991181753
 31
0.0
  0
POLYLINE
  5
F5
  8
0
  6
CONTINUOUS
 62
     7
 66
     1
 10
0.0
 20
0.0
 30
0.0
  0
VERTEX
  5
4C8
  8
0
  6
CONTINUOUS
 62
     7
 10
43.7310527079
 20
227.6517600039
 30
0.0
  0
VERTEX
  5
4C9
  8
0
  6
CONTINUOUS
 62
     7
 10
43.7310884707
 20
226.4474481562
 30
0.0
  0
VERTEX
  5
4CA
  8
0
  6
CONTINUOUS
 62
     7
 10
43.7312196009
 20
225.2338737467
 30
0.0
  0
VERTEX
  5
4CB
  8
0
  6
CONTINUOUS
 62
     7
 10
43.7316666357
 20
222.9287356356
 30
0.0
  0
VERTEX
  5
4CC
  8
0
  6
CONTINUOUS
 62
     7
 10
43.7320600264
 20
220.6208080271
 30
0.0
  0
VERTEX
  5
4CD
  8
0
  6
CONTINUOUS
 62
     7
 10
43.7311242335
 20
215.990552328
 30
0.0
  0
SEQEND
  5
7F5
  8
0
  6
CONTINUOUS
 62
     7
  0
ARC
  5
F6
  8
0
  6
CONTINUOUS
 62
     7
 10
50.4912351064
 20
227.7705017198
 30
0.0
 40
6.761248997592056
 50
95.709244102
 51
181.0062858134
  0
ARC
  5
F7
  8
0
  6
CONTINUOUS
 62
     7
 10
112.1784162136
 20
227.7770981378
 30
0.0
 40
6.753952235895933
 50
358.9447500892
 51
84.3476747093
  0
POLYLINE
  5
F8
  8
0
  6
CONTINUOUS
 62
     7
 66
     1
 10
0.0
 20
0.0
 30
0.0
  0
VERTEX
  5
4CE
  8
0
  6
CONTINUOUS
 62
     7
 10
118.9293081872
 20
204.9627870539
 30
0.0
  0
VERTEX
  5
4CF
  8
0
  6
CONTINUOUS
 62
     7
 10
118.9311246388
 20
205.991181753
 30
0.0
  0
VERTEX
  5
4D0
  8
0
  6
CONTINUOUS
 62
     7
 10
118.9346875064
 20
208.4217161158
 30
0.0
  0
VERTEX
  5
4D1
  8
0
  6
CONTINUOUS
 62
     7
 10
118.9332793467
 20
213.2829994181
 30
0.0
  0
VERTEX
  5
4D2
  8
0
  6
CONTINUOUS
 62
     7
 10
118.9306701534
 20
216.8747633914
 30
0.0
  0
VERTEX
  5
4D3
  8
0
  6
CONTINUOUS
 62
     7
 10
118.9301769249
 20
220.4662412623
 30
0.0
  0
VERTEX
  5
4D4
  8
0
  6
CONTINUOUS
 62
     7
 10
118.9304481261
 20
222.2611397723
 30
0.0
  0
VERTEX
  5
4D5
  8
0
  6
CONTINUOUS
 62
     7
 10
118.930819165
 20
224.0555495242
 30
0.0
  0
VERTEX
  5
4D6
  8
0
  6
CONTINUOUS
 62
     7
 10
118.9310993068
 20
225.8600086192
 30
0.0
  0
VERTEX
  5
4D7
  8
0
  6
CONTINUOUS
 62
     7
 10
118.9311961644
 20
227.6527136782
 30
0.0
  0
SEQEND
  5
7F4
  8
0
  6
CONTINUOUS
 62
     7
  0
LINE
  5
F9
  8
0
  6
CONTINUOUS
 62
     7
 10
49.8812566511
 20
168.2236045817
 30
0.0
 11
49.9985228293
 21
168.1604176978
 31
0.0
  0
LINE
  5
FA
  8
0
  6
CONTINUOUS
 62
     7
 10
112.663726043
 20
168.1604176978
 30
0.0
 11
112.7491037361
 21
168.2064324835
 31
0.0
  0
LINE
  5
FB
  8
0
  6
CONTINUOUS
 62
     7
 10
113.0801538937
 20
234.458145521
 30
0.0
 11
112.7342890017
 21
234.5085591296
 31
0.0
  0
LINE
  5
FC
  8
0
  6
CONTINUOUS
 62
     7
 10
43.6311255209
 20
157.9633325556
 30
0.0
 11
44.4311271422
 21
157.9633325556
 31
0.0
  0
LINE
  5
FD
  8
0
  6
CONTINUOUS
 62
     7
 10
60.0311229937
 20
150.8627921561
 30
0.0
 11
60.0311229937
 21
163.062790058
 31
0.0
  0
LINE
  5
FE
  8
0
  6
CONTINUOUS
 62
     7
 10
43.6311255209
 20
150.8627921561
 30
0.0
 11
43.6311255209
 21
157.9633325556
 31
0.0
  0
LINE
  5
FF
  8
0
  6
CONTINUOUS
 62
     7
 10
44.4311271422
 20
157.9633325556
 30
0.0
 11
44.4311271422
 21
203.5059064845
 31
0.0
  0
LINE
  5
100
  8
0
  6
CONTINUOUS
 62
     7
 10
43.6311255209
 20
157.9633325556
 30
0.0
 11
43.6311255209
 21
203.5059064845
 31
0.0
  0
LINE
  5
101
  8
0
  6
CONTINUOUS
 62
     7
 10
44.4311271422
 20
204.9627870539
 30
0.0
 11
43.6311255209
 21
204.9627870539
 31
0.0
  0
LINE
  5
102
  8
0
  6
CONTINUOUS
 62
     7
 10
44.4311271422
 20
203.5059064845
 30
0.0
 11
44.4311271422
 21
204.9627870539
 31
0.0
  0
LINE
  5
103
  8
0
  6
CONTINUOUS
 62
     7
 10
43.6311255209
 20
203.5059064845
 30
0.0
 11
43.6311255209
 21
204.9627870539
 31
0.0
  0
ARC
  5
104
  8
0
  6
CONTINUOUS
 62
     7
 10
46.7793453395
 20
202.9750304746
 30
0.0
 40
1.987795143731962
 50
359.6471510234
 51
89.6431005564
  0
LINE
  5
105
  8
0
  6
CONTINUOUS
 62
     7
 10
48.7671027891
 20
195.8005875567
 30
0.0
 11
48.7671027891
 21
202.9627889613
 31
0.0
  0
ARC
  5
106
  8
0
  6
CONTINUOUS
 62
     7
 10
78.8953299006
 20
195.7518551954
 30
0.0
 40
30.12826652370218
 50
179.9073242451
 51
232.1234980757
  0
ARC
  5
107
  8
0
  6
CONTINUOUS
 62
     7
 10
59.2994631147
 20
170.5623486917
 30
0.0
 40
1.785826364995422
 50
333.9118989509
 51
52.0486105613
  0
POLYLINE
  5
108
  8
0
  6
CONTINUOUS
 62
     7
 66
     1
 10
0.0
 20
0.0
 30
0.0
  0
VERTEX
  5
4D8
  8
0
  6
CONTINUOUS
 62
     7
 10
59.6854339354
 20
166.3143784026
 30
0.0
  0
VERTEX
  5
4D9
  8
0
  6
CONTINUOUS
 62
     7
 10
60.1940224879
 20
168.0818885783
 30
0.0
  0
VERTEX
  5
4DA
  8
0
  6
CONTINUOUS
 62
     7
 10
60.903347563
 20
169.7770267943
 30
0.0
  0
SEQEND
  5
7F3
  8
0
  6
CONTINUOUS
 62
     7
  0
ARC
  5
109
  8
0
  6
CONTINUOUS
 62
     7
 10
58.5286400323
 20
166.5671440958
 30
0.0
 40
1.18408725600004
 50
252.0749382391
 51
347.6742889623
  0
POLYLINE
  5
10A
  8
0
  6
CONTINUOUS
 62
     7
 66
     1
 10
0.0
 20
0.0
 30
0.0
  0
VERTEX
  5
4DB
  8
0
  6
CONTINUOUS
 62
     7
 10
50.0375340693
 20
168.6420113066
 30
0.0
  0
VERTEX
  5
4DC
  8
0
  6
CONTINUOUS
 62
     7
 10
54.0615807288
 20
166.9211536864
 30
0.0
  0
VERTEX
  5
4DD
  8
0
  6
CONTINUOUS
 62
     7
 10
58.1642101519
 20
165.4405325869
 30
0.0
  0
SEQEND
  5
7F2
  8
0
  6
CONTINUOUS
 62
     7
  0
LINE
  5
10B
  8
0
  6
CONTINUOUS
 62
     7
 10
49.0572283976
 20
169.2143649081
 30
0.0
 11
50.0375340693
 21
168.6420113066
 31
0.0
  0
ARC
  5
10C
  8
0
  6
CONTINUOUS
 62
     7
 10
48.3716062187
 20
168.2480108076
 30
0.0
 40
1.184870465406903
 50
54.6445379963
 51
180.6187406837
  0
LINE
  5
10D
  8
0
  6
CONTINUOUS
 62
     7
 10
47.1868048422
 20
163.062790058
 30
0.0
 11
47.1868048422
 21
168.2352155665
 31
0.0
  0
LINE
  5
10E
  8
0
  6
CONTINUOUS
 62
     7
 10
46.7917273753
 20
204.9627870539
 30
0.0
 11
44.4311271422
 21
204.9627870539
 31
0.0
  0
ARC
  5
10F
  8
0
  6
CONTINUOUS
 62
     7
 10
48.5028032574
 20
168.2443438001
 30
0.0
 40
1.190887487839029
 50
90.2706811906
 51
180.4391803478
  0
LINE
  5
110
  8
0
  6
CONTINUOUS
 62
     7
 10
46.8757282011
 20
204.9627870539
 30
0.0
 11
46.7917273753
 21
204.9627870539
 31
0.0
  0
LINE
  5
111
  8
0
  6
CONTINUOUS
 62
     7
 10
47.3119507544
 20
163.062790058
 30
0.0
 11
47.3119507544
 21
168.2352155665
 31
0.0
  0
LINE
  5
112
  8
0
  6
CONTINUOUS
 62
     7
 10
164.4311259501
 20
159.9871129016
 30
0.0
 11
164.4311259501
 21
158.8690966586
 31
0.0
  0
LINE
  5
113
  8
0
  6
CONTINUOUS
 62
     7
 10
163.631125819
 20
158.8690966586
 30
0.0
 11
163.631125819
 21
160.5627924422
 31
0.0
  0
LINE
  5
114
  8
0
  6
CONTINUOUS
 62
     7
 10
163.6883701198
 20
160.9242171267
 30
0.0
 11
163.631125819
 21
160.5627924422
 31
0.0
  0
LINE
  5
115
  8
0
  6
CONTINUOUS
 62
     7
 10
163.631125819
 20
156.9442540625
 30
0.0
 11
163.631125819
 21
158.8690966586
 31
0.0
  0
LINE
  5
116
  8
0
  6
CONTINUOUS
 62
     7
 10
164.4311259501
 20
156.9442540625
 30
0.0
 11
164.4311259501
 21
158.8690966586
 31
0.0
  0
LINE
  5
117
  8
0
  6
CONTINUOUS
 62
     7
 10
163.631125819
 20
150.9317130068
 30
0.0
 11
163.631125819
 21
156.9442540625
 31
0.0
  0
LINE
  5
118
  8
0
  6
CONTINUOUS
 62
     7
 10
164.4311259501
 20
150.9317130068
 30
0.0
 11
164.4311259501
 21
156.9442540625
 31
0.0
  0
LINE
  5
119
  8
0
  6
CONTINUOUS
 62
     7
 10
180.0311247818
 20
161.0014468649
 30
0.0
 11
180.0311247818
 21
163.062790058
 31
0.0
  0
LINE
  5
11A
  8
0
  6
CONTINUOUS
 62
     7
 10
180.0311247818
 20
150.8627921561
 30
0.0
 11
180.0311247818
 21
156.294146202
 31
0.0
  0
LINE
  5
11B
  8
0
  6
CONTINUOUS
 62
     7
 10
163.631125819
 20
160.5627924422
 30
0.0
 11
163.631125819
 21
163.062790058
 31
0.0
  0
LINE
  5
11C
  8
0
  6
CONTINUOUS
 62
     7
 10
163.631125819
 20
150.8627921561
 30
0.0
 11
163.631125819
 21
150.9317130068
 31
0.0
  0
LINE
  5
11D
  8
0
  6
CONTINUOUS
 62
     7
 10
119.0311248414
 20
157.9633325556
 30
0.0
 11
118.2311247103
 21
157.9633325556
 31
0.0
  0
LINE
  5
11E
  8
0
  6
CONTINUOUS
 62
     7
 10
102.6311258786
 20
163.062790058
 30
0.0
 11
102.6311258786
 21
150.8627921561
 31
0.0
  0
LINE
  5
11F
  8
0
  6
CONTINUOUS
 62
     7
 10
119.0311248414
 20
157.9633325556
 30
0.0
 11
119.0311248414
 21
150.8627921561
 31
0.0
  0
LINE
  5
120
  8
0
  6
CONTINUOUS
 62
     7
 10
118.2311247103
 20
203.5059064845
 30
0.0
 11
118.2311247103
 21
157.9633325556
 31
0.0
  0
LINE
  5
121
  8
0
  6
CONTINUOUS
 62
     7
 10
119.0311248414
 20
203.5059064845
 30
0.0
 11
119.0311248414
 21
157.9633325556
 31
0.0
  0
LINE
  5
122
  8
0
  6
CONTINUOUS
 62
     7
 10
119.0311248414
 20
204.9627870539
 30
0.0
 11
118.2311247103
 21
204.9627870539
 31
0.0
  0
LINE
  5
123
  8
0
  6
CONTINUOUS
 62
     7
 10
118.2311247103
 20
204.9627870539
 30
0.0
 11
118.2311247103
 21
203.5059064845
 31
0.0
  0
LINE
  5
124
  8
0
  6
CONTINUOUS
 62
     7
 10
119.0311248414
 20
204.9627870539
 30
0.0
 11
119.0311248414
 21
203.5059064845
 31
0.0
  0
ARC
  5
125
  8
0
  6
CONTINUOUS
 62
     7
 10
110.0925373951
 20
174.1047397008
 30
0.0
 40
6.021073320662172
 50
294.8694737219
 51
305.6875992645
  0
ARC
  5
126
  8
0
  6
CONTINUOUS
 62
     7
 10
80.8853532184
 20
237.2944355347
 30
0.0
 40
75.63426753919563
 50
288.1915998183
 51
294.8120261488
  0
ARC
  5
127
  8
0
  6
CONTINUOUS
 62
     7
 10
104.1336110743
 20
166.5671427975
 30
0.0
 40
1.184086250242248
 50
192.3256573663
 51
287.9251154323
  0
ARC
  5
128
  8
0
  6
CONTINUOUS
 62
     7
 10
87.5268801499
 20
162.8257001883
 30
0.0
 40
15.83892208115155
 50
12.7242942513
 51
26.0322029428
  0
ARC
  5
129
  8
0
  6
CONTINUOUS
 62
     7
 10
103.362779612
 20
170.5623507952
 30
0.0
 40
1.785819094040041
 50
127.9512000712
 51
206.0882904166
  0
ARC
  5
12A
  8
0
  6
CONTINUOUS
 62
     7
 10
83.7736258727
 20
195.7485794753
 30
0.0
 40
30.12156510914823
 50
307.8702619552
 51
0.098927298
  0
LINE
  5
12B
  8
0
  6
CONTINUOUS
 62
     7
 10
113.8951460831
 20
202.9627889613
 30
0.0
 11
113.8951460831
 21
195.8005875567
 31
0.0
  0
ARC
  5
12C
  8
0
  6
CONTINUOUS
 62
     7
 10
115.8829082688
 20
202.9750257969
 30
0.0
 40
1.987799850811747
 50
90.3570351093
 51
180.3527133108
  0
LINE
  5
12D
  8
0
  6
CONTINUOUS
 62
     7
 10
118.2311247103
 20
204.9627870539
 30
0.0
 11
115.870521497
 21
204.9627870539
 31
0.0
  0
LINE
  5
12E
  8
0
  6
CONTINUOUS
 62
     7
 10
115.4754470103
 20
168.2352155665
 30
0.0
 11
115.4754470103
 21
163.062790058
 31
0.0
  0
ARC
  5
12F
  8
0
  6
CONTINUOUS
 62
     7
 10
114.2903242716
 20
168.2473969243
 30
0.0
 40
1.185185340397777
 50
359.4111025039
 51
125.3256188161
  0
ARC
  5
130
  8
0
  6
CONTINUOUS
 62
     7
 10
114.1564231266
 20
168.2417735452
 30
0.0
 40
1.193895982895916
 50
359.6852771112
 51
86.5798636769
  0
LINE
  5
131
  8
0
  6
CONTINUOUS
 62
     7
 10
115.870521497
 20
204.9627870539
 30
0.0
 11
115.7865236513
 21
204.9627870539
 31
0.0
  0
LINE
  5
132
  8
0
  6
CONTINUOUS
 62
     7
 10
115.3503010981
 20
168.2352155665
 30
0.0
 11
115.3503010981
 21
163.062790058
 31
0.0
  0
LINE
  5
133
  8
0
  6
CONTINUOUS
 62
     7
 10
238.9737556689
 20
160.9250277499
 30
0.0
 11
239.0311251395
 21
160.5627924422
 31
0.0
  0
LINE
  5
134
  8
0
  6
CONTINUOUS
 62
     7
 10
239.0311251395
 20
160.5627924422
 30
0.0
 11
239.0311251395
 21
158.8690966586
 31
0.0
  0
LINE
  5
135
  8
0
  6
CONTINUOUS
 62
     7
 10
238.2311235182
 20
158.8690966586
 30
0.0
 11
238.2311235182
 21
159.9785119513
 31
0.0
  0
LINE
  5
136
  8
0
  6
CONTINUOUS
 62
     7
 10
239.0311251395
 20
158.8690966586
 30
0.0
 11
239.0311251395
 21
156.9442540625
 31
0.0
  0
LINE
  5
137
  8
0
  6
CONTINUOUS
 62
     7
 10
238.2311235182
 20
158.8690966586
 30
0.0
 11
238.2311235182
 21
156.9442540625
 31
0.0
  0
LINE
  5
138
  8
0
  6
CONTINUOUS
 62
     7
 10
239.0311251395
 20
156.9442540625
 30
0.0
 11
239.0311251395
 21
150.9317130068
 31
0.0
  0
LINE
  5
139
  8
0
  6
CONTINUOUS
 62
     7
 10
238.2311235182
 20
156.9442540625
 30
0.0
 11
238.2311235182
 21
150.9317130068
 31
0.0
  0
LINE
  5
13A
  8
0
  6
CONTINUOUS
 62
     7
 10
222.6311276667
 20
163.062790058
 30
0.0
 11
222.6311276667
 21
160.9974116305
 31
0.0
  0
LINE
  5
13B
  8
0
  6
CONTINUOUS
 62
     7
 10
222.6311276667
 20
156.3063711146
 30
0.0
 11
222.6311276667
 21
150.8627921561
 31
0.0
  0
LINE
  5
13C
  8
0
  6
CONTINUOUS
 62
     7
 10
239.0311251395
 20
150.9317130068
 30
0.0
 11
239.0311251395
 21
150.8627921561
 31
0.0
  0
LINE
  5
13D
  8
0
  6
CONTINUOUS
 62
     7
 10
239.0311251395
 20
163.062790058
 30
0.0
 11
239.0311251395
 21
160.5627924422
 31
0.0
  0
LINE
  5
13E
  8
0
  6
CONTINUOUS
 62
     7
 10
242.7311311476
 20
163.3627921561
 30
0.0
 11
242.7311311476
 21
154.2055577258
 31
0.0
  0
LINE
  5
13F
  8
0
  6
CONTINUOUS
 62
     7
 10
239.3311272375
 20
163.3627921561
 30
0.0
 11
239.3311272375
 21
154.2055577258
 31
0.0
  0
LINE
  5
140
  8
0
  6
CONTINUOUS
 62
     7
 10
221.931124758
 20
162.9627913455
 30
0.0
 11
221.931124758
 21
160.9550506095
 31
0.0
  0
LINE
  5
141
  8
0
  6
CONTINUOUS
 62
     7
 10
221.931124758
 20
156.2461287001
 30
0.0
 11
221.931124758
 21
150.9627908686
 31
0.0
  0
LINE
  5
142
  8
0
  6
CONTINUOUS
 62
     7
 10
232.9311261885
 20
146.3627904872
 30
0.0
 11
242.7311311476
 21
146.3627904872
 31
0.0
  0
LINE
  5
143
  8
0
  6
CONTINUOUS
 62
     7
 10
232.9311261885
 20
145.3627914408
 30
0.0
 11
232.9311261885
 21
146.3627904872
 31
0.0
  0
LINE
  5
144
  8
0
  6
CONTINUOUS
 62
     7
 10
242.7311311476
 20
146.3627904872
 30
0.0
 11
242.7311311476
 21
145.3627914408
 31
0.0
  0
ARC
  5
145
  8
0
  6
CONTINUOUS
 62
     7
 10
234.9311253302
 20
137.3627914408
 30
0.0
 40
2.0
 50
180.0
 51
270.0
  0
ARC
  5
146
  8
0
  6
CONTINUOUS
 62
     7
 10
240.7311253302
 20
137.3627914408
 30
0.0
 40
2.0
 50
270.0
 51
0.0
  0
LINE
  5
147
  8
0
  6
CONTINUOUS
 62
     7
 10
240.7311270945
 20
135.3627890566
 30
0.0
 11
234.9311242812
 21
135.3627890566
 31
0.0
  0
CIRCLE
  5
148
  8
0
  6
CONTINUOUS
 62
     7
 10
238.8311253302
 20
139.7627914408
 30
0.0
 40
1.099999999999994
  0
LINE
  5
149
  8
0
  6
CONTINUOUS
 62
     7
 10
232.9311261885
 20
137.3627931098
 30
0.0
 11
232.9311261885
 21
145.3627914408
 31
0.0
  0
LINE
  5
14A
  8
0
  6
CONTINUOUS
 62
     7
 10
242.7311311476
 20
137.3627931098
 30
0.0
 11
242.7311311476
 21
145.3627914408
 31
0.0
  0
LINE
  5
14B
  8
0
  6
CONTINUOUS
 62
     7
 10
239.3311272375
 20
149.8973816851
 30
0.0
 11
239.3311272375
 21
154.2055577258
 31
0.0
  0
LINE
  5
14C
  8
0
  6
CONTINUOUS
 62
     7
 10
242.7311311476
 20
154.2055577258
 30
0.0
 11
242.7311311476
 21
149.8973816851
 31
0.0
  0
LINE
  5
14D
  8
0
  6
CONTINUOUS
 62
     7
 10
239.3311272375
 20
149.8973816851
 30
0.0
 11
239.3311272375
 21
146.3627904872
 31
0.0
  0
LINE
  5
14E
  8
0
  6
CONTINUOUS
 62
     7
 10
242.7311311476
 20
149.8973816851
 30
0.0
 11
242.7311311476
 21
146.3627904872
 31
0.0
  0
LINE
  5
14F
  8
0
  6
CONTINUOUS
 62
     7
 10
122.7311248891
 20
163.3627921561
 30
0.0
 11
122.7311248891
 21
154.2055577258
 31
0.0
  0
LINE
  5
150
  8
0
  6
CONTINUOUS
 62
     7
 10
119.3311254494
 20
163.3627921561
 30
0.0
 11
119.3311254494
 21
154.2055577258
 31
0.0
  0
LINE
  5
151
  8
0
  6
CONTINUOUS
 62
     7
 10
101.9311259501
 20
162.9627913455
 30
0.0
 11
101.9311259501
 21
150.9627908686
 31
0.0
  0
LINE
  5
152
  8
0
  6
CONTINUOUS
 62
     7
 10
112.9311244004
 20
146.3627904872
 30
0.0
 11
122.7311248891
 21
146.3627904872
 31
0.0
  0
LINE
  5
153
  8
0
  6
CONTINUOUS
 62
     7
 10
112.9311244004
 20
145.3627914408
 30
0.0
 11
112.9311244004
 21
146.3627904872
 31
0.0
  0
LINE
  5
154
  8
0
  6
CONTINUOUS
 62
     7
 10
122.7311248891
 20
146.3627904872
 30
0.0
 11
122.7311248891
 21
145.3627914408
 31
0.0
  0
LINE
  5
155
  8
0
  6
CONTINUOUS
 62
     7
 10
120.7311253064
 20
135.3627890566
 30
0.0
 11
114.9311254732
 21
135.3627890566
 31
0.0
  0
CIRCLE
  5
156
  8
0
  6
CONTINUOUS
 62
     7
 10
118.8311253302
 20
139.7627914408
 30
0.0
 40
1.100000000000009
  0
ARC
  5
157
  8
0
  6
CONTINUOUS
 62
     7
 10
114.9311253302
 20
137.3627914408
 30
0.0
 40
2.0
 50
180.0
 51
270.0
  0
ARC
  5
158
  8
0
  6
CONTINUOUS
 62
     7
 10
120.7311253302
 20
137.3627914408
 30
0.0
 40
2.0
 50
270.0
 51
0.0
  0
LINE
  5
159
  8
0
  6
CONTINUOUS
 62
     7
 10
112.9311244004
 20
137.3627931098
 30
0.0
 11
112.9311244004
 21
145.3627914408
 31
0.0
  0
LINE
  5
15A
  8
0
  6
CONTINUOUS
 62
     7
 10
122.7311248891
 20
137.3627931098
 30
0.0
 11
122.7311248891
 21
145.3627914408
 31
0.0
  0
LINE
  5
15B
  8
0
  6
CONTINUOUS
 62
     7
 10
122.7311248891
 20
154.2055577258
 30
0.0
 11
122.7311248891
 21
149.8973816851
 31
0.0
  0
LINE
  5
15C
  8
0
  6
CONTINUOUS
 62
     7
 10
119.3311254494
 20
149.8973816851
 30
0.0
 11
119.3311254494
 21
154.2055577258
 31
0.0
  0
LINE
  5
15D
  8
0
  6
CONTINUOUS
 62
     7
 10
122.7311248891
 20
149.8973816851
 30
0.0
 11
122.7311248891
 21
146.3627904872
 31
0.0
  0
LINE
  5
15E
  8
0
  6
CONTINUOUS
 62
     7
 10
119.3311254494
 20
149.8973816851
 30
0.0
 11
119.3311254494
 21
146.3627904872
 31
0.0
  0
LINE
  5
15F
  8
0
  6
CONTINUOUS
 62
     7
 10
43.3311234228
 20
163.3627921561
 30
0.0
 11
43.3311234228
 21
154.2055577258
 31
0.0
  0
LINE
  5
160
  8
0
  6
CONTINUOUS
 62
     7
 10
39.9311195128
 20
163.3627921561
 30
0.0
 11
39.9311195128
 21
154.2055577258
 31
0.0
  0
LINE
  5
161
  8
0
  6
CONTINUOUS
 62
     7
 10
60.7311259024
 20
162.9627913455
 30
0.0
 11
60.7311259024
 21
150.9627908686
 31
0.0
  0
LINE
  5
162
  8
0
  6
CONTINUOUS
 62
     7
 10
39.9311195128
 20
146.3627904872
 30
0.0
 11
49.7311244719
 21
146.3627904872
 31
0.0
  0
LINE
  5
163
  8
0
  6
CONTINUOUS
 62
     7
 10
49.7311244719
 20
146.3627904872
 30
0.0
 11
49.7311244719
 21
145.3627914408
 31
0.0
  0
LINE
  5
164
  8
0
  6
CONTINUOUS
 62
     7
 10
39.9311195128
 20
145.3627914408
 30
0.0
 11
39.9311195128
 21
146.3627904872
 31
0.0
  0
CIRCLE
  5
165
  8
0
  6
CONTINUOUS
 62
     7
 10
43.8311253302
 20
139.7627914408
 30
0.0
 40
1.100000000000001
  0
LINE
  5
166
  8
0
  6
CONTINUOUS
 62
     7
 10
49.7311244719
 20
145.3627914408
 30
0.0
 11
49.7311244719
 21
137.3627931098
 31
0.0
  0
ARC
  5
167
  8
0
  6
CONTINUOUS
 62
     7
 10
47.7311253302
 20
137.3627914408
 30
0.0
 40
2.0
 50
270.0
 51
0.0
  0
LINE
  5
168
  8
0
  6
CONTINUOUS
 62
     7
 10
47.7311263792
 20
135.3627890566
 30
0.0
 11
41.9311235659
 21
135.3627890566
 31
0.0
  0
ARC
  5
169
  8
0
  6
CONTINUOUS
 62
     7
 10
41.9311253302
 20
137.3627914408
 30
0.0
 40
2.000000000000007
 50
180.0
 51
270.0
  0
LINE
  5
16A
  8
0
  6
CONTINUOUS
 62
     7
 10
39.9311195128
 20
137.3627931098
 30
0.0
 11
39.9311195128
 21
145.3627914408
 31
0.0
  0
LINE
  5
16B
  8
0
  6
CONTINUOUS
 62
     7
 10
43.3311234228
 20
154.2055577258
 30
0.0
 11
43.3311234228
 21
149.8973816851
 31
0.0
  0
LINE
  5
16C
  8
0
  6
CONTINUOUS
 62
     7
 10
39.9311195128
 20
149.8973816851
 30
0.0
 11
39.9311195128
 21
154.2055577258
 31
0.0
  0
LINE
  5
16D
  8
0
  6
CONTINUOUS
 62
     7
 10
43.3311234228
 20
149.8973816851
 30
0.0
 11
43.3311234228
 21
146.3627904872
 31
0.0
  0
LINE
  5
16E
  8
0
  6
CONTINUOUS
 62
     7
 10
39.9311195128
 20
149.8973816851
 30
0.0
 11
39.9311195128
 21
146.3627904872
 31
0.0
  0
LINE
  5
16F
  8
0
  6
CONTINUOUS
 62
     7
 10
159.9311257713
 20
163.3627921561
 30
0.0
 11
159.9311257713
 21
154.2055577258
 31
0.0
  0
LINE
  5
170
  8
0
  6
CONTINUOUS
 62
     7
 10
163.331125211
 20
163.3627921561
 30
0.0
 11
163.331125211
 21
154.2055577258
 31
0.0
  0
LINE
  5
171
  8
0
  6
CONTINUOUS
 62
     7
 10
180.7311247103
 20
162.9627913455
 30
0.0
 11
180.7311247103
 21
160.9549314002
 31
0.0
  0
LINE
  5
172
  8
0
  6
CONTINUOUS
 62
     7
 10
180.7311247103
 20
156.2291592578
 30
0.0
 11
180.7311247103
 21
150.9627908686
 31
0.0
  0
CIRCLE
  5
173
  8
0
  6
CONTINUOUS
 62
     7
 10
163.8311253302
 20
139.7627914408
 30
0.0
 40
1.100000000000023
  0
ARC
  5
174
  8
0
  6
CONTINUOUS
 62
     7
 10
167.7311253302
 20
137.3627914408
 30
0.0
 40
2.0
 50
270.0
 51
0.0
  0
LINE
  5
175
  8
0
  6
CONTINUOUS
 62
     7
 10
167.7311251871
 20
135.3627890566
 30
0.0
 11
161.931125354
 21
135.3627890566
 31
0.0
  0
ARC
  5
176
  8
0
  6
CONTINUOUS
 62
     7
 10
161.9311253302
 20
137.3627914408
 30
0.0
 40
2.0
 50
180.0
 51
270.0
  0
LINE
  5
177
  8
0
  6
CONTINUOUS
 62
     7
 10
169.73112626
 20
145.3627914408
 30
0.0
 11
169.73112626
 21
137.3627931098
 31
0.0
  0
LINE
  5
178
  8
0
  6
CONTINUOUS
 62
     7
 10
159.9311257713
 20
137.3627931098
 30
0.0
 11
159.9311257713
 21
145.3627914408
 31
0.0
  0
LINE
  5
179
  8
0
  6
CONTINUOUS
 62
     7
 10
159.9311257713
 20
146.3627904872
 30
0.0
 11
169.73112626
 21
146.3627904872
 31
0.0
  0
LINE
  5
17A
  8
0
  6
CONTINUOUS
 62
     7
 10
169.73112626
 20
146.3627904872
 30
0.0
 11
169.73112626
 21
145.3627914408
 31
0.0
  0
LINE
  5
17B
  8
0
  6
CONTINUOUS
 62
     7
 10
159.9311257713
 20
145.3627914408
 30
0.0
 11
159.9311257713
 21
146.3627904872
 31
0.0
  0
LINE
  5
17C
  8
0
  6
CONTINUOUS
 62
     7
 10
159.9311257713
 20
149.8973816851
 30
0.0
 11
159.9311257713
 21
154.2055577258
 31
0.0
  0
LINE
  5
17D
  8
0
  6
CONTINUOUS
 62
     7
 10
163.331125211
 20
154.2055577258
 30
0.0
 11
163.331125211
 21
149.8973816851
 31
0.0
  0
LINE
  5
17E
  8
0
  6
CONTINUOUS
 62
     7
 10
159.9311257713
 20
149.8973816851
 30
0.0
 11
159.9311257713
 21
146.3627904872
 31
0.0
  0
LINE
  5
17F
  8
0
  6
CONTINUOUS
 62
     7
 10
163.331125211
 20
149.8973816851
 30
0.0
 11
163.331125211
 21
146.3627904872
 31
0.0
  0
POLYLINE
  5
180
  8
0
  6
CONTINUOUS
 62
     7
 66
     1
 10
0.0
 20
0.0
 30
0.0
  0
VERTEX
  5
4DE
  8
0
  6
CONTINUOUS
 62
     7
 10
306.4500202744
 20
237.1018618563
 30
0.0
  0
VERTEX
  5
4DF
  8
0
  6
CONTINUOUS
 62
     7
 10
307.0352976529
 20
234.4623655299
 30
0.0
  0
VERTEX
  5
4E0
  8
0
  6
CONTINUOUS
 62
     7
 10
307.5946604221
 20
232.0005983332
 30
0.0
  0
VERTEX
  5
4E1
  8
0
  6
CONTINUOUS
 62
     7
 10
308.1332301109
 20
229.7175616244
 30
0.0
  0
VERTEX
  5
4E2
  8
0
  6
CONTINUOUS
 62
     7
 10
308.6251725762
 20
227.6082724551
 30
0.0
  0
VERTEX
  5
4E3
  8
0
  6
CONTINUOUS
 62
     7
 10
309.0353687613
 20
225.6861299494
 30
0.0
  0
VERTEX
  5
4E4
  8
0
  6
CONTINUOUS
 62
     7
 10
309.3476389854
 20
223.9855736712
 30
0.0
  0
VERTEX
  5
4E5
  8
0
  6
CONTINUOUS
 62
     7
 10
309.4793697207
 20
223.1671780566
 30
0.0
  0
SEQEND
  5
7F1
  8
0
  6
CONTINUOUS
 62
     7
  0
ARC
  5
181
  8
0
  6
CONTINUOUS
 62
     7
 10
96.1485270032
 20
186.4934961344
 30
0.0
 40
216.3961531962295
 50
5.3056924443
 51
8.16556371
  0
LINE
  5
182
  8
0
  6
CONTINUOUS
 62
     7
 10
307.6218118279
 20
237.3605221728
 30
0.0
 11
306.4500202744
 21
237.1018618563
 31
0.0
  0
LINE
  5
183
  8
0
  6
CONTINUOUS
 62
     7
 10
311.6175343601
 20
206.5035432795
 30
0.0
 11
312.8116173057
 21
206.6225737551
 31
0.0
  0
POLYLINE
  5
184
  8
0
  6
CONTINUOUS
 62
     7
 66
     1
 10
0.0
 20
0.0
 30
0.0
  0
VERTEX
  5
4E6
  8
0
  6
CONTINUOUS
 62
     7
 10
372.9813908546
 20
157.8072637538
 30
0.0
  0
VERTEX
  5
4E7
  8
0
  6
CONTINUOUS
 62
     7
 10
373.4411393611
 20
157.8464359263
 30
0.0
  0
VERTEX
  5
4E8
  8
0
  6
CONTINUOUS
 62
     7
 10
376.1293773858
 20
158.0494851092
 30
0.0
  0
VERTEX
  5
4E9
  8
0
  6
CONTINUOUS
 62
     7
 10
378.5724346845
 20
158.207747362
 30
0.0
  0
VERTEX
  5
4EA
  8
0
  6
CONTINUOUS
 62
     7
 10
380.7660227029
 20
158.3336264113
 30
0.0
  0
VERTEX
  5
4EB
  8
0
  6
CONTINUOUS
 62
     7
 10
382.437062761
 20
158.42202606
 30
0.0
  0
VERTEX
  5
4EC
  8
0
  6
CONTINUOUS
 62
     7
 10
383.9251165597
 20
158.497020624
 30
0.0
  0
VERTEX
  5
4ED
  8
0
  6
CONTINUOUS
 62
     7
 10
385.2477972715
 20
158.561965845
 30
0.0
  0
VERTEX
  5
4EE
  8
0
  6
CONTINUOUS
 62
     7
 10
386.5274493901
 20
158.6248666266
 30
0.0
  0
VERTEX
  5
4EF
  8
0
  6
CONTINUOUS
 62
     7
 10
387.7895121782
 20
158.6888224104
 30
0.0
  0
VERTEX
  5
4F0
  8
0
  6
CONTINUOUS
 62
     7
 10
389.0358751027
 20
158.7556153754
 30
0.0
  0
VERTEX
  5
4F1
  8
0
  6
CONTINUOUS
 62
     7
 10
390.2682607381
 20
158.8268548468
 30
0.0
  0
VERTEX
  5
4F2
  8
0
  6
CONTINUOUS
 62
     7
 10
391.4882426469
 20
158.9040249804
 30
0.0
  0
VERTEX
  5
4F3
  8
0
  6
CONTINUOUS
 62
     7
 10
393.0980270116
 20
159.0184182147
 30
0.0
  0
VERTEX
  5
4F4
  8
0
  6
CONTINUOUS
 62
     7
 10
394.7074835508
 20
159.1495424727
 30
0.0
  0
VERTEX
  5
4F5
  8
0
  6
CONTINUOUS
 62
     7
 10
396.3362221925
 20
159.2537492732
 30
0.0
  0
VERTEX
  5
4F6
  8
0
  6
CONTINUOUS
 62
     7
 10
396.8218033521
 20
159.2581480959
 30
0.0
  0
VERTEX
  5
4F7
  8
0
  6
CONTINUOUS
 62
     7
 10
397.3129396646
 20
159.2415958861
 30
0.0
  0
VERTEX
  5
4F8
  8
0
  6
CONTINUOUS
 62
     7
 10
397.9045753686
 20
159.1854602316
 30
0.0
  0
VERTEX
  5
4F9
  8
0
  6
CONTINUOUS
 62
     7
 10
398.6117069928
 20
159.0509027461
 30
0.0
  0
VERTEX
  5
4FA
  8
0
  6
CONTINUOUS
 62
     7
 10
399.4207625596
 20
158.7927013854
 30
0.0
  0
VERTEX
  5
4FB
  8
0
  6
CONTINUOUS
 62
     7
 10
400.3216927259
 20
158.3769589881
 30
0.0
  0
VERTEX
  5
4FC
  8
0
  6
CONTINUOUS
 62
     7
 10
401.3072495668
 20
157.7791959265
 30
0.0
  0
VERTEX
  5
4FD
  8
0
  6
CONTINUOUS
 62
     7
 10
402.3745184152
 20
156.9895655135
 30
0.0
  0
VERTEX
  5
4FE
  8
0
  6
CONTINUOUS
 62
     7
 10
403.5269265382
 20
156.0196370104
 30
0.0
  0
VERTEX
  5
4FF
  8
0
  6
CONTINUOUS
 62
     7
 10
404.3030863015
 20
155.3299337843
 30
0.0
  0
SEQEND
  5
7F0
  8
0
  6
CONTINUOUS
 62
     7
  0
LINE
  5
185
  8
0
  6
CONTINUOUS
 62
     7
 10
404.319954416
 20
155.3349167327
 30
0.0
 11
404.319954416
 21
156.9303006152
 31
0.0
  0
POLYLINE
  5
186
  8
0
  6
CONTINUOUS
 62
     7
 66
     1
 10
0.0
 20
0.0
 30
0.0
  0
VERTEX
  5
500
  8
0
  6
CONTINUOUS
 62
     7
 10
324.44851397
 20
204.6511978129
 30
0.0
  0
VERTEX
  5
501
  8
0
  6
CONTINUOUS
 62
     7
 10
324.4093459418
 20
205.110940359
 30
0.0
  0
VERTEX
  5
502
  8
0
  6
CONTINUOUS
 62
     7
 10
324.2062935925
 20
207.7991813639
 30
0.0
  0
VERTEX
  5
503
  8
0
  6
CONTINUOUS
 62
     7
 10
324.048030874
 20
210.2422327021
 30
0.0
  0
VERTEX
  5
504
  8
0
  6
CONTINUOUS
 62
     7
 10
323.9221562019
 20
212.435826681
 30
0.0
  0
VERTEX
  5
505
  8
0
  6
CONTINUOUS
 62
     7
 10
323.8337566464
 20
214.1068667391
 30
0.0
  0
VERTEX
  5
506
  8
0
  6
CONTINUOUS
 62
     7
 10
323.7587565875
 20
215.5949205378
 30
0.0
  0
VERTEX
  5
507
  8
0
  6
CONTINUOUS
 62
     7
 10
323.6938155575
 20
216.91760721
 30
0.0
  0
VERTEX
  5
508
  8
0
  6
CONTINUOUS
 62
     7
 10
323.630912727
 20
218.1972474078
 30
0.0
  0
VERTEX
  5
509
  8
0
  6
CONTINUOUS
 62
     7
 10
323.5669556393
 20
219.4593161563
 30
0.0
  0
VERTEX
  5
50A
  8
0
  6
CONTINUOUS
 62
     7
 10
323.5001669584
 20
220.7056731204
 30
0.0
  0
VERTEX
  5
50B
  8
0
  6
CONTINUOUS
 62
     7
 10
323.4289243205
 20
221.9380587557
 30
0.0
  0
VERTEX
  5
50C
  8
0
  6
CONTINUOUS
 62
     7
 10
323.3517541869
 20
223.158046625
 30
0.0
  0
VERTEX
  5
50D
  8
0
  6
CONTINUOUS
 62
     7
 10
323.2373611389
 20
224.7678250292
 30
0.0
  0
VERTEX
  5
50E
  8
0
  6
CONTINUOUS
 62
     7
 10
323.1062398611
 20
226.3772815684
 30
0.0
  0
VERTEX
  5
50F
  8
0
  6
CONTINUOUS
 62
     7
 10
323.002027659
 20
228.0060261706
 30
0.0
  0
VERTEX
  5
510
  8
0
  6
CONTINUOUS
 62
     7
 10
322.9976288362
 20
228.4916013697
 30
0.0
  0
VERTEX
  5
511
  8
0
  6
CONTINUOUS
 62
     7
 10
323.0141816048
 20
228.9827436427
 30
0.0
  0
VERTEX
  5
512
  8
0
  6
CONTINUOUS
 62
     7
 10
323.0703185631
 20
229.5743793467
 30
0.0
  0
VERTEX
  5
513
  8
0
  6
CONTINUOUS
 62
     7
 10
323.2048792152
 20
230.2815050105
 30
0.0
  0
VERTEX
  5
514
  8
0
  6
CONTINUOUS
 62
     7
 10
323.4630802034
 20
231.0905665377
 30
0.0
  0
VERTEX
  5
515
  8
0
  6
CONTINUOUS
 62
     7
 10
323.8788228801
 20
231.9914907435
 30
0.0
  0
VERTEX
  5
516
  8
0
  6
CONTINUOUS
 62
     7
 10
324.4765831942
 20
232.9770535449
 30
0.0
  0
VERTEX
  5
517
  8
0
  6
CONTINUOUS
 62
     7
 10
325.2662162499
 20
234.0443223933
 30
0.0
  0
VERTEX
  5
518
  8
0
  6
CONTINUOUS
 62
     7
 10
326.2361414118
 20
235.1967305163
 30
0.0
  0
VERTEX
  5
519
  8
0
  6
CONTINUOUS
 62
     7
 10
326.9258455692
 20
235.9728902796
 30
0.0
  0
SEQEND
  5
7EF
  8
0
  6
CONTINUOUS
 62
     7
  0
LINE
  5
187
  8
0
  6
CONTINUOUS
 62
     7
 10
326.9208629935
 20
235.9897583941
 30
0.0
 11
325.3254802402
 21
235.9897583941
 31
0.0
  0
LINE
  5
188
  8
0
  6
CONTINUOUS
 62
     7
 10
320.1929883419
 20
136.5627914885
 30
0.0
 11
320.1929883419
 21
144.5627898196
 31
0.0
  0
LINE
  5
189
  8
0
  6
CONTINUOUS
 62
     7
 10
321.1929885058
 20
145.5627888659
 30
0.0
 11
329.192988327
 21
145.5627888659
 31
0.0
  0
ARC
  5
18A
  8
0
  6
CONTINUOUS
 62
     7
 10
321.1929884164
 20
136.5627914408
 30
0.0
 40
1.000000000000028
 50
180.0
 51
270.0
  0
LINE
  5
18B
  8
0
  6
CONTINUOUS
 62
     7
 10
329.192988327
 20
135.5627924422
 30
0.0
 11
321.1929885058
 21
135.5627924422
 31
0.0
  0
ARC
  5
18C
  8
0
  6
CONTINUOUS
 62
     7
 10
321.1929884164
 20
144.5627914408
 30
0.0
 40
1.0
 50
90.0
 51
180.0
  0
ARC
  5
18D
  8
0
  6
CONTINUOUS
 62
     7
 10
329.1929884164
 20
136.5627914408
 30
0.0
 40
1.000000000000057
 50
270.0
 51
0.0
  0
ARC
  5
18E
  8
0
  6
CONTINUOUS
 62
     7
 10
329.1929884164
 20
144.5627914408
 30
0.0
 40
1.000000000000057
 50
0.0
 51
90.0
  0
LINE
  5
18F
  8
0
  6
CONTINUOUS
 62
     7
 10
330.1929884909
 20
144.5627898196
 30
0.0
 11
330.1929884909
 21
136.5627914885
 31
0.0
  0
LINE
  5
190
  8
0
  6
CONTINUOUS
 62
     7
 10
317.1929885952
 20
70.3627914408
 30
0.0
 11
313.1929886846
 21
70.3627914408
 31
0.0
  0
LINE
  5
191
  8
0
  6
CONTINUOUS
 62
     7
 10
313.1929886846
 20
70.3627914408
 30
0.0
 11
313.1929886846
 21
71.5627914513
 31
0.0
  0
LINE
  5
192
  8
0
  6
CONTINUOUS
 62
     7
 10
313.1929886846
 20
71.5627914513
 30
0.0
 11
317.1929885952
 21
71.5627914513
 31
0.0
  0
LINE
  5
193
  8
0
  6
CONTINUOUS
 62
     7
 10
317.1929885952
 20
71.5627914513
 30
0.0
 11
319.1929885505
 21
71.5627914513
 31
0.0
  0
LINE
  5
194
  8
0
  6
CONTINUOUS
 62
     7
 10
317.1929885952
 20
70.3627914408
 30
0.0
 11
319.1929885505
 21
70.3627914408
 31
0.0
  0
LINE
  5
195
  8
0
  6
CONTINUOUS
 62
     7
 10
346.5614100306
 20
71.5627914513
 30
0.0
 11
319.1929885505
 21
71.5627914513
 31
0.0
  0
LINE
  5
196
  8
0
  6
CONTINUOUS
 62
     7
 10
319.1929885505
 20
70.3627914408
 30
0.0
 11
346.5614100306
 21
70.3627914408
 31
0.0
  0
LINE
  5
197
  8
0
  6
CONTINUOUS
 62
     7
 10
349.19298788
 20
71.5627914513
 30
0.0
 11
349.19298788
 21
70.3627914408
 31
0.0
  0
LINE
  5
198
  8
0
  6
CONTINUOUS
 62
     7
 10
346.5614100306
 20
71.5627914513
 30
0.0
 11
349.19298788
 21
71.5627914513
 31
0.0
  0
LINE
  5
199
  8
0
  6
CONTINUOUS
 62
     7
 10
349.19298788
 20
70.3627914408
 30
0.0
 11
346.5614100306
 21
70.3627914408
 31
0.0
  0
LINE
  5
19A
  8
0
  6
CONTINUOUS
 62
     7
 10
320.1929883419
 20
71.5627914513
 30
0.0
 11
320.1929883419
 21
135.3627890566
 31
0.0
  0
LINE
  5
19B
  8
0
  6
CONTINUOUS
 62
     7
 10
330.1929884909
 20
136.5627914885
 30
0.0
 11
330.1929884909
 21
71.5627914513
 31
0.0
  0
POLYLINE
  5
19C
  8
0
  6
CONTINUOUS
 62
     7
 66
     1
 10
0.0
 20
0.0
 30
0.0
  0
VERTEX
  5
51A
  8
0
  6
CONTINUOUS
 62
     7
 10
316.5092361479
 20
207.104167364
 30
0.0
  0
VERTEX
  5
51B
  8
0
  6
CONTINUOUS
 62
     7
 10
317.0567890017
 20
207.2989911059
 30
0.0
  0
VERTEX
  5
51C
  8
0
  6
CONTINUOUS
 62
     7
 10
317.5897148757
 20
207.7412575701
 30
0.0
  0
VERTEX
  5
51D
  8
0
  6
CONTINUOUS
 62
     7
 10
318.0886921792
 20
208.4231108645
 30
0.0
  0
VERTEX
  5
51E
  8
0
  6
CONTINUOUS
 62
     7
 10
318.5333867876
 20
209.3218893031
 30
0.0
  0
VERTEX
  5
51F
  8
0
  6
CONTINUOUS
 62
     7
 10
318.9015013485
 20
210.4101747492
 30
0.0
  0
VERTEX
  5
520
  8
0
  6
CONTINUOUS
 62
     7
 10
319.1772436111
 20
211.656758211
 30
0.0
  0
VERTEX
  5
521
  8
0
  6
CONTINUOUS
 62
     7
 10
319.3434422223
 20
213.030490301
 30
0.0
  0
VERTEX
  5
522
  8
0
  6
CONTINUOUS
 62
     7
 10
319.3890990077
 20
214.4877404193
 30
0.0
  0
VERTEX
  5
523
  8
0
  6
CONTINUOUS
 62
     7
 10
319.3406426667
 20
215.5862778643
 30
0.0
  0
SEQEND
  5
7EE
  8
0
  6
CONTINUOUS
 62
     7
  0
POLYLINE
  5
19D
  8
0
  6
CONTINUOUS
 62
     7
 66
     1
 10
0.0
 20
0.0
 30
0.0
  0
VERTEX
  5
524
  8
0
  6
CONTINUOUS
 62
     7
 10
316.5092361479
 20
207.104167364
 30
0.0
  0
VERTEX
  5
525
  8
0
  6
CONTINUOUS
 62
     7
 10
315.4484753816
 20
206.9739192942
 30
0.0
  0
VERTEX
  5
526
  8
0
  6
CONTINUOUS
 62
     7
 10
314.5140630512
 20
206.859192274
 30
0.0
  0
VERTEX
  5
527
  8
0
  6
CONTINUOUS
 62
     7
 10
313.707723221
 20
206.760188959
 30
0.0
  0
VERTEX
  5
528
  8
0
  6
CONTINUOUS
 62
     7
 10
312.7958250551
 20
206.6482156733
 30
0.0
  0
VERTEX
  5
529
  8
0
  6
CONTINUOUS
 62
     7
 10
312.1419911592
 20
206.5679401377
 30
0.0
  0
VERTEX
  5
52A
  8
0
  6
CONTINUOUS
 62
     7
 10
311.7488061397
 20
206.5196603755
 30
0.0
  0
VERTEX
  5
52B
  8
0
  6
CONTINUOUS
 62
     7
 10
311.6175343601
 20
206.5035432795
 30
0.0
  0
SEQEND
  5
7ED
  8
0
  6
CONTINUOUS
 62
     7
  0
POLYLINE
  5
19E
  8
0
  6
CONTINUOUS
 62
     7
 66
     1
 10
0.0
 20
0.0
 30
0.0
  0
VERTEX
  5
52C
  8
0
  6
CONTINUOUS
 62
     7
 10
306.4500202744
 20
237.1018618563
 30
0.0
  0
VERTEX
  5
52D
  8
0
  6
CONTINUOUS
 62
     7
 10
306.5470372646
 20
237.1137708644
 30
0.0
  0
VERTEX
  5
52E
  8
0
  6
CONTINUOUS
 62
     7
 10
306.8376769631
 20
237.1494502047
 30
0.0
  0
VERTEX
  5
52F
  8
0
  6
CONTINUOUS
 62
     7
 10
307.3212926595
 20
237.2088402728
 30
0.0
  0
VERTEX
  5
530
  8
0
  6
CONTINUOUS
 62
     7
 10
307.9966132848
 20
237.2917503337
 30
0.0
  0
VERTEX
  5
531
  8
0
  6
CONTINUOUS
 62
     7
 10
308.8617374508
 20
237.3979777316
 30
0.0
  0
VERTEX
  5
532
  8
0
  6
CONTINUOUS
 62
     7
 10
309.8321144788
 20
237.5171274165
 30
0.0
  0
VERTEX
  5
533
  8
0
  6
CONTINUOUS
 62
     7
 10
310.9616627304
 20
237.6558155039
 30
0.0
  0
VERTEX
  5
534
  8
0
  6
CONTINUOUS
 62
     7
 10
312.2478803007
 20
237.8137439707
 30
0.0
  0
SEQEND
  5
7EC
  8
0
  6
CONTINUOUS
 62
     7
  0
POLYLINE
  5
19F
  8
0
  6
CONTINUOUS
 62
     7
 66
     1
 10
0.0
 20
0.0
 30
0.0
  0
VERTEX
  5
535
  8
0
  6
CONTINUOUS
 62
     7
 10
317.7060407905
 20
230.0034374217
 30
0.0
  0
VERTEX
  5
536
  8
0
  6
CONTINUOUS
 62
     7
 10
317.4034600465
 20
231.3152522067
 30
0.0
  0
VERTEX
  5
537
  8
0
  6
CONTINUOUS
 62
     7
 10
316.9855048268
 20
232.5854271868
 30
0.0
  0
VERTEX
  5
538
  8
0
  6
CONTINUOUS
 62
     7
 10
316.467635086
 20
233.778247259
 30
0.0
  0
VERTEX
  5
539
  8
0
  6
CONTINUOUS
 62
     7
 10
315.8740294485
 20
234.8634809474
 30
0.0
  0
VERTEX
  5
53A
  8
0
  6
CONTINUOUS
 62
     7
 10
315.228580436
 20
235.8116954783
 30
0.0
  0
VERTEX
  5
53B
  8
0
  6
CONTINUOUS
 62
     7
 10
314.5583880453
 20
236.5988821009
 30
0.0
  0
VERTEX
  5
53C
  8
0
  6
CONTINUOUS
 62
     7
 10
313.891280195
 20
237.2001618365
 30
0.0
  0
VERTEX
  5
53D
  8
0
  6
CONTINUOUS
 62
     7
 10
313.2479471473
 20
237.6056641558
 30
0.0
  0
VERTEX
  5
53E
  8
0
  6
CONTINUOUS
 62
     7
 10
312.7253366022
 20
237.7889245967
 30
0.0
  0
VERTEX
  5
53F
  8
0
  6
CONTINUOUS
 62
     7
 10
312.2478803007
 20
237.8137439707
 30
0.0
  0
SEQEND
  5
7EB
  8
0
  6
CONTINUOUS
 62
     7
  0
POLYLINE
  5
1A0
  8
0
  6
CONTINUOUS
 62
     7
 66
     1
 10
0.0
 20
0.0
 30
0.0
  0
VERTEX
  5
540
  8
0
  6
CONTINUOUS
 62
     7
 10
317.7060407905
 20
230.0034374217
 30
0.0
  0
VERTEX
  5
541
  8
0
  6
CONTINUOUS
 62
     7
 10
318.2791461556
 20
226.4305561999
 30
0.0
  0
VERTEX
  5
542
  8
0
  6
CONTINUOUS
 62
     7
 10
318.7034038214
 20
222.8270381907
 30
0.0
  0
VERTEX
  5
543
  8
0
  6
CONTINUOUS
 62
     7
 10
319.0436509757
 20
219.2086428622
 30
0.0
  0
VERTEX
  5
544
  8
0
  6
CONTINUOUS
 62
     7
 10
319.3406426667
 20
215.5862778643
 30
0.0
  0
SEQEND
  5
7EA
  8
0
  6
CONTINUOUS
 62
     7
  0
POLYLINE
  5
1A1
  8
0
  6
CONTINUOUS
 62
     7
 66
     1
 10
0.0
 20
0.0
 30
0.0
  0
VERTEX
  5
545
  8
0
  6
CONTINUOUS
 62
     7
 10
313.2584681122
 20
238.0827754954
 30
0.0
  0
VERTEX
  5
546
  8
0
  6
CONTINUOUS
 62
     7
 10
313.8110359518
 20
238.042065523
 30
0.0
  0
VERTEX
  5
547
  8
0
  6
CONTINUOUS
 62
     7
 10
314.4219723849
 20
237.7911180476
 30
0.0
  0
VERTEX
  5
548
  8
0
  6
CONTINUOUS
 62
     7
 10
315.0740799813
 20
237.3324364642
 30
0.0
  0
VERTEX
  5
549
  8
0
  6
CONTINUOUS
 62
     7
 10
315.7446933298
 20
236.680409334
 30
0.0
  0
VERTEX
  5
54A
  8
0
  6
CONTINUOUS
 62
     7
 10
316.4066640048
 20
235.854038618
 30
0.0
  0
VERTEX
  5
54B
  8
0
  6
CONTINUOUS
 62
     7
 10
317.0379308371
 20
234.8743170718
 30
0.0
  0
VERTEX
  5
54C
  8
0
  6
CONTINUOUS
 62
     7
 10
317.6134881882
 20
233.7620347956
 30
0.0
  0
VERTEX
  5
54D
  8
0
  6
CONTINUOUS
 62
     7
 10
318.1079482047
 20
232.5501173953
 30
0.0
  0
VERTEX
  5
54E
  8
0
  6
CONTINUOUS
 62
     7
 10
318.4551303594
 20
231.4347714404
 30
0.0
  0
VERTEX
  5
54F
  8
0
  6
CONTINUOUS
 62
     7
 10
318.713407716
 20
230.2908867816
 30
0.0
  0
SEQEND
  5
7E9
  8
0
  6
CONTINUOUS
 62
     7
  0
ARC
  5
1A2
  8
0
  6
CONTINUOUS
 62
     7
 10
232.6946668666
 20
214.4800674862
 30
0.0
 40
87.45973807483449
 50
5.2506186278
 51
10.4150945389
  0
POLYLINE
  5
1A3
  8
0
  6
CONTINUOUS
 62
     7
 66
     1
 10
0.0
 20
0.0
 30
0.0
  0
VERTEX
  5
550
  8
0
  6
CONTINUOUS
 62
     7
 10
317.5677080958
 20
207.213231943
 30
0.0
  0
VERTEX
  5
551
  8
0
  6
CONTINUOUS
 62
     7
 10
316.5464935212
 20
207.0864051798
 30
0.0
  0
VERTEX
  5
552
  8
0
  6
CONTINUOUS
 62
     7
 10
315.6455663352
 20
206.9745153407
 30
0.0
  0
VERTEX
  5
553
  8
0
  6
CONTINUOUS
 62
     7
 10
314.8665693908
 20
206.8777770022
 30
0.0
  0
VERTEX
  5
554
  8
0
  6
CONTINUOUS
 62
     7
 10
313.970046988
 20
206.7664355258
 30
0.0
  0
VERTEX
  5
555
  8
0
  6
CONTINUOUS
 62
     7
 10
313.3272332458
 20
206.6866010645
 30
0.0
  0
VERTEX
  5
556
  8
0
  6
CONTINUOUS
 62
     7
 10
312.9406777529
 20
206.6385954836
 30
0.0
  0
VERTEX
  5
557
  8
0
  6
CONTINUOUS
 62
     7
 10
312.8116173057
 20
206.6225737551
 30
0.0
  0
SEQEND
  5
7E8
  8
0
  6
CONTINUOUS
 62
     7
  0
POLYLINE
  5
1A4
  8
0
  6
CONTINUOUS
 62
     7
 66
     1
 10
0.0
 20
0.0
 30
0.0
  0
VERTEX
  5
558
  8
0
  6
CONTINUOUS
 62
     7
 10
319.985088831
 20
210.7080668429
 30
0.0
  0
VERTEX
  5
559
  8
0
  6
CONTINUOUS
 62
     7
 10
319.8633426188
 20
210.2176755885
 30
0.0
  0
VERTEX
  5
55A
  8
0
  6
CONTINUOUS
 62
     7
 10
319.4728111236
 20
209.1747015933
 30
0.0
  0
VERTEX
  5
55B
  8
0
  6
CONTINUOUS
 62
     7
 10
319.0135405718
 20
208.3300203303
 30
0.0
  0
VERTEX
  5
55C
  8
0
  6
CONTINUOUS
 62
     7
 10
318.5069804399
 20
207.7125042895
 30
0.0
  0
VERTEX
  5
55D
  8
0
  6
CONTINUOUS
 62
     7
 10
317.9723975568
 20
207.3331922511
 30
0.0
  0
VERTEX
  5
55E
  8
0
  6
CONTINUOUS
 62
     7
 10
317.5677080958
 20
207.213231943
 30
0.0
  0
SEQEND
  5
7E7
  8
0
  6
CONTINUOUS
 62
     7
  0
LINE
  5
1A5
  8
0
  6
CONTINUOUS
 62
     7
 10
313.2584889738
 20
238.0827754954
 30
0.0
 11
312.4104698508
 21
237.9741281489
 31
0.0
  0
POLYLINE
  5
1A6
  8
0
  6
CONTINUOUS
 62
     7
 66
     1
 10
0.0
 20
0.0
 30
0.0
  0
VERTEX
  5
55F
  8
0
  6
CONTINUOUS
 62
     7
 10
307.6218118279
 20
237.3605221728
 30
0.0
  0
VERTEX
  5
560
  8
0
  6
CONTINUOUS
 62
     7
 10
307.7171569078
 20
237.372729204
 30
0.0
  0
VERTEX
  5
561
  8
0
  6
CONTINUOUS
 62
     7
 10
308.0027808754
 20
237.4093383769
 30
0.0
  0
VERTEX
  5
562
  8
0
  6
CONTINUOUS
 62
     7
 10
308.4780400007
 20
237.4702424029
 30
0.0
  0
VERTEX
  5
563
  8
0
  6
CONTINUOUS
 62
     7
 10
309.1417034476
 20
237.5552863101
 30
0.0
  0
VERTEX
  5
564
  8
0
  6
CONTINUOUS
 62
     7
 10
309.9918802588
 20
237.6642316798
 30
0.0
  0
VERTEX
  5
565
  8
0
  6
CONTINUOUS
 62
     7
 10
310.9297995775
 20
237.7844184855
 30
0.0
  0
VERTEX
  5
566
  8
0
  6
CONTINUOUS
 62
     7
 10
312.0194574206
 20
237.9240364054
 30
0.0
  0
VERTEX
  5
567
  8
0
  6
CONTINUOUS
 62
     7
 10
313.2584681122
 20
238.0827754954
 30
0.0
  0
SEQEND
  5
7E6
  8
0
  6
CONTINUOUS
 62
     7
  0
LINE
  5
1A7
  8
0
  6
CONTINUOUS
 62
     7
 10
314.7915584354
 20
217.774364374
 30
0.0
 11
314.6349829941
 21
219.0495699862
 31
0.0
  0
LINE
  5
1A8
  8
0
  6
CONTINUOUS
 62
     7
 10
314.2251779644
 20
217.7048295954
 30
0.0
 11
313.4939623384
 21
223.6601084689
 31
0.0
  0
LINE
  5
1A9
  8
0
  6
CONTINUOUS
 62
     7
 10
314.7915584354
 20
217.774364374
 30
0.0
 11
314.2251779644
 21
217.7048295954
 31
0.0
  0
LINE
  5
1AA
  8
0
  6
CONTINUOUS
 62
     7
 10
313.9531475811
 20
223.7164825419
 30
0.0
 11
313.4939623384
 21
223.6601084689
 31
0.0
  0
LINE
  5
1AB
  8
0
  6
CONTINUOUS
 62
     7
 10
314.2251779644
 20
217.7048295954
 30
0.0
 11
312.5026320426
 21
217.4933284739
 31
0.0
  0
LINE
  5
1AC
  8
0
  6
CONTINUOUS
 62
     7
 10
313.4939623384
 20
223.6601084689
 30
0.0
 11
311.7714171617
 21
223.4486073474
 31
0.0
  0
POLYLINE
  5
1AD
  8
0
  6
CONTINUOUS
 62
     7
 66
     1
 10
0.0
 20
0.0
 30
0.0
  0
VERTEX
  5
568
  8
0
  6
CONTINUOUS
 62
     7
 10
312.5026320426
 20
217.4933284739
 30
0.0
  0
VERTEX
  5
569
  8
0
  6
CONTINUOUS
 62
     7
 10
312.4706079571
 20
217.4893945674
 30
0.0
  0
VERTEX
  5
56A
  8
0
  6
CONTINUOUS
 62
     7
 10
312.4309321253
 20
217.4845189074
 30
0.0
  0
VERTEX
  5
56B
  8
0
  6
CONTINUOUS
 62
     7
 10
312.3839368431
 20
217.4787491778
 30
0.0
  0
VERTEX
  5
56C
  8
0
  6
CONTINUOUS
 62
     7
 10
312.3300184815
 20
217.4721330622
 30
0.0
  0
VERTEX
  5
56D
  8
0
  6
CONTINUOUS
 62
     7
 10
312.2696285455
 20
217.4647182444
 30
0.0
  0
VERTEX
  5
56E
  8
0
  6
CONTINUOUS
 62
     7
 10
312.2032721846
 20
217.456564329
 30
0.0
  0
VERTEX
  5
56F
  8
0
  6
CONTINUOUS
 62
     7
 10
312.1315081923
 20
217.4477547625
 30
0.0
  0
VERTEX
  5
570
  8
0
  6
CONTINUOUS
 62
     7
 10
312.0549385755
 20
217.4383491496
 30
0.0
  0
SEQEND
  5
7E5
  8
0
  6
CONTINUOUS
 62
     7
  0
POLYLINE
  5
1AE
  8
0
  6
CONTINUOUS
 62
     7
 66
     1
 10
0.0
 20
0.0
 30
0.0
  0
VERTEX
  5
571
  8
0
  6
CONTINUOUS
 62
     7
 10
311.3237222044
 20
223.393628023
 30
0.0
  0
VERTEX
  5
572
  8
0
  6
CONTINUOUS
 62
     7
 10
311.4002918212
 20
223.403033636
 30
0.0
  0
VERTEX
  5
573
  8
0
  6
CONTINUOUS
 62
     7
 10
311.4720558135
 20
223.4118432025
 30
0.0
  0
VERTEX
  5
574
  8
0
  6
CONTINUOUS
 62
     7
 10
311.5384121744
 20
223.4199971179
 30
0.0
  0
VERTEX
  5
575
  8
0
  6
CONTINUOUS
 62
     7
 10
311.5988021104
 20
223.4274119357
 30
0.0
  0
VERTEX
  5
576
  8
0
  6
CONTINUOUS
 62
     7
 10
311.6527204721
 20
223.4340280512
 30
0.0
  0
VERTEX
  5
577
  8
0
  6
CONTINUOUS
 62
     7
 10
311.6997157542
 20
223.4397977809
 30
0.0
  0
VERTEX
  5
578
  8
0
  6
CONTINUOUS
 62
     7
 10
311.739391586
 20
223.4446734408
 30
0.0
  0
VERTEX
  5
579
  8
0
  6
CONTINUOUS
 62
     7
 10
311.7714171617
 20
223.4486073474
 30
0.0
  0
SEQEND
  5
7E4
  8
0
  6
CONTINUOUS
 62
     7
  0
LINE
  5
1AF
  8
0
  6
CONTINUOUS
 62
     7
 10
312.0549385755
 20
217.4383491496
 30
0.0
 11
307.7237476914
 21
216.9065565089
 31
0.0
  0
LINE
  5
1B0
  8
0
  6
CONTINUOUS
 62
     7
 10
311.3237222044
 20
223.393628023
 30
0.0
 11
306.9925328104
 21
222.8618234614
 31
0.0
  0
LINE
  5
1B1
  8
0
  6
CONTINUOUS
 62
     7
 10
330.1929884909
 20
144.5627898196
 30
0.0
 11
330.1929884909
 21
145.5092042903
 31
0.0
  0
LINE
  5
1B2
  8
0
  6
CONTINUOUS
 62
     7
 10
330.3929885237
 20
135.7627898673
 30
0.0
 11
330.1929884909
 21
135.7627898673
 31
0.0
  0
LINE
  5
1B3
  8
0
  6
CONTINUOUS
 62
     7
 10
307.2274749486
 20
216.8456167201
 30
0.0
 11
306.4962585776
 21
222.8008955935
 31
0.0
  0
POLYLINE
  5
1B4
  8
0
  6
CONTINUOUS
 62
     7
 66
     1
 10
0.0
 20
0.0
 30
0.0
  0
VERTEX
  5
57A
  8
0
  6
CONTINUOUS
 62
     7
 10
307.7237476914
 20
216.9065565089
 30
0.0
  0
VERTEX
  5
57B
  8
0
  6
CONTINUOUS
 62
     7
 10
307.6157977192
 20
216.8933004359
 30
0.0
  0
VERTEX
  5
57C
  8
0
  6
CONTINUOUS
 62
     7
 10
307.5181846826
 20
216.8813079814
 30
0.0
  0
VERTEX
  5
57D
  8
0
  6
CONTINUOUS
 62
     7
 10
307.4325819819
 20
216.8708056429
 30
0.0
  0
VERTEX
  5
57E
  8
0
  6
CONTINUOUS
 62
     7
 10
307.360451421
 20
216.8619483927
 30
0.0
  0
VERTEX
  5
57F
  8
0
  6
CONTINUOUS
 62
     7
 10
307.3030283062
 20
216.8548912028
 30
0.0
  0
VERTEX
  5
580
  8
0
  6
CONTINUOUS
 62
     7
 10
307.2612961142
 20
216.8497652033
 30
0.0
  0
VERTEX
  5
581
  8
0
  6
CONTINUOUS
 62
     7
 10
307.2359671204
 20
216.8466538409
 30
0.0
  0
VERTEX
  5
582
  8
0
  6
CONTINUOUS
 62
     7
 10
307.2274749486
 20
216.8456167201
 30
0.0
  0
SEQEND
  5
7E3
  8
0
  6
CONTINUOUS
 62
     7
  0
POLYLINE
  5
1B5
  8
0
  6
CONTINUOUS
 62
     7
 66
     1
 10
0.0
 20
0.0
 30
0.0
  0
VERTEX
  5
583
  8
0
  6
CONTINUOUS
 62
     7
 10
306.4962585776
 20
222.8008955935
 30
0.0
  0
VERTEX
  5
584
  8
0
  6
CONTINUOUS
 62
     7
 10
306.5047507493
 20
222.8019327143
 30
0.0
  0
VERTEX
  5
585
  8
0
  6
CONTINUOUS
 62
     7
 10
306.5300797431
 20
222.8050440768
 30
0.0
  0
VERTEX
  5
586
  8
0
  6
CONTINUOUS
 62
     7
 10
306.5718119352
 20
222.8101700762
 30
0.0
  0
VERTEX
  5
587
  8
0
  6
CONTINUOUS
 62
     7
 10
306.6292350499
 20
222.8172272662
 30
0.0
  0
VERTEX
  5
588
  8
0
  6
CONTINUOUS
 62
     7
 10
306.7013656108
 20
222.8260725955
 30
0.0
  0
VERTEX
  5
589
  8
0
  6
CONTINUOUS
 62
     7
 10
306.7869698016
 20
222.8365868548
 30
0.0
  0
VERTEX
  5
58A
  8
0
  6
CONTINUOUS
 62
     7
 10
306.8845813482
 20
222.8485793093
 30
0.0
  0
VERTEX
  5
58B
  8
0
  6
CONTINUOUS
 62
     7
 10
306.9925328104
 20
222.8618234614
 30
0.0
  0
SEQEND
  5
7E2
  8
0
  6
CONTINUOUS
 62
     7
  0
LINE
  5
1B6
  8
0
  6
CONTINUOUS
 62
     7
 10
314.5929885416
 20
135.7627898673
 30
0.0
 11
319.3929885833
 21
135.7627898673
 31
0.0
  0
LINE
  5
1B7
  8
0
  6
CONTINUOUS
 62
     7
 10
305.8977728097
 20
222.7274030665
 30
0.0
 11
301.9275878875
 21
222.2399324397
 31
0.0
  0
LINE
  5
1B8
  8
0
  6
CONTINUOUS
 62
     7
 10
303.3805077283
 20
202.2013396243
 30
0.0
 11
300.9350409119
 21
222.118064783
 31
0.0
  0
POLYLINE
  5
1B9
  8
0
  6
CONTINUOUS
 62
     7
 66
     1
 10
0.0
 20
0.0
 30
0.0
  0
VERTEX
  5
58C
  8
0
  6
CONTINUOUS
 62
     7
 10
300.9350409119
 20
222.118064783
 30
0.0
  0
VERTEX
  5
58D
  8
0
  6
CONTINUOUS
 62
     7
 10
300.9541129081
 20
222.120401285
 30
0.0
  0
VERTEX
  5
58E
  8
0
  6
CONTINUOUS
 62
     7
 10
301.0105942695
 20
222.1273392657
 30
0.0
  0
VERTEX
  5
58F
  8
0
  6
CONTINUOUS
 62
     7
 10
301.102315387
 20
222.1386045436
 30
0.0
  0
VERTEX
  5
590
  8
0
  6
CONTINUOUS
 62
     7
 10
301.225752136
 20
222.1537560443
 30
0.0
  0
VERTEX
  5
591
  8
0
  6
CONTINUOUS
 62
     7
 10
301.3761584966
 20
222.1722215632
 30
0.0
  0
VERTEX
  5
592
  8
0
  6
CONTINUOUS
 62
     7
 10
301.5477572887
 20
222.1932977656
 30
0.0
  0
VERTEX
  5
593
  8
0
  6
CONTINUOUS
 62
     7
 10
301.7339517681
 20
222.2161501864
 30
0.0
  0
VERTEX
  5
594
  8
0
  6
CONTINUOUS
 62
     7
 10
301.9275878875
 20
222.2399324397
 30
0.0
  0
SEQEND
  5
7E1
  8
0
  6
CONTINUOUS
 62
     7
  0
LINE
  5
1BA
  8
0
  6
CONTINUOUS
 62
     7
 10
313.2341695337
 20
159.0333968619
 30
0.0
 11
303.7440290062
 21
200.1397103289
 31
0.0
  0
ARC
  5
1BB
  8
0
  6
CONTINUOUS
 62
     7
 10
323.2314302599
 20
204.6387291318
 30
0.0
 40
20.00000000000003
 50
187.0
 51
193.0
  0
LINE
  5
1BC
  8
0
  6
CONTINUOUS
 62
     7
 10
307.6215346663
 20
216.8940037707
 30
0.0
 11
309.3357836215
 21
202.9325574854
 31
0.0
  0
POLYLINE
  5
1BD
  8
0
  6
CONTINUOUS
 62
     7
 66
     1
 10
0.0
 20
0.0
 30
0.0
  0
VERTEX
  5
595
  8
0
  6
CONTINUOUS
 62
     7
 10
305.8977728097
 20
222.7274030665
 30
0.0
  0
VERTEX
  5
596
  8
0
  6
CONTINUOUS
 62
     7
 10
305.9779857604
 20
222.7372616747
 30
0.0
  0
VERTEX
  5
597
  8
0
  6
CONTINUOUS
 62
     7
 10
306.0576741903
 20
222.7470368365
 30
0.0
  0
VERTEX
  5
598
  8
0
  6
CONTINUOUS
 62
     7
 10
306.1363180487
 20
222.7566927889
 30
0.0
  0
VERTEX
  5
599
  8
0
  6
CONTINUOUS
 62
     7
 10
306.2133987753
 20
222.7661580065
 30
0.0
  0
VERTEX
  5
59A
  8
0
  6
CONTINUOUS
 62
     7
 10
306.2884171812
 20
222.7753728846
 30
0.0
  0
VERTEX
  5
59B
  8
0
  6
CONTINUOUS
 62
     7
 10
306.3608785479
 20
222.7842658976
 30
0.0
  0
VERTEX
  5
59C
  8
0
  6
CONTINUOUS
 62
     7
 10
306.4303105085
 20
222.7928012827
 30
0.0
  0
VERTEX
  5
59D
  8
0
  6
CONTINUOUS
 62
     7
 10
306.4962585776
 20
222.8008955935
 30
0.0
  0
SEQEND
  5
7E0
  8
0
  6
CONTINUOUS
 62
     7
  0
LINE
  5
1BE
  8
0
  6
CONTINUOUS
 62
     7
 10
309.5902492611
 20
201.4894098261
 30
0.0
 11
319.0803897886
 21
160.3831023196
 31
0.0
  0
ARC
  5
1BF
  8
0
  6
CONTINUOUS
 62
     7
 10
323.2314302599
 20
204.6387291318
 30
0.0
 40
14.00000000000004
 50
187.0
 51
193.0
  0
LINE
  5
1C0
  8
0
  6
CONTINUOUS
 62
     7
 10
313.5929887502
 20
135.7627898673
 30
0.0
 11
313.5929887502
 21
155.8840781668
 31
0.0
  0
LINE
  5
1C1
  8
0
  6
CONTINUOUS
 62
     7
 10
314.5929885416
 20
135.7627898673
 30
0.0
 11
313.5929887502
 21
135.7627898673
 31
0.0
  0
ARC
  5
1C2
  8
0
  6
CONTINUOUS
 62
     7
 10
299.5929884164
 20
155.8840792748
 30
0.0
 40
14.00000000000004
 50
0.0
 51
13.0
  0
POLYLINE
  5
1C3
  8
0
  6
CONTINUOUS
 62
     7
 66
     1
 10
0.0
 20
0.0
 30
0.0
  0
VERTEX
  5
59E
  8
0
  6
CONTINUOUS
 62
     7
 10
319.0803897886
 20
160.3831023196
 30
0.0
  0
VERTEX
  5
59F
  8
0
  6
CONTINUOUS
 62
     7
 10
319.2001347749
 20
159.8286718348
 30
0.0
  0
VERTEX
  5
5A0
  8
0
  6
CONTINUOUS
 62
     7
 10
319.2974006145
 20
159.3098849276
 30
0.0
  0
SEQEND
  5
7DF
  8
0
  6
CONTINUOUS
 62
     7
  0
POLYLINE
  5
1C4
  8
0
  6
CONTINUOUS
 62
     7
 66
     1
 10
0.0
 20
0.0
 30
0.0
  0
VERTEX
  5
5A1
  8
0
  6
CONTINUOUS
 62
     7
 10
395.9819500654
 20
160.9018415431
 30
0.0
  0
VERTEX
  5
5A2
  8
0
  6
CONTINUOUS
 62
     7
 10
394.7776441781
 20
161.0687822321
 30
0.0
  0
VERTEX
  5
5A3
  8
0
  6
CONTINUOUS
 62
     7
 10
393.5640638082
 20
161.1805588225
 30
0.0
  0
VERTEX
  5
5A4
  8
0
  6
CONTINUOUS
 62
     7
 10
391.258937618
 20
161.2781256655
 30
0.0
  0
VERTEX
  5
5A5
  8
0
  6
CONTINUOUS
 62
     7
 10
388.951004049
 20
161.2659365157
 30
0.0
  0
VERTEX
  5
5A6
  8
0
  6
CONTINUOUS
 62
     7
 10
384.3207483499
 20
161.1165374735
 30
0.0
  0
SEQEND
  5
7DE
  8
0
  6
CONTINUOUS
 62
     7
  0
POLYLINE
  5
1C5
  8
0
  6
CONTINUOUS
 62
     7
 66
     1
 10
0.0
 20
0.0
 30
0.0
  0
VERTEX
  5
5A7
  8
0
  6
CONTINUOUS
 62
     7
 10
384.3207483499
 20
161.116543434
 30
0.0
  0
VERTEX
  5
5A8
  8
0
  6
CONTINUOUS
 62
     7
 10
382.9578345029
 20
161.0956698874
 30
0.0
  0
VERTEX
  5
5A9
  8
0
  6
CONTINUOUS
 62
     7
 10
381.4852481096
 20
161.0896438578
 30
0.0
  0
VERTEX
  5
5AA
  8
0
  6
CONTINUOUS
 62
     7
 10
380.0863926618
 20
161.0943764666
 30
0.0
  0
VERTEX
  5
5AB
  8
0
  6
CONTINUOUS
 62
     7
 10
378.6069398134
 20
161.1046046237
 30
0.0
  0
VERTEX
  5
5AC
  8
0
  6
CONTINUOUS
 62
     7
 10
377.1784548967
 20
161.1147254923
 30
0.0
  0
VERTEX
  5
5AD
  8
0
  6
CONTINUOUS
 62
     7
 10
375.6662314145
 20
161.1201435546
 30
0.0
  0
VERTEX
  5
5AE
  8
0
  6
CONTINUOUS
 62
     7
 10
374.3213807552
 20
161.1165076712
 30
0.0
  0
SEQEND
  5
7DD
  8
0
  6
CONTINUOUS
 62
     7
  0
POLYLINE
  5
1C6
  8
0
  6
CONTINUOUS
 62
     7
 66
     1
 10
0.0
 20
0.0
 30
0.0
  0
VERTEX
  5
5AF
  8
0
  6
CONTINUOUS
 62
     7
 10
374.3213807552
 20
161.1165076712
 30
0.0
  0
VERTEX
  5
5B0
  8
0
  6
CONTINUOUS
 62
     7
 10
371.8907838075
 20
161.127194784
 30
0.0
  0
VERTEX
  5
5B1
  8
0
  6
CONTINUOUS
 62
     7
 10
364.3199627607
 20
161.1165374735
 30
0.0
  0
SEQEND
  5
7DC
  8
0
  6
CONTINUOUS
 62
     7
  0
POLYLINE
  5
1C7
  8
0
  6
CONTINUOUS
 62
     7
 66
     1
 10
0.0
 20
0.0
 30
0.0
  0
VERTEX
  5
5B2
  8
0
  6
CONTINUOUS
 62
     7
 10
364.3199627607
 20
161.1165255526
 30
0.0
  0
VERTEX
  5
5B3
  8
0
  6
CONTINUOUS
 62
     7
 10
362.7978031842
 20
161.1876458148
 30
0.0
  0
VERTEX
  5
5B4
  8
0
  6
CONTINUOUS
 62
     7
 10
361.0588436334
 20
161.2731367568
 30
0.0
  0
VERTEX
  5
5B5
  8
0
  6
CONTINUOUS
 62
     7
 10
359.4012295215
 20
161.3263875464
 30
0.0
  0
VERTEX
  5
5B6
  8
0
  6
CONTINUOUS
 62
     7
 10
357.8089838235
 20
161.3220602492
 30
0.0
  0
VERTEX
  5
5B7
  8
0
  6
CONTINUOUS
 62
     7
 10
356.2051569431
 20
161.2331599215
 30
0.0
  0
SEQEND
  5
7DB
  8
0
  6
CONTINUOUS
 62
     7
  0
POLYLINE
  5
1C8
  8
0
  6
CONTINUOUS
 62
     7
 66
     1
 10
0.0
 20
0.0
 30
0.0
  0
VERTEX
  5
5B8
  8
0
  6
CONTINUOUS
 62
     7
 10
341.1334638803
 20
162.2774750212
 30
0.0
  0
VERTEX
  5
5B9
  8
0
  6
CONTINUOUS
 62
     7
 10
343.8600366323
 20
162.2794777373
 30
0.0
  0
VERTEX
  5
5BA
  8
0
  6
CONTINUOUS
 62
     7
 10
346.5671603887
 20
162.2820466975
 30
0.0
  0
VERTEX
  5
5BB
  8
0
  6
CONTINUOUS
 62
     7
 10
349.2860575526
 20
162.2836202601
 30
0.0
  0
VERTEX
  5
5BC
  8
0
  6
CONTINUOUS
 62
     7
 10
352.0113264529
 20
162.2849554041
 30
0.0
  0
VERTEX
  5
5BD
  8
0
  6
CONTINUOUS
 62
     7
 10
354.7374938934
 20
162.2853964785
 30
0.0
  0
VERTEX
  5
5BE
  8
0
  6
CONTINUOUS
 62
     7
 10
359.2864190547
 20
162.284222267
 30
0.0
  0
VERTEX
  5
5BF
  8
0
  6
CONTINUOUS
 62
     7
 10
363.8370965926
 20
162.28849592
 30
0.0
  0
VERTEX
  5
5C0
  8
0
  6
CONTINUOUS
 62
     7
 10
368.383339545
 20
162.3029381255
 30
0.0
  0
VERTEX
  5
5C1
  8
0
  6
CONTINUOUS
 62
     7
 10
372.934300205
 20
162.305536888
 30
0.0
  0
VERTEX
  5
5C2
  8
0
  6
CONTINUOUS
 62
     7
 10
377.4946158139
 20
162.2733324984
 30
0.0
  0
VERTEX
  5
5C3
  8
0
  6
CONTINUOUS
 62
     7
 10
382.0275132863
 20
162.2655779341
 30
0.0
  0
VERTEX
  5
5C4
  8
0
  6
CONTINUOUS
 62
     7
 10
384.274244806
 20
162.3043507556
 30
0.0
  0
VERTEX
  5
5C5
  8
0
  6
CONTINUOUS
 62
     7
 10
386.522365114
 20
162.3793989638
 30
0.0
  0
VERTEX
  5
5C6
  8
0
  6
CONTINUOUS
 62
     7
 10
388.7977545469
 20
162.4521166304
 30
0.0
  0
VERTEX
  5
5C7
  8
0
  6
CONTINUOUS
 62
     7
 10
391.1110406129
 20
162.4707550028
 30
0.0
  0
VERTEX
  5
5C8
  8
0
  6
CONTINUOUS
 62
     7
 10
393.4721117227
 20
162.3822361449
 30
0.0
  0
VERTEX
  5
5C9
  8
0
  6
CONTINUOUS
 62
     7
 10
395.8943014352
 20
162.126407049
 30
0.0
  0
SEQEND
  5
7DA
  8
0
  6
CONTINUOUS
 62
     7
  0
POLYLINE
  5
1C9
  8
0
  6
CONTINUOUS
 62
     7
 66
     1
 10
0.0
 20
0.0
 30
0.0
  0
VERTEX
  5
5CA
  8
0
  6
CONTINUOUS
 62
     7
 10
356.2051569431
 20
161.2331599215
 30
0.0
  0
VERTEX
  5
5CB
  8
0
  6
CONTINUOUS
 62
     7
 10
355.3166603057
 20
161.1667901496
 30
0.0
  0
VERTEX
  5
5CC
  8
0
  6
CONTINUOUS
 62
     7
 10
354.3540572135
 20
161.1164421061
 30
0.0
  0
SEQEND
  5
7D9
  8
0
  6
CONTINUOUS
 62
     7
  0
LINE
  5
1CA
  8
0
  6
CONTINUOUS
 62
     7
 10
364.3199627607
 20
161.1165195921
 30
0.0
 11
356.2051569431
 21
161.1092716673
 31
0.0
  0
POLYLINE
  5
1CB
  8
0
  6
CONTINUOUS
 62
     7
 66
     1
 10
0.0
 20
0.0
 30
0.0
  0
VERTEX
  5
5CD
  8
0
  6
CONTINUOUS
 62
     7
 10
384.3207483499
 20
161.1165374735
 30
0.0
  0
VERTEX
  5
5CE
  8
0
  6
CONTINUOUS
 62
     7
 10
379.3221955507
 20
161.0741406897
 30
0.0
  0
VERTEX
  5
5CF
  8
0
  6
CONTINUOUS
 62
     7
 10
374.3213807552
 20
161.1165076712
 30
0.0
  0
SEQEND
  5
7D8
  8
0
  6
CONTINUOUS
 62
     7
  0
ARC
  5
1CC
  8
0
  6
CONTINUOUS
 62
     7
 10
393.9427706864
 20
148.5418048181
 30
0.0
 40
12.5271268743118
 50
44.8211014007
 51
80.6316422878
  0
POLYLINE
  5
1CD
  8
0
  6
CONTINUOUS
 62
     7
 66
     1
 10
0.0
 20
0.0
 30
0.0
  0
VERTEX
  5
5D0
  8
0
  6
CONTINUOUS
 62
     7
 10
404.3075149266
 20
155.3349167327
 30
0.0
  0
VERTEX
  5
5D1
  8
0
  6
CONTINUOUS
 62
     7
 10
404.3094282357
 20
155.3323537329
 30
0.0
  0
VERTEX
  5
5D2
  8
0
  6
CONTINUOUS
 62
     7
 10
404.2137866227
 20
155.4713100413
 30
0.0
  0
VERTEX
  5
5D3
  8
0
  6
CONTINUOUS
 62
     7
 10
404.018605253
 20
155.7516366461
 30
0.0
  0
VERTEX
  5
5D4
  8
0
  6
CONTINUOUS
 62
     7
 10
403.7215774266
 20
156.1722189406
 30
0.0
  0
VERTEX
  5
5D5
  8
0
  6
CONTINUOUS
 62
     7
 10
403.3245508878
 20
156.717816017
 30
0.0
  0
VERTEX
  5
5D6
  8
0
  6
CONTINUOUS
 62
     7
 10
402.8284018247
 20
157.3721200446
 30
0.0
  0
SEQEND
  5
7D7
  8
0
  6
CONTINUOUS
 62
     7
  0
POLYLINE
  5
1CE
  8
0
  6
CONTINUOUS
 62
     7
 66
     1
 10
0.0
 20
0.0
 30
0.0
  0
VERTEX
  5
5D7
  8
0
  6
CONTINUOUS
 62
     7
 10
341.1334609
 20
162.277433298
 30
0.0
  0
VERTEX
  5
5D8
  8
0
  6
CONTINUOUS
 62
     7
 10
340.3865282743
 20
162.2651607016
 30
0.0
  0
VERTEX
  5
5D9
  8
0
  6
CONTINUOUS
 62
     7
 10
339.6702130644
 20
162.2280508498
 30
0.0
  0
VERTEX
  5
5DA
  8
0
  6
CONTINUOUS
 62
     7
 10
338.9740486948
 20
162.1632606009
 30
0.0
  0
VERTEX
  5
5DB
  8
0
  6
CONTINUOUS
 62
     7
 10
338.3741726486
 20
162.0800525168
 30
0.0
  0
VERTEX
  5
5DC
  8
0
  6
CONTINUOUS
 62
     7
 10
337.8090133278
 20
161.9725674609
 30
0.0
  0
VERTEX
  5
5DD
  8
0
  6
CONTINUOUS
 62
     7
 10
337.2996290533
 20
161.8450433234
 30
0.0
  0
VERTEX
  5
5DE
  8
0
  6
CONTINUOUS
 62
     7
 10
336.8572120874
 20
161.7018014411
 30
0.0
  0
VERTEX
  5
5DF
  8
0
  6
CONTINUOUS
 62
     7
 10
336.4906166999
 20
161.5475744227
 30
0.0
  0
SEQEND
  5
7D6
  8
0
  6
CONTINUOUS
 62
     7
  0
LINE
  5
1CF
  8
0
  6
CONTINUOUS
 62
     7
 10
336.4906166999
 20
161.5475744227
 30
0.0
 11
336.0953321068
 21
161.3529414157
 31
0.0
  0
ARC
  5
1D0
  8
0
  6
CONTINUOUS
 62
     7
 10
374.8946753824
 20
136.0954643682
 30
0.0
 40
36.04883730386496
 50
35.3072853006
 51
39.1792790855
  0
ARC
  5
1D1
  8
0
  6
CONTINUOUS
 62
     7
 10
394.273295194
 20
149.6386460558
 30
0.0
 40
12.59253095524364
 50
47.14056264
 51
82.6039288339
  0
LINE
  5
1D2
  8
0
  6
CONTINUOUS
 62
     7
 10
356.2051569431
 20
161.2331599215
 30
0.0
 11
356.2051569431
 21
161.1941665629
 31
0.0
  0
POLYLINE
  5
1D3
  8
0
  6
CONTINUOUS
 62
     7
 66
     1
 10
0.0
 20
0.0
 30
0.0
  0
VERTEX
  5
5E0
  8
0
  6
CONTINUOUS
 62
     7
 10
321.3539366929
 20
227.6517600039
 30
0.0
  0
VERTEX
  5
5E1
  8
0
  6
CONTINUOUS
 62
     7
 10
321.1870004742
 20
226.4474481562
 30
0.0
  0
VERTEX
  5
5E2
  8
0
  6
CONTINUOUS
 62
     7
 10
321.0752201586
 20
225.2338737467
 30
0.0
  0
VERTEX
  5
5E3
  8
0
  6
CONTINUOUS
 62
     7
 10
320.9776521979
 20
222.9287356356
 30
0.0
  0
VERTEX
  5
5E4
  8
0
  6
CONTINUOUS
 62
     7
 10
320.9898420928
 20
220.6208080271
 30
0.0
  0
VERTEX
  5
5E5
  8
0
  6
CONTINUOUS
 62
     7
 10
321.1392400174
 20
215.990552328
 30
0.0
  0
SEQEND
  5
7D5
  8
0
  6
CONTINUOUS
 62
     7
  0
POLYLINE
  5
1D4
  8
0
  6
CONTINUOUS
 62
     7
 66
     1
 10
0.0
 20
0.0
 30
0.0
  0
VERTEX
  5
5E6
  8
0
  6
CONTINUOUS
 62
     7
 10
321.139235547
 20
215.990552328
 30
0.0
  0
VERTEX
  5
5E7
  8
0
  6
CONTINUOUS
 62
     7
 10
321.1601076035
 20
214.6276325205
 30
0.0
  0
VERTEX
  5
5E8
  8
0
  6
CONTINUOUS
 62
     7
 10
321.1661373584
 20
213.1550520876
 30
0.0
  0
VERTEX
  5
5E9
  8
0
  6
CONTINUOUS
 62
     7
 10
321.1614051221
 20
211.7562026003
 30
0.0
  0
VERTEX
  5
5EA
  8
0
  6
CONTINUOUS
 62
     7
 10
321.1511747299
 20
210.2767437914
 30
0.0
  0
VERTEX
  5
5EB
  8
0
  6
CONTINUOUS
 62
     7
 10
321.1410568415
 20
208.8482588748
 30
0.0
  0
VERTEX
  5
5EC
  8
0
  6
CONTINUOUS
 62
     7
 10
321.1356346814
 20
207.3360294322
 30
0.0
  0
VERTEX
  5
5ED
  8
0
  6
CONTINUOUS
 62
     7
 10
321.139273545
 20
205.991181753
 30
0.0
  0
SEQEND
  5
7D4
  8
0
  6
CONTINUOUS
 62
     7
  0
POLYLINE
  5
1D5
  8
0
  6
CONTINUOUS
 62
     7
 66
     1
 10
0.0
 20
0.0
 30
0.0
  0
VERTEX
  5
5EE
  8
0
  6
CONTINUOUS
 62
     7
 10
321.1392720549
 20
205.991181753
 30
0.0
  0
VERTEX
  5
5EF
  8
0
  6
CONTINUOUS
 62
     7
 10
321.1285845696
 20
203.5605877856
 30
0.0
  0
VERTEX
  5
5F0
  8
0
  6
CONTINUOUS
 62
     7
 10
321.1392396449
 20
195.9897607783
 30
0.0
  0
SEQEND
  5
7D3
  8
0
  6
CONTINUOUS
 62
     7
  0
POLYLINE
  5
1D6
  8
0
  6
CONTINUOUS
 62
     7
 66
     1
 10
0.0
 20
0.0
 30
0.0
  0
VERTEX
  5
5F1
  8
0
  6
CONTINUOUS
 62
     7
 10
321.1392564087
 20
195.9897607783
 30
0.0
  0
VERTEX
  5
5F2
  8
0
  6
CONTINUOUS
 62
     7
 10
321.0681331663
 20
194.4676131228
 30
0.0
  0
VERTEX
  5
5F3
  8
0
  6
CONTINUOUS
 62
     7
 10
320.9826452045
 20
192.7286476115
 30
0.0
  0
VERTEX
  5
5F4
  8
0
  6
CONTINUOUS
 62
     7
 10
320.9293936698
 20
191.0710305193
 30
0.0
  0
VERTEX
  5
5F5
  8
0
  6
CONTINUOUS
 62
     7
 10
320.9337191044
 20
189.4787878016
 30
0.0
  0
VERTEX
  5
5F6
  8
0
  6
CONTINUOUS
 62
     7
 10
321.0226227848
 20
187.8749579409
 30
0.0
  0
SEQEND
  5
7D2
  8
0
  6
CONTINUOUS
 62
     7
  0
POLYLINE
  5
1D7
  8
0
  6
CONTINUOUS
 62
     7
 66
     1
 10
0.0
 20
0.0
 30
0.0
  0
VERTEX
  5
5F7
  8
0
  6
CONTINUOUS
 62
     7
 10
321.0226227848
 20
187.8749579409
 30
0.0
  0
VERTEX
  5
5F8
  8
0
  6
CONTINUOUS
 62
     7
 10
321.0889903216
 20
186.986467264
 30
0.0
  0
VERTEX
  5
5F9
  8
0
  6
CONTINUOUS
 62
     7
 10
321.1393387376
 20
186.0238641718
 30
0.0
  0
SEQEND
  5
7D1
  8
0
  6
CONTINUOUS
 62
     7
  0
POLYLINE
  5
1D8
  8
0
  6
CONTINUOUS
 62
     7
 66
     1
 10
0.0
 20
0.0
 30
0.0
  0
VERTEX
  5
5FA
  8
0
  6
CONTINUOUS
 62
     7
 10
319.9783065675
 20
172.8032678584
 30
0.0
  0
VERTEX
  5
5FB
  8
0
  6
CONTINUOUS
 62
     7
 10
319.976304224
 20
175.5298346499
 30
0.0
  0
VERTEX
  5
5FC
  8
0
  6
CONTINUOUS
 62
     7
 10
319.9737326561
 20
178.2369584063
 30
0.0
  0
VERTEX
  5
5FD
  8
0
  6
CONTINUOUS
 62
     7
 10
319.972159466
 20
180.9558600405
 30
0.0
  0
VERTEX
  5
5FE
  8
0
  6
CONTINUOUS
 62
     7
 10
319.9708224593
 20
183.6811274508
 30
0.0
  0
VERTEX
  5
5FF
  8
0
  6
CONTINUOUS
 62
     7
 10
319.9703854828
 20
186.4073008517
 30
0.0
  0
VERTEX
  5
600
  8
0
  6
CONTINUOUS
 62
     7
 10
319.9715578316
 20
190.9562200526
 30
0.0
  0
VERTEX
  5
601
  8
0
  6
CONTINUOUS
 62
     7
 10
319.9672856687
 20
195.506903551
 30
0.0
  0
VERTEX
  5
602
  8
0
  6
CONTINUOUS
 62
     7
 10
319.9528434633
 20
200.0531405428
 30
0.0
  0
VERTEX
  5
603
  8
0
  6
CONTINUOUS
 62
     7
 10
319.9502447008
 20
204.6040982226
 30
0.0
  0
VERTEX
  5
604
  8
0
  6
CONTINUOUS
 62
     7
 10
319.9824490903
 20
209.1644138316
 30
0.0
  0
VERTEX
  5
605
  8
0
  6
CONTINUOUS
 62
     7
 10
319.9902006744
 20
213.697311304
 30
0.0
  0
VERTEX
  5
606
  8
0
  6
CONTINUOUS
 62
     7
 10
319.9514263628
 20
215.9440487841
 30
0.0
  0
VERTEX
  5
607
  8
0
  6
CONTINUOUS
 62
     7
 10
319.8763818799
 20
218.192169092
 30
0.0
  0
VERTEX
  5
608
  8
0
  6
CONTINUOUS
 62
     7
 10
319.8036627232
 20
220.4675644854
 30
0.0
  0
VERTEX
  5
609
  8
0
  6
CONTINUOUS
 62
     7
 10
319.7850247233
 20
222.780844591
 30
0.0
  0
VERTEX
  5
60A
  8
0
  6
CONTINUOUS
 62
     7
 10
319.8735432087
 20
225.1419157008
 30
0.0
  0
VERTEX
  5
60B
  8
0
  6
CONTINUOUS
 62
     7
 10
320.1293734221
 20
227.5641054133
 30
0.0
  0
SEQEND
  5
7D0
  8
0
  6
CONTINUOUS
 62
     7
  0
LINE
  5
1D9
  8
0
  6
CONTINUOUS
 62
     7
 10
321.1392616241
 20
195.9897607783
 30
0.0
 11
321.1465084313
 21
187.8749579409
 31
0.0
  0
POLYLINE
  5
1DA
  8
0
  6
CONTINUOUS
 62
     7
 66
     1
 10
0.0
 20
0.0
 30
0.0
  0
VERTEX
  5
60C
  8
0
  6
CONTINUOUS
 62
     7
 10
321.1392403899
 20
215.990552328
 30
0.0
  0
VERTEX
  5
60D
  8
0
  6
CONTINUOUS
 62
     7
 10
321.1816390364
 20
210.9919995287
 30
0.0
  0
VERTEX
  5
60E
  8
0
  6
CONTINUOUS
 62
     7
 10
321.1392720549
 20
205.991181753
 30
0.0
  0
SEQEND
  5
7CF
  8
0
  6
CONTINUOUS
 62
     7
  0
ARC
  5
1DB
  8
0
  6
CONTINUOUS
 62
     7
 10
333.7140966074
 20
225.612519503
 30
0.0
 40
12.52725506230356
 50
134.821294778
 51
170.6314556836
  0
POLYLINE
  5
1DC
  8
0
  6
CONTINUOUS
 62
     7
 66
     1
 10
0.0
 20
0.0
 30
0.0
  0
VERTEX
  5
60F
  8
0
  6
CONTINUOUS
 62
     7
 10
326.9208629935
 20
235.9773129443
 30
0.0
  0
VERTEX
  5
610
  8
0
  6
CONTINUOUS
 62
     7
 10
326.9234276696
 20
235.9792322138
 30
0.0
  0
VERTEX
  5
611
  8
0
  6
CONTINUOUS
 62
     7
 10
326.7844685672
 20
235.8835906008
 30
0.0
  0
VERTEX
  5
612
  8
0
  6
CONTINUOUS
 62
     7
 10
326.5041459671
 20
235.6884092311
 30
0.0
  0
VERTEX
  5
613
  8
0
  6
CONTINUOUS
 62
     7
 10
326.0835623688
 20
235.3913873652
 30
0.0
  0
VERTEX
  5
614
  8
0
  6
CONTINUOUS
 62
     7
 10
325.5379655252
 20
234.9943608264
 30
0.0
  0
VERTEX
  5
615
  8
0
  6
CONTINUOUS
 62
     7
 10
324.883661032
 20
234.4982117632
 30
0.0
  0
SEQEND
  5
7CE
  8
0
  6
CONTINUOUS
 62
     7
  0
POLYLINE
  5
1DD
  8
0
  6
CONTINUOUS
 62
     7
 66
     1
 10
0.0
 20
0.0
 30
0.0
  0
VERTEX
  5
616
  8
0
  6
CONTINUOUS
 62
     7
 10
319.9783438204
 20
172.8032678584
 30
0.0
  0
VERTEX
  5
617
  8
0
  6
CONTINUOUS
 62
     7
 10
319.9906220047
 20
172.0563262919
 30
0.0
  0
VERTEX
  5
618
  8
0
  6
CONTINUOUS
 62
     7
 10
320.027730739
 20
171.3400215128
 30
0.0
  0
VERTEX
  5
619
  8
0
  6
CONTINUOUS
 62
     7
 10
320.0925172626
 20
170.6438511828
 30
0.0
  0
VERTEX
  5
61A
  8
0
  6
CONTINUOUS
 62
     7
 10
320.1757264642
 20
170.0439781169
 30
0.0
  0
VERTEX
  5
61B
  8
0
  6
CONTINUOUS
 62
     7
 10
320.2832152455
 20
169.478818796
 30
0.0
  0
VERTEX
  5
61C
  8
0
  6
CONTINUOUS
 62
     7
 10
320.4107371478
 20
168.9694315413
 30
0.0
  0
VERTEX
  5
61D
  8
0
  6
CONTINUOUS
 62
     7
 10
320.5539767949
 20
168.5270160655
 30
0.0
  0
VERTEX
  5
61E
  8
0
  6
CONTINUOUS
 62
     7
 10
320.7082071661
 20
168.1604176978
 30
0.0
  0
SEQEND
  5
7CD
  8
0
  6
CONTINUOUS
 62
     7
  0
LINE
  5
1DE
  8
0
  6
CONTINUOUS
 62
     7
 10
320.7082071661
 20
168.1604176978
 30
0.0
 11
320.9028375654
 21
167.765137575
 31
0.0
  0
ARC
  5
1DF
  8
0
  6
CONTINUOUS
 62
     7
 10
346.1631377771
 20
206.5609139105
 30
0.0
 40
36.05337758421771
 50
125.3076694524
 51
129.179178497
  0
ARC
  5
1E0
  8
0
  6
CONTINUOUS
 62
     7
 10
332.6170069654
 20
225.9431490489
 30
0.0
 40
12.59239777575884
 50
137.1403469291
 51
172.6040790193
  0
LINE
  5
1E1
  8
0
  6
CONTINUOUS
 62
     7
 10
321.0226227848
 20
187.8749579409
 30
0.0
 11
321.0616131632
 21
187.8749579409
 31
0.0
  0
ARC
  5
1E2
  8
0
  6
CONTINUOUS
 62
     7
 10
323.3866832634
 20
202.9627914408
 30
0.0
 40
2.000000000000004
 50
15.7570898053
 51
90.0
  0
ARC
  5
1E3
  8
0
  6
CONTINUOUS
 62
     7
 10
171.3240639975
 20
160.0563837373
 30
0.0
 40
160.0000000000003
 50
359.6618680049
 51
15.7570898053
  0
LINE
  5
1E4
  8
0
  6
CONTINUOUS
 62
     7
 10
321.6929884015
 20
204.9627870539
 30
0.0
 11
321.6929884015
 21
162.2542947749
 31
0.0
  0
LINE
  5
1E5
  8
0
  6
CONTINUOUS
 62
     7
 10
323.3866832538
 20
204.9627870539
 30
0.0
 11
321.6929884015
 21
204.9627870539
 31
0.0
  0
LINE
  5
1E6
  8
0
  6
CONTINUOUS
 62
     7
 10
321.0597862808
 20
161.7627889136
 30
0.0
 11
320.9028375654
 21
161.7627889136
 31
0.0
  0
LINE
  5
1E7
  8
0
  6
CONTINUOUS
 62
     7
 10
320.9028375654
 20
161.7627889136
 30
0.0
 11
320.9028375654
 21
187.9980653742
 31
0.0
  0
LINE
  5
1E8
  8
0
  6
CONTINUOUS
 62
     7
 10
320.9028375654
 20
193.443366907
 30
0.0
 11
320.9028375654
 21
204.9627870539
 31
0.0
  0
LINE
  5
1E9
  8
0
  6
CONTINUOUS
 62
     7
 10
320.9028375654
 20
204.9627870539
 30
0.0
 11
321.6929884015
 21
204.9627870539
 31
0.0
  0
ARC
  5
1EA
  8
0
  6
CONTINUOUS
 62
     7
 10
371.2929884164
 20
158.8690965939
 30
0.0
 40
2.0
 50
285.7570898053
 51
0.0
  0
ARC
  5
1EB
  8
0
  6
CONTINUOUS
 62
     7
 10
328.3865807129
 20
310.9317158597
 30
0.0
 40
160.0000000000003
 50
270.6306446184
 51
285.7570898053
  0
LINE
  5
1EC
  8
0
  6
CONTINUOUS
 62
     7
 10
373.2929890363
 20
160.5627924422
 30
0.0
 11
331.3232624291
 21
160.5627924422
 31
0.0
  0
LINE
  5
1ED
  8
0
  6
CONTINUOUS
 62
     7
 10
373.2929890363
 20
158.8690966586
 30
0.0
 11
373.2929890363
 21
160.5627924422
 31
0.0
  0
LINE
  5
1EE
  8
0
  6
CONTINUOUS
 62
     7
 10
331.3188107072
 20
161.3529414157
 30
0.0
 11
356.3282584159
 21
161.3529414157
 31
0.0
  0
LINE
  5
1EF
  8
0
  6
CONTINUOUS
 62
     7
 10
361.7735629289
 20
161.3529414157
 30
0.0
 11
373.2929890363
 21
161.3529414157
 31
0.0
  0
LINE
  5
1F0
  8
0
  6
CONTINUOUS
 62
     7
 10
373.2929890363
 20
161.3529414157
 30
0.0
 11
373.2929890363
 21
160.5627924422
 31
0.0
  0
LINE
  5
1F1
  8
0
  6
CONTINUOUS
 62
     7
 10
330.3929885237
 20
137.3627931098
 30
0.0
 11
330.3929885237
 21
145.1627940157
 31
0.0
  0
ARC
  5
1F2
  8
0
  6
CONTINUOUS
 62
     7
 10
329.9929884164
 20
145.1627914408
 30
0.0
 40
0.3999999999999773
 50
0.0
 51
90.0
  0
ARC
  5
1F3
  8
0
  6
CONTINUOUS
 62
     7
 10
320.5929884164
 20
145.1627914408
 30
0.0
 40
0.4000000000000341
 50
90.0
 51
180.0
  0
LINE
  5
1F4
  8
0
  6
CONTINUOUS
 62
     7
 10
320.1929883419
 20
145.1627940157
 30
0.0
 11
320.1929883419
 21
144.5627898196
 31
0.0
  0
LINE
  5
1F5
  8
0
  6
CONTINUOUS
 62
     7
 10
319.3929885833
 20
142.3627943019
 30
0.0
 11
319.3929885833
 21
137.3627931098
 31
0.0
  0
LINE
  5
1F6
  8
0
  6
CONTINUOUS
 62
     7
 10
319.3929885833
 20
142.3627943019
 30
0.0
 11
317.4450864403
 21
142.3627943019
 31
0.0
  0
ARC
  5
1F7
  8
0
  6
CONTINUOUS
 62
     7
 10
341.0020793255
 20
148.3627914408
 30
0.0
 40
24.3090909090909
 50
151.3013359141
 51
194.2894890274
  0
ARC
  5
1F8
  8
0
  6
CONTINUOUS
 62
     7
 10
325.2929884164
 20
156.9627914408
 30
0.0
 40
6.400000000000062
 50
334.4805415091
 51
151.3013359141
  0
ARC
  5
1F9
  8
0
  6
CONTINUOUS
 62
     7
 10
340.0929884164
 20
149.8973827478
 30
0.0
 40
10.0
 50
154.4805415091
 51
180.0
  0
LINE
  5
1FA
  8
0
  6
CONTINUOUS
 62
     7
 10
330.0929882883
 20
149.8973816851
 30
0.0
 11
330.0929882883
 21
146.3627904872
 31
0.0
  0
LINE
  5
1FB
  8
0
  6
CONTINUOUS
 62
     7
 10
330.1929884909
 20
146.3627904872
 30
0.0
 11
330.0929882883
 21
146.3627904872
 31
0.0
  0
ARC
  5
1FC
  8
0
  6
CONTINUOUS
 62
     7
 10
330.1929884164
 20
145.3627914408
 30
0.0
 40
1.0
 50
0.0
 51
90.0
  0
LINE
  5
1FD
  8
0
  6
CONTINUOUS
 62
     7
 10
331.1929882823
 20
137.3627931098
 30
0.0
 11
331.1929882823
 21
145.3627914408
 31
0.0
  0
LINE
  5
1FE
  8
0
  6
CONTINUOUS
 62
     7
 10
329.9929884581
 20
145.5627888659
 30
0.0
 11
329.192988327
 21
145.5627888659
 31
0.0
  0
LINE
  5
1FF
  8
0
  6
CONTINUOUS
 62
     7
 10
321.1929885058
 20
145.5627888659
 30
0.0
 11
320.5929884075
 21
145.5627888659
 31
0.0
  0
LINE
  5
200
  8
0
  6
CONTINUOUS
 62
     7
 10
320.1929883419
 20
135.3627890566
 30
0.0
 11
319.3929885833
 21
135.3627890566
 31
0.0
  0
LINE
  5
201
  8
0
  6
CONTINUOUS
 62
     7
 10
319.3929885833
 20
135.3627890566
 30
0.0
 11
319.3929885833
 21
137.3627931098
 31
0.0
  0
LINE
  5
202
  8
0
  6
CONTINUOUS
 62
     7
 10
320.1929883419
 20
136.5627914885
 30
0.0
 11
320.1929883419
 21
135.3627890566
 31
0.0
  0
LINE
  5
203
  8
0
  6
CONTINUOUS
 62
     7
 10
331.1929882823
 20
135.3627890566
 30
0.0
 11
330.3929885237
 21
135.3627890566
 31
0.0
  0
LINE
  5
204
  8
0
  6
CONTINUOUS
 62
     7
 10
330.3929885237
 20
135.3627890566
 30
0.0
 11
330.3929885237
 21
137.3627931098
 31
0.0
  0
LINE
  5
205
  8
0
  6
CONTINUOUS
 62
     7
 10
331.1929882823
 20
137.3627931098
 30
0.0
 11
331.1929882823
 21
135.3627890566
 31
0.0
  0
LINE
  5
206
  8
0
  6
CONTINUOUS
 62
     7
 10
45.9395776503
 20
-24.1377645587
 30
0.0
 11
46.5462277644
 21
-25.1913463181
 31
0.0
  0
LINE
  5
207
  8
0
  6
CONTINUOUS
 62
     7
 10
116.1160807125
 20
-25.1912990069
 30
0.0
 11
116.7227308266
 21
-24.1377273058
 31
0.0
  0
LINE
  5
208
  8
0
  6
CONTINUOUS
 62
     7
 10
165.9395749681
 20
-24.1377645587
 30
0.0
 11
166.5462295525
 21
-25.1913463181
 31
0.0
  0
LINE
  5
209
  8
0
  6
CONTINUOUS
 62
     7
 10
236.1160825007
 20
-25.1912990069
 30
0.0
 11
236.7227326147
 21
-24.1377273058
 31
0.0
  0
POLYLINE
  5
20A
  8
0
  6
CONTINUOUS
 62
     7
 66
     1
 10
0.0
 20
0.0
 30
0.0
  0
VERTEX
  5
61F
  8
0
  6
CONTINUOUS
 62
     7
 10
118.7694172375
 20
-25.8488872504
 30
0.0
  0
VERTEX
  5
620
  8
0
  6
CONTINUOUS
 62
     7
 10
117.7818114869
 20
-25.9807591742
 30
0.0
  0
VERTEX
  5
621
  8
0
  6
CONTINUOUS
 62
     7
 10
116.5722976439
 20
-26.1366733765
 30
0.0
  0
VERTEX
  5
622
  8
0
  6
CONTINUOUS
 62
     7
 10
115.5881862156
 20
-26.2595651155
 30
0.0
  0
VERTEX
  5
623
  8
0
  6
CONTINUOUS
 62
     7
 10
114.8297737353
 20
-26.3518535947
 30
0.0
  0
VERTEX
  5
624
  8
0
  6
CONTINUOUS
 62
     7
 10
114.2240892165
 20
-26.4231496906
 30
0.0
  0
VERTEX
  5
625
  8
0
  6
CONTINUOUS
 62
     7
 10
113.6279086583
 20
-26.4892780637
 30
0.0
  0
VERTEX
  5
626
  8
0
  6
CONTINUOUS
 62
     7
 10
112.7444217913
 20
-26.5796375876
 30
0.0
  0
VERTEX
  5
627
  8
0
  6
CONTINUOUS
 62
     7
 10
111.8739466183
 20
-26.6600394105
 30
0.0
  0
VERTEX
  5
628
  8
0
  6
CONTINUOUS
 62
     7
 10
111.0166381113
 20
-26.7319375133
 30
0.0
  0
VERTEX
  5
629
  8
0
  6
CONTINUOUS
 62
     7
 10
110.1727525704
 20
-26.7977410411
 30
0.0
  0
VERTEX
  5
62A
  8
0
  6
CONTINUOUS
 62
     7
 10
109.3373994343
 20
-26.8619825547
 30
0.0
  0
VERTEX
  5
62B
  8
0
  6
CONTINUOUS
 62
     7
 10
108.4832499735
 20
-26.9304757421
 30
0.0
  0
VERTEX
  5
62C
  8
0
  6
CONTINUOUS
 62
     7
 10
107.6060126536
 20
-26.9996603435
 30
0.0
  0
VERTEX
  5
62D
  8
0
  6
CONTINUOUS
 62
     7
 10
106.7054103129
 20
-27.0662502801
 30
0.0
  0
VERTEX
  5
62E
  8
0
  6
CONTINUOUS
 62
     7
 10
105.781270098
 20
-27.1297094827
 30
0.0
  0
VERTEX
  5
62F
  8
0
  6
CONTINUOUS
 62
     7
 10
104.8335830681
 20
-27.1902711546
 30
0.0
  0
VERTEX
  5
630
  8
0
  6
CONTINUOUS
 62
     7
 10
103.9526115172
 20
-27.2428696459
 30
0.0
  0
VERTEX
  5
631
  8
0
  6
CONTINUOUS
 62
     7
 10
103.2890687697
 20
-27.2805368011
 30
0.0
  0
VERTEX
  5
632
  8
0
  6
CONTINUOUS
 62
     7
 10
102.7892510407
 20
-27.3078618055
 30
0.0
  0
VERTEX
  5
633
  8
0
  6
CONTINUOUS
 62
     7
 10
102.1730910055
 20
-27.3404007261
 30
0.0
  0
VERTEX
  5
634
  8
0
  6
CONTINUOUS
 62
     7
 10
101.4004747383
 20
-27.3795077061
 30
0.0
  0
VERTEX
  5
635
  8
0
  6
CONTINUOUS
 62
     7
 10
100.4713456147
 20
-27.4241366839
 30
0.0
  0
VERTEX
  5
636
  8
0
  6
CONTINUOUS
 62
     7
 10
99.3856470101
 20
-27.4730687445
 30
0.0
  0
VERTEX
  5
637
  8
0
  6
CONTINUOUS
 62
     7
 10
97.7270404808
 20
-27.5413309639
 30
0.0
  0
VERTEX
  5
638
  8
0
  6
CONTINUOUS
 62
     7
 10
95.807872247
 20
-27.6108608996
 30
0.0
  0
VERTEX
  5
639
  8
0
  6
CONTINUOUS
 62
     7
 10
93.8059340231
 20
-27.6730978345
 30
0.0
  0
VERTEX
  5
63A
  8
0
  6
CONTINUOUS
 62
     7
 10
88.3934806101
 20
-27.7923194175
 30
0.0
  0
VERTEX
  5
63B
  8
0
  6
CONTINUOUS
 62
     7
 10
82.9089592211
 20
-27.8446865683
 30
0.0
  0
VERTEX
  5
63C
  8
0
  6
CONTINUOUS
 62
     7
 10
79.3817530386
 20
-27.8432378029
 30
0.0
  0
VERTEX
  5
63D
  8
0
  6
CONTINUOUS
 62
     7
 10
75.8260379546
 20
-27.8139600014
 30
0.0
  0
VERTEX
  5
63E
  8
0
  6
CONTINUOUS
 62
     7
 10
72.34667046
 20
-27.7576634144
 30
0.0
  0
VERTEX
  5
63F
  8
0
  6
CONTINUOUS
 62
     7
 10
69.1184650175
 20
-27.6800324624
 30
0.0
  0
VERTEX
  5
640
  8
0
  6
CONTINUOUS
 62
     7
 10
67.5288627856
 20
-27.6324653482
 30
0.0
  0
VERTEX
  5
641
  8
0
  6
CONTINUOUS
 62
     7
 10
66.0089562647
 20
-27.5809769934
 30
0.0
  0
VERTEX
  5
642
  8
0
  6
CONTINUOUS
 62
     7
 10
64.5587514155
 20
-27.5261664247
 30
0.0
  0
VERTEX
  5
643
  8
0
  6
CONTINUOUS
 62
     7
 10
63.1782541983
 20
-27.468610317
 30
0.0
  0
VERTEX
  5
644
  8
0
  6
CONTINUOUS
 62
     7
 10
61.8674586527
 20
-27.4088708168
 30
0.0
  0
VERTEX
  5
645
  8
0
  6
CONTINUOUS
 62
     7
 10
60.6768618338
 20
-27.3500961667
 30
0.0
  0
VERTEX
  5
646
  8
0
  6
CONTINUOUS
 62
     7
 10
59.8565767519
 20
-27.3069837546
 30
0.0
  0
VERTEX
  5
647
  8
0
  6
CONTINUOUS
 62
     7
 10
59.2199216597
 20
-27.271981672
 30
0.0
  0
VERTEX
  5
648
  8
0
  6
CONTINUOUS
 62
     7
 10
58.9704285376
 20
-27.2578795856
 30
0.0
  0
VERTEX
  5
649
  8
0
  6
CONTINUOUS
 62
     7
 10
58.7412546389
 20
-27.244680137
 30
0.0
  0
VERTEX
  5
64A
  8
0
  6
CONTINUOUS
 62
     7
 10
58.4743450396
 20
-27.2290048604
 30
0.0
  0
VERTEX
  5
64B
  8
0
  6
CONTINUOUS
 62
     7
 10
58.1674884074
 20
-27.2109480058
 30
0.0
  0
VERTEX
  5
64C
  8
0
  6
CONTINUOUS
 62
     7
 10
57.5934777968
 20
-27.1777605122
 30
0.0
  0
VERTEX
  5
64D
  8
0
  6
CONTINUOUS
 62
     7
 10
56.9172511809
 20
-27.1382362997
 30
0.0
  0
VERTEX
  5
64E
  8
0
  6
CONTINUOUS
 62
     7
 10
56.1481545679
 20
-27.0909642284
 30
0.0
  0
VERTEX
  5
64F
  8
0
  6
CONTINUOUS
 62
     7
 10
55.3384314291
 20
-27.0372433072
 30
0.0
  0
VERTEX
  5
650
  8
0
  6
CONTINUOUS
 62
     7
 10
54.4961939566
 20
-26.9769111132
 30
0.0
  0
VERTEX
  5
651
  8
0
  6
CONTINUOUS
 62
     7
 10
53.0204962008
 20
-26.8603490149
 30
0.0
  0
VERTEX
  5
652
  8
0
  6
CONTINUOUS
 62
     7
 10
51.4552007429
 20
-26.7216251647
 30
0.0
  0
VERTEX
  5
653
  8
0
  6
CONTINUOUS
 62
     7
 10
49.7926543467
 20
-26.5574274068
 30
0.0
  0
VERTEX
  5
654
  8
0
  6
CONTINUOUS
 62
     7
 10
48.4119544737
 20
-26.4082332557
 30
0.0
  0
VERTEX
  5
655
  8
0
  6
CONTINUOUS
 62
     7
 10
46.8937288039
 20
-26.231898502
 30
0.0
  0
VERTEX
  5
656
  8
0
  6
CONTINUOUS
 62
     7
 10
45.2382753603
 20
-26.0261786585
 30
0.0
  0
VERTEX
  5
657
  8
0
  6
CONTINUOUS
 62
     7
 10
43.8927005045
 20
-25.8482796555
 30
0.0
  0
SEQEND
  5
7CC
  8
0
  6
CONTINUOUS
 62
     7
  0
LINE
  5
20B
  8
0
  6
CONTINUOUS
 62
     7
 10
43.7450657599
 20
-26.909865201
 30
0.0
 11
43.7307010405
 21
-26.9731668239
 31
0.0
  0
LINE
  5
20C
  8
0
  6
CONTINUOUS
 62
     7
 10
43.87878282
 20
-25.8453869676
 30
0.0
 11
43.8754568808
 21
-25.8723822837
 31
0.0
  0
POLYLINE
  5
20D
  8
0
  6
CONTINUOUS
 62
     7
 66
     1
 10
0.0
 20
0.0
 30
0.0
  0
VERTEX
  5
658
  8
0
  6
CONTINUOUS
 62
     7
 10
43.8431094401
 20
-26.1350554829
 30
0.0
  0
VERTEX
  5
659
  8
0
  6
CONTINUOUS
 62
     7
 10
43.8076089136
 20
-26.4232741153
 30
0.0
  0
VERTEX
  5
65A
  8
0
  6
CONTINUOUS
 62
     7
 10
43.7309096567
 20
-27.0199929779
 30
0.0
  0
SEQEND
  5
7CB
  8
0
  6
CONTINUOUS
 62
     7
  0
POLYLINE
  5
20E
  8
0
  6
CONTINUOUS
 62
     7
 66
     1
 10
0.0
 20
0.0
 30
0.0
  0
VERTEX
  5
65B
  8
0
  6
CONTINUOUS
 62
     7
 10
118.9315537922
 20
-27.0216015583
 30
0.0
  0
VERTEX
  5
65C
  8
0
  6
CONTINUOUS
 62
     7
 10
118.8547412865
 20
-26.4240694647
 30
0.0
  0
VERTEX
  5
65D
  8
0
  6
CONTINUOUS
 62
     7
 10
118.8197593205
 20
-26.1400458818
 30
0.0
  0
SEQEND
  5
7CA
  8
0
  6
CONTINUOUS
 62
     7
  0
LINE
  5
20F
  8
0
  6
CONTINUOUS
 62
     7
 10
118.7856729143
 20
-25.8632925754
 30
0.0
 11
118.7834675424
 21
-25.8453877126
 31
0.0
  0
LINE
  5
210
  8
0
  6
CONTINUOUS
 62
     7
 10
118.9315493219
 20
-26.9731686866
 30
0.0
 11
118.9171965234
 21
-26.9099054342
 31
0.0
  0
LINE
  5
211
  8
0
  6
CONTINUOUS
 62
     7
 10
43.6311255209
 20
-37.363715977
 30
0.0
 11
44.4311271422
 21
-37.363715977
 31
0.0
  0
LINE
  5
212
  8
0
  6
CONTINUOUS
 62
     7
 10
43.6311255209
 20
-37.4326401805
 30
0.0
 11
60.0311229937
 21
-37.4326401805
 31
0.0
  0
LINE
  5
213
  8
0
  6
CONTINUOUS
 62
     7
 10
60.0311229937
 20
-25.232640416
 30
0.0
 11
51.625079941
 21
-25.232640416
 31
0.0
  0
LINE
  5
214
  8
0
  6
CONTINUOUS
 62
     7
 10
46.5787301771
 20
-25.232640416
 30
0.0
 11
43.6311255209
 21
-25.232640416
 31
0.0
  0
LINE
  5
215
  8
0
  6
CONTINUOUS
 62
     7
 10
167.3119495623
 20
-37.4326401805
 30
0.0
 11
180.0311247818
 21
-37.4326401805
 31
0.0
  0
LINE
  5
216
  8
0
  6
CONTINUOUS
 62
     7
 10
180.0311247818
 20
-25.232640416
 30
0.0
 11
171.6250787489
 21
-25.232640416
 31
0.0
  0
LINE
  5
217
  8
0
  6
CONTINUOUS
 62
     7
 10
166.5787319653
 20
-25.232640416
 30
0.0
 11
163.631125819
 21
-25.232640416
 31
0.0
  0
LINE
  5
218
  8
0
  6
CONTINUOUS
 62
     7
 10
118.2311247103
 20
-37.363715977
 30
0.0
 11
119.0311248414
 21
-37.363715977
 31
0.0
  0
LINE
  5
219
  8
0
  6
CONTINUOUS
 62
     7
 10
119.0311248414
 20
-25.232640416
 30
0.0
 11
116.0835455172
 21
-25.232640416
 31
0.0
  0
LINE
  5
21A
  8
0
  6
CONTINUOUS
 62
     7
 10
111.0360036604
 20
-25.232640416
 30
0.0
 11
102.6311258786
 21
-25.232640416
 31
0.0
  0
LINE
  5
21B
  8
0
  6
CONTINUOUS
 62
     7
 10
102.6311258786
 20
-37.4326401805
 30
0.0
 11
119.0311248414
 21
-37.4326401805
 31
0.0
  0
LINE
  5
21C
  8
0
  6
CONTINUOUS
 62
     7
 10
239.0311251395
 20
-25.232640416
 30
0.0
 11
236.0835443251
 21
-25.232640416
 31
0.0
  0
LINE
  5
21D
  8
0
  6
CONTINUOUS
 62
     7
 10
231.0360024683
 20
-25.232640416
 30
0.0
 11
222.6311276667
 21
-25.232640416
 31
0.0
  0
LINE
  5
21E
  8
0
  6
CONTINUOUS
 62
     7
 10
222.6311276667
 20
-37.4326401805
 30
0.0
 11
235.350299906
 21
-37.4326401805
 31
0.0
  0
LINE
  5
21F
  8
0
  6
CONTINUOUS
 62
     7
 10
239.3311272375
 20
-37.7326400434
 30
0.0
 11
242.7311311476
 21
-37.7326400434
 31
0.0
  0
LINE
  5
220
  8
0
  6
CONTINUOUS
 62
     7
 10
239.3311272375
 20
-25.3326402461
 30
0.0
 11
239.0311251395
 21
-25.3326402461
 31
0.0
  0
LINE
  5
221
  8
0
  6
CONTINUOUS
 62
     7
 10
222.6311276667
 20
-25.3326402461
 30
0.0
 11
221.931124758
 21
-25.3326402461
 31
0.0
  0
LINE
  5
222
  8
0
  6
CONTINUOUS
 62
     7
 10
221.931124758
 20
-37.3326403504
 30
0.0
 11
222.6311276667
 21
-37.3326403504
 31
0.0
  0
LINE
  5
223
  8
0
  6
CONTINUOUS
 62
     7
 10
239.0311251395
 20
-37.3326403504
 30
0.0
 11
239.3311272375
 21
-37.3326403504
 31
0.0
  0
LINE
  5
224
  8
0
  6
CONTINUOUS
 62
     7
 10
242.7311311476
 20
-22.7326401924
 30
0.0
 11
239.3311272375
 21
-22.7326401924
 31
0.0
  0
LINE
  5
225
  8
0
  6
CONTINUOUS
 62
     7
 10
119.3311254494
 20
-37.7326400434
 30
0.0
 11
122.7311248891
 21
-37.7326400434
 31
0.0
  0
LINE
  5
226
  8
0
  6
CONTINUOUS
 62
     7
 10
119.3311254494
 20
-25.3326402461
 30
0.0
 11
119.0311248414
 21
-25.3326402461
 31
0.0
  0
LINE
  5
227
  8
0
  6
CONTINUOUS
 62
     7
 10
102.6311258786
 20
-25.3326402461
 30
0.0
 11
101.9311259501
 21
-25.3326402461
 31
0.0
  0
LINE
  5
228
  8
0
  6
CONTINUOUS
 62
     7
 10
101.9311259501
 20
-37.3326403504
 30
0.0
 11
102.6311258786
 21
-37.3326403504
 31
0.0
  0
LINE
  5
229
  8
0
  6
CONTINUOUS
 62
     7
 10
119.0311248414
 20
-37.3326403504
 30
0.0
 11
119.3311254494
 21
-37.3326403504
 31
0.0
  0
LINE
  5
22A
  8
0
  6
CONTINUOUS
 62
     7
 10
122.7311248891
 20
-22.7326401924
 30
0.0
 11
119.3311254494
 21
-22.7326401924
 31
0.0
  0
LINE
  5
22B
  8
0
  6
CONTINUOUS
 62
     7
 10
39.9311195128
 20
-37.7326400434
 30
0.0
 11
43.3311234228
 21
-37.7326400434
 31
0.0
  0
LINE
  5
22C
  8
0
  6
CONTINUOUS
 62
     7
 10
43.3311234228
 20
-37.3326403504
 30
0.0
 11
43.6311255209
 21
-37.3326403504
 31
0.0
  0
LINE
  5
22D
  8
0
  6
CONTINUOUS
 62
     7
 10
60.0311229937
 20
-37.3326403504
 30
0.0
 11
60.7311259024
 21
-37.3326403504
 31
0.0
  0
LINE
  5
22E
  8
0
  6
CONTINUOUS
 62
     7
 10
60.7311259024
 20
-25.3326402461
 30
0.0
 11
60.0311229937
 21
-25.3326402461
 31
0.0
  0
LINE
  5
22F
  8
0
  6
CONTINUOUS
 62
     7
 10
43.6311255209
 20
-25.3326402461
 30
0.0
 11
43.3311234228
 21
-25.3326402461
 31
0.0
  0
LINE
  5
230
  8
0
  6
CONTINUOUS
 62
     7
 10
43.3311234228
 20
-22.7326401924
 30
0.0
 11
39.9311195128
 21
-22.7326401924
 31
0.0
  0
LINE
  5
231
  8
0
  6
CONTINUOUS
 62
     7
 10
159.9311257713
 20
-37.7326400434
 30
0.0
 11
163.331125211
 21
-37.7326400434
 31
0.0
  0
LINE
  5
232
  8
0
  6
CONTINUOUS
 62
     7
 10
163.331125211
 20
-37.3326403504
 30
0.0
 11
163.631125819
 21
-37.3326403504
 31
0.0
  0
LINE
  5
233
  8
0
  6
CONTINUOUS
 62
     7
 10
180.0311247818
 20
-37.3326403504
 30
0.0
 11
180.7311247103
 21
-37.3326403504
 31
0.0
  0
LINE
  5
234
  8
0
  6
CONTINUOUS
 62
     7
 10
180.7311247103
 20
-25.3326402461
 30
0.0
 11
180.0311247818
 21
-25.3326402461
 31
0.0
  0
LINE
  5
235
  8
0
  6
CONTINUOUS
 62
     7
 10
163.631125819
 20
-25.3326402461
 30
0.0
 11
163.331125211
 21
-25.3326402461
 31
0.0
  0
LINE
  5
236
  8
0
  6
CONTINUOUS
 62
     7
 10
163.331125211
 20
-22.7326401924
 30
0.0
 11
159.9311257713
 21
-22.7326401924
 31
0.0
  0
LINE
  5
237
  8
0
  6
CONTINUOUS
 62
     7
 10
38.1311307661
 20
-26.2326402073
 30
0.0
 11
39.9311195128
 21
-26.2326402073
 31
0.0
  0
LINE
  5
238
  8
0
  6
CONTINUOUS
 62
     7
 10
60.7311259024
 20
-26.2326402073
 30
0.0
 11
63.3311281912
 21
-26.2326402073
 31
0.0
  0
LINE
  5
239
  8
0
  6
CONTINUOUS
 62
     7
 10
99.3311266415
 20
-26.2326402073
 30
0.0
 11
101.9311259501
 21
-26.2326402073
 31
0.0
  0
LINE
  5
23A
  8
0
  6
CONTINUOUS
 62
     7
 10
122.7311248891
 20
-26.2326402073
 30
0.0
 11
159.9311257713
 21
-26.2326402073
 31
0.0
  0
LINE
  5
23B
  8
0
  6
CONTINUOUS
 62
     7
 10
180.7311247103
 20
-26.2326402073
 30
0.0
 11
183.3311240189
 21
-26.2326402073
 31
0.0
  0
LINE
  5
23C
  8
0
  6
CONTINUOUS
 62
     7
 10
219.3311224692
 20
-26.2326402073
 30
0.0
 11
221.931124758
 21
-26.2326402073
 31
0.0
  0
LINE
  5
23D
  8
0
  6
CONTINUOUS
 62
     7
 10
242.7311311476
 20
-26.2326402073
 30
0.0
 11
244.5311198943
 21
-26.2326402073
 31
0.0
  0
LINE
  5
23E
  8
0
  6
CONTINUOUS
 62
     7
 10
244.9311266653
 20
-26.6326402729
 30
0.0
 11
244.9311266653
 21
-27.2326403713
 31
0.0
  0
ARC
  5
23F
  8
0
  6
CONTINUOUS
 62
     7
 10
244.5311253302
 20
-26.6326402818
 30
0.0
 40
0.4000000000000057
 50
0.0
 51
90.0
  0
LINE
  5
240
  8
0
  6
CONTINUOUS
 62
     7
 10
37.731123995
 20
-27.2326403713
 30
0.0
 11
37.731123995
 21
-26.6326402729
 31
0.0
  0
ARC
  5
241
  8
0
  6
CONTINUOUS
 62
     7
 10
38.1311253302
 20
-26.6326402818
 30
0.0
 40
0.4000000000000057
 50
90.0
 51
180.0
  0
LINE
  5
242
  8
0
  6
CONTINUOUS
 62
     7
 10
244.9311266653
 20
-27.2326403713
 30
0.0
 11
244.9311266653
 21
-35.2326401924
 31
0.0
  0
LINE
  5
243
  8
0
  6
CONTINUOUS
 62
     7
 10
37.731123995
 20
-35.2326401924
 30
0.0
 11
37.731123995
 21
-27.2326403713
 31
0.0
  0
LINE
  5
244
  8
0
  6
CONTINUOUS
 62
     7
 10
244.5311198943
 20
-36.2326403564
 30
0.0
 11
242.7311311476
 21
-36.2326403564
 31
0.0
  0
LINE
  5
245
  8
0
  6
CONTINUOUS
 62
     7
 10
221.931124758
 20
-36.2326403564
 30
0.0
 11
219.3311224692
 21
-36.2326403564
 31
0.0
  0
LINE
  5
246
  8
0
  6
CONTINUOUS
 62
     7
 10
183.3311240189
 20
-36.2326403564
 30
0.0
 11
180.7311247103
 21
-36.2326403564
 31
0.0
  0
LINE
  5
247
  8
0
  6
CONTINUOUS
 62
     7
 10
159.9311257713
 20
-36.2326403564
 30
0.0
 11
122.7311248891
 21
-36.2326403564
 31
0.0
  0
LINE
  5
248
  8
0
  6
CONTINUOUS
 62
     7
 10
101.9311259501
 20
-36.2326403564
 30
0.0
 11
99.3311266415
 21
-36.2326403564
 31
0.0
  0
LINE
  5
249
  8
0
  6
CONTINUOUS
 62
     7
 10
63.3311281912
 20
-36.2326403564
 30
0.0
 11
60.7311259024
 21
-36.2326403564
 31
0.0
  0
LINE
  5
24A
  8
0
  6
CONTINUOUS
 62
     7
 10
39.9311195128
 20
-36.2326403564
 30
0.0
 11
38.1311307661
 21
-36.2326403564
 31
0.0
  0
ARC
  5
24B
  8
0
  6
CONTINUOUS
 62
     7
 10
38.1311253302
 20
-35.8326402818
 30
0.0
 40
0.3999999999999986
 50
180.0
 51
270.0
  0
LINE
  5
24C
  8
0
  6
CONTINUOUS
 62
     7
 10
37.731123995
 20
-35.8326402908
 30
0.0
 11
37.731123995
 21
-35.2326401924
 31
0.0
  0
LINE
  5
24D
  8
0
  6
CONTINUOUS
 62
     7
 10
244.9311266653
 20
-35.2326401924
 30
0.0
 11
244.9311266653
 21
-35.8326402908
 31
0.0
  0
ARC
  5
24E
  8
0
  6
CONTINUOUS
 62
     7
 10
244.5311253302
 20
-35.8326402818
 30
0.0
 40
0.4000000000000057
 50
270.0
 51
0.0
  0
LINE
  5
24F
  8
0
  6
CONTINUOUS
 62
     7
 10
228.331125807
 20
-25.232640416
 30
0.0
 11
228.331125807
 21
-24.167411909
 31
0.0
  0
POLYLINE
  5
250
  8
0
  6
CONTINUOUS
 62
     7
 66
     1
 10
0.0
 20
0.0
 30
0.0
  0
VERTEX
  5
65E
  8
0
  6
CONTINUOUS
 62
     7
 10
227.3954044096
 20
-37.4326401805
 30
0.0
  0
VERTEX
  5
65F
  8
0
  6
CONTINUOUS
 62
     7
 10
227.325714659
 20
-37.8760048603
 30
0.0
  0
VERTEX
  5
660
  8
0
  6
CONTINUOUS
 62
     7
 10
226.9309948199
 20
-40.1343302285
 30
0.0
  0
SEQEND
  5
7C9
  8
0
  6
CONTINUOUS
 62
     7
  0
LINE
  5
251
  8
0
  6
CONTINUOUS
 62
     7
 10
204.3321262114
 20
-25.632640109
 30
0.0
 11
204.3311248534
 21
-25.232640416
 31
0.0
  0
LINE
  5
252
  8
0
  6
CONTINUOUS
 62
     7
 10
208.3966682665
 20
-19.2326405501
 30
0.0
 11
208.3311269991
 21
-19.2326405501
 31
0.0
  0
ARC
  5
253
  8
0
  6
CONTINUOUS
 62
     7
 10
224.3311253302
 20
-23.2326402818
 30
0.0
 40
1.500000000000014
 50
141.2936122605
 51
0.5532366202
  0
CIRCLE
  5
254
  8
0
  6
CONTINUOUS
 62
     7
 10
208.3311253302
 20
-23.2326402818
 30
0.0
 40
1.5
  0
ARC
  5
255
  8
0
  6
CONTINUOUS
 62
     7
 10
208.3311253302
 20
-23.2326402818
 30
0.0
 40
4.000000000000004
 50
90.0
 51
180.0
  0
ARC
  5
256
  8
0
  6
CONTINUOUS
 62
     7
 10
62.9168410448
 20
-51.2326402818
 30
0.0
 40
3.999999999999996
 50
200.0051900882
 51
270.0
  0
ARC
  5
257
  8
0
  6
CONTINUOUS
 62
     7
 10
134.3311253302
 20
-25.2326402818
 30
0.0
 40
80.0
 50
188.7718331197
 51
200.0051900882
  0
LINE
  5
258
  8
0
  6
CONTINUOUS
 62
     7
 10
54.3311248534
 20
-24.1678581988
 30
0.0
 11
54.3311248534
 21
-25.232640416
 31
0.0
  0
LINE
  5
259
  8
0
  6
CONTINUOUS
 62
     7
 10
74.3311236613
 20
-19.2326405501
 30
0.0
 11
74.2655823939
 21
-19.2326405501
 31
0.0
  0
ARC
  5
25A
  8
0
  6
CONTINUOUS
 62
     7
 10
74.3311253302
 20
-23.2326402818
 30
0.0
 40
4.0
 50
0.0
 51
90.0
  0
LINE
  5
25B
  8
0
  6
CONTINUOUS
 62
     7
 10
78.331125807
 20
-25.232640416
 30
0.0
 11
78.330124449
 21
-25.632640109
 31
0.0
  0
ARC
  5
25C
  8
0
  6
CONTINUOUS
 62
     7
 10
-1.6688746698
 20
-25.2326402818
 30
0.0
 40
80.0
 50
339.9948099118
 51
351.6627208111
  0
ARC
  5
25D
  8
0
  6
CONTINUOUS
 62
     7
 10
69.7454096156
 20
-51.2326402818
 30
0.0
 40
3.999999999999993
 50
270.0
 51
339.9948099118
  0
LINE
  5
25E
  8
0
  6
CONTINUOUS
 62
     7
 10
62.9168401472
 20
-55.2326397454
 30
0.0
 11
69.7454105131
 21
-55.2326397454
 31
0.0
  0
ARC
  5
25F
  8
0
  6
CONTINUOUS
 62
     7
 10
58.3311253302
 20
-23.2326402818
 30
0.0
 40
1.5
 50
270.0
 51
38.8386719473
  0
ARC
  5
260
  8
0
  6
CONTINUOUS
 62
     7
 10
58.3311253302
 20
-23.2326402818
 30
0.0
 40
1.5
 50
179.2809376961
 51
270.0
  0
CIRCLE
  5
261
  8
0
  6
CONTINUOUS
 62
     7
 10
74.3311253302
 20
-23.2326402818
 30
0.0
 40
1.500000000000007
  0
CIRCLE
  5
262
  8
0
  6
CONTINUOUS
 62
     7
 10
66.3311253302
 20
-51.2326402818
 30
0.0
 40
1.500000000000007
  0
POLYLINE
  5
263
  8
0
  6
CONTINUOUS
 62
     7
 66
     1
 10
0.0
 20
0.0
 30
0.0
  0
VERTEX
  5
661
  8
0
  6
CONTINUOUS
 62
     7
 10
116.3564513438
 20
-24.7531713402
 30
0.0
  0
VERTEX
  5
662
  8
0
  6
CONTINUOUS
 62
     7
 10
116.3838590495
 20
-24.4486109769
 30
0.0
  0
VERTEX
  5
663
  8
0
  6
CONTINUOUS
 62
     7
 10
116.2220220082
 20
-24.0289950227
 30
0.0
  0
VERTEX
  5
664
  8
0
  6
CONTINUOUS
 62
     7
 10
115.8698837273
 20
-23.5098661339
 30
0.0
  0
VERTEX
  5
665
  8
0
  6
CONTINUOUS
 62
     7
 10
115.3351734392
 20
-22.9154893612
 30
0.0
  0
VERTEX
  5
666
  8
0
  6
CONTINUOUS
 62
     7
 10
114.6248321049
 20
-22.2698868667
 30
0.0
  0
VERTEX
  5
667
  8
0
  6
CONTINUOUS
 62
     7
 10
113.7576351874
 20
-21.6002018606
 30
0.0
  0
VERTEX
  5
668
  8
0
  6
CONTINUOUS
 62
     7
 10
112.7567271702
 20
-20.9344448005
 30
0.0
  0
VERTEX
  5
669
  8
0
  6
CONTINUOUS
 62
     7
 10
111.6476873867
 20
-20.2931688582
 30
0.0
  0
VERTEX
  5
66A
  8
0
  6
CONTINUOUS
 62
     7
 10
110.6192986481
 20
-19.7728583073
 30
0.0
  0
VERTEX
  5
66B
  8
0
  6
CONTINUOUS
 62
     7
 10
109.5537911169
 20
-19.2981408393
 30
0.0
  0
SEQEND
  5
7C8
  8
0
  6
CONTINUOUS
 62
     7
  0
ARC
  5
264
  8
0
  6
CONTINUOUS
 62
     7
 10
112.082653543
 20
-22.6756408579
 30
0.0
 40
4.751997532230635
 50
310.0314830344
 51
334.0752081812
  0
POLYLINE
  5
265
  8
0
  6
CONTINUOUS
 62
     7
 66
     1
 10
0.0
 20
0.0
 30
0.0
  0
VERTEX
  5
66C
  8
0
  6
CONTINUOUS
 62
     7
 10
106.8910430186
 20
-23.6073599612
 30
0.0
  0
VERTEX
  5
66D
  8
0
  6
CONTINUOUS
 62
     7
 10
108.2923511975
 20
-24.1521613156
 30
0.0
  0
VERTEX
  5
66E
  8
0
  6
CONTINUOUS
 62
     7
 10
109.6417198889
 20
-24.6828810727
 30
0.0
  0
VERTEX
  5
66F
  8
0
  6
CONTINUOUS
 62
     7
 10
110.9014491551
 20
-25.1801927989
 30
0.0
  0
VERTEX
  5
670
  8
0
  6
CONTINUOUS
 62
     7
 10
112.0392302983
 20
-25.6236811584
 30
0.0
  0
VERTEX
  5
671
  8
0
  6
CONTINUOUS
 62
     7
 10
113.020498585
 20
-25.9909292167
 30
0.0
  0
VERTEX
  5
672
  8
0
  6
CONTINUOUS
 62
     7
 10
113.8283441775
 20
-26.2660977846
 30
0.0
  0
VERTEX
  5
673
  8
0
  6
CONTINUOUS
 62
     7
 10
114.353654813
 20
-26.4078983521
 30
0.0
  0
SEQEND
  5
7C7
  8
0
  6
CONTINUOUS
 62
     7
  0
ARC
  5
266
  8
0
  6
CONTINUOUS
 62
     7
 10
81.3311259262
 20
-89.9000322605
 30
0.0
 40
71.04947404698464
 50
68.915269925
 51
111.084730075
  0
POLYLINE
  5
267
  8
0
  6
CONTINUOUS
 62
     7
 66
     1
 10
0.0
 20
0.0
 30
0.0
  0
VERTEX
  5
674
  8
0
  6
CONTINUOUS
 62
     7
 10
48.3539055102
 20
-26.4014908528
 30
0.0
  0
VERTEX
  5
675
  8
0
  6
CONTINUOUS
 62
     7
 10
48.3571837656
 20
-26.4009484505
 30
0.0
  0
VERTEX
  5
676
  8
0
  6
CONTINUOUS
 62
     7
 10
49.0255127661
 20
-26.2044434851
 30
0.0
  0
VERTEX
  5
677
  8
0
  6
CONTINUOUS
 62
     7
 10
49.8829255812
 20
-25.9029944842
 30
0.0
  0
VERTEX
  5
678
  8
0
  6
CONTINUOUS
 62
     7
 10
50.9111414664
 20
-25.512462989
 30
0.0
  0
VERTEX
  5
679
  8
0
  6
CONTINUOUS
 62
     7
 10
52.0829210989
 20
-25.0531924372
 30
0.0
  0
VERTEX
  5
67A
  8
0
  6
CONTINUOUS
 62
     7
 10
53.366107773
 20
-24.5466323053
 30
0.0
  0
VERTEX
  5
67B
  8
0
  6
CONTINUOUS
 62
     7
 10
54.7280858271
 20
-24.0120494222
 30
0.0
  0
VERTEX
  5
67C
  8
0
  6
CONTINUOUS
 62
     7
 10
55.7712088339
 20
-23.6073599612
 30
0.0
  0
SEQEND
  5
7C6
  8
0
  6
CONTINUOUS
 62
     7
  0
ARC
  5
268
  8
0
  6
CONTINUOUS
 62
     7
 10
50.5597336627
 20
-22.6894065016
 30
0.0
 40
4.728071702428798
 50
205.8787563877
 51
229.8555383605
  0
POLYLINE
  5
269
  8
0
  6
CONTINUOUS
 62
     7
 66
     1
 10
0.0
 20
0.0
 30
0.0
  0
VERTEX
  5
67D
  8
0
  6
CONTINUOUS
 62
     7
 10
53.1085084193
 20
-19.2981199776
 30
0.0
  0
VERTEX
  5
67E
  8
0
  6
CONTINUOUS
 62
     7
 10
51.8811355345
 20
-19.8506878173
 30
0.0
  0
VERTEX
  5
67F
  8
0
  6
CONTINUOUS
 62
     7
 10
50.7076690905
 20
-20.4616242503
 30
0.0
  0
VERTEX
  5
680
  8
0
  6
CONTINUOUS
 62
     7
 10
49.6219228022
 20
-21.1137318467
 30
0.0
  0
VERTEX
  5
681
  8
0
  6
CONTINUOUS
 62
     7
 10
48.6525963061
 20
-21.7843451952
 30
0.0
  0
VERTEX
  5
682
  8
0
  6
CONTINUOUS
 62
     7
 10
47.8309164755
 20
-22.4463158702
 30
0.0
  0
VERTEX
  5
683
  8
0
  6
CONTINUOUS
 62
     7
 10
47.1691141836
 20
-23.0775827026
 30
0.0
  0
VERTEX
  5
684
  8
0
  6
CONTINUOUS
 62
     7
 10
46.6828296892
 20
-23.6531400537
 30
0.0
  0
VERTEX
  5
685
  8
0
  6
CONTINUOUS
 62
     7
 10
46.380091738
 20
-24.1476000702
 30
0.0
  0
VERTEX
  5
686
  8
0
  6
CONTINUOUS
 62
     7
 10
46.2710569613
 20
-24.4947822248
 30
0.0
  0
VERTEX
  5
687
  8
0
  6
CONTINUOUS
 62
     7
 10
46.3057945483
 20
-24.7530595814
 30
0.0
  0
SEQEND
  5
7C5
  8
0
  6
CONTINUOUS
 62
     7
  0
ARC
  5
26A
  8
0
  6
CONTINUOUS
 62
     7
 10
81.331124699
 20
-87.1276595018
 30
0.0
 40
73.4667441889479
 50
67.4086667073
 51
112.5912909408
  0
POLYLINE
  5
26B
  8
0
  6
CONTINUOUS
 62
     7
 66
     1
 10
0.0
 20
0.0
 30
0.0
  0
VERTEX
  5
688
  8
0
  6
CONTINUOUS
 62
     7
 10
45.7185457461
 20
-23.745692656
 30
0.0
  0
VERTEX
  5
689
  8
0
  6
CONTINUOUS
 62
     7
 10
45.6885109656
 20
-23.4431119119
 30
0.0
  0
VERTEX
  5
68A
  8
0
  6
CONTINUOUS
 62
     7
 10
45.8476315253
 20
-23.0251566922
 30
0.0
  0
VERTEX
  5
68B
  8
0
  6
CONTINUOUS
 62
     7
 10
46.1970160715
 20
-22.5072869515
 30
0.0
  0
VERTEX
  5
68C
  8
0
  6
CONTINUOUS
 62
     7
 10
46.7289815657
 20
-21.9136813139
 30
0.0
  0
VERTEX
  5
68D
  8
0
  6
CONTINUOUS
 62
     7
 10
47.4366734736
 20
-21.2682323014
 30
0.0
  0
VERTEX
  5
68E
  8
0
  6
CONTINUOUS
 62
     7
 10
48.3013461344
 20
-20.5980399107
 30
0.0
  0
VERTEX
  5
68F
  8
0
  6
CONTINUOUS
 62
     7
 10
49.3001113646
 20
-19.9309320604
 30
0.0
  0
VERTEX
  5
690
  8
0
  6
CONTINUOUS
 62
     7
 10
50.4072974436
 20
-19.2875990128
 30
0.0
  0
VERTEX
  5
691
  8
0
  6
CONTINUOUS
 62
     7
 10
51.4342914336
 20
-18.7649884676
 30
0.0
  0
VERTEX
  5
692
  8
0
  6
CONTINUOUS
 62
     7
 10
52.4986873381
 20
-18.2875321662
 30
0.0
  0
SEQEND
  5
7C4
  8
0
  6
CONTINUOUS
 62
     7
  0
POLYLINE
  5
26C
  8
0
  6
CONTINUOUS
 62
     7
 66
     1
 10
0.0
 20
0.0
 30
0.0
  0
VERTEX
  5
693
  8
0
  6
CONTINUOUS
 62
     7
 10
110.1636121981
 20
-18.2875515377
 30
0.0
  0
VERTEX
  5
694
  8
0
  6
CONTINUOUS
 62
     7
 10
111.3895128481
 20
-18.8431651747
 30
0.0
  0
VERTEX
  5
695
  8
0
  6
CONTINUOUS
 62
     7
 10
112.5611494295
 20
-19.4565379476
 30
0.0
  0
VERTEX
  5
696
  8
0
  6
CONTINUOUS
 62
     7
 10
113.6447559111
 20
-20.1103763139
 30
0.0
  0
VERTEX
  5
697
  8
0
  6
CONTINUOUS
 62
     7
 10
114.6117250435
 20
-20.7820185875
 30
0.0
  0
VERTEX
  5
698
  8
0
  6
CONTINUOUS
 62
     7
 10
115.4310743325
 20
-21.4444780206
 30
0.0
  0
VERTEX
  5
699
  8
0
  6
CONTINUOUS
 62
     7
 10
116.0903881304
 20
-22.0756070172
 30
0.0
  0
VERTEX
  5
69A
  8
0
  6
CONTINUOUS
 62
     7
 10
116.5740395896
 20
-22.6504379367
 30
0.0
  0
VERTEX
  5
69B
  8
0
  6
CONTINUOUS
 62
     7
 10
116.8740774505
 20
-23.1436589216
 30
0.0
  0
VERTEX
  5
69C
  8
0
  6
CONTINUOUS
 62
     7
 10
116.9807205908
 20
-23.4893070018
 30
0.0
  0
VERTEX
  5
69D
  8
0
  6
CONTINUOUS
 62
     7
 10
116.9436971657
 20
-23.7458044147
 30
0.0
  0
SEQEND
  5
7C3
  8
0
  6
CONTINUOUS
 62
     7
  0
ARC
  5
26D
  8
0
  6
CONTINUOUS
 62
     7
 10
81.3311266611
 20
-87.0722050783
 30
0.0
 40
74.5831132693225
 50
67.2580150351
 51
112.7419464699
  0
POLYLINE
  5
26E
  8
0
  6
CONTINUOUS
 62
     7
 66
     1
 10
0.0
 20
0.0
 30
0.0
  0
VERTEX
  5
69E
  8
0
  6
CONTINUOUS
 62
     7
 10
236.3564501517
 20
-24.7531713402
 30
0.0
  0
VERTEX
  5
69F
  8
0
  6
CONTINUOUS
 62
     7
 10
236.3838563673
 20
-24.4486109769
 30
0.0
  0
VERTEX
  5
6A0
  8
0
  6
CONTINUOUS
 62
     7
 10
236.2220178358
 20
-24.0289950227
 30
0.0
  0
VERTEX
  5
6A1
  8
0
  6
CONTINUOUS
 62
     7
 10
235.869879555
 20
-23.5098661339
 30
0.0
  0
VERTEX
  5
6A2
  8
0
  6
CONTINUOUS
 62
     7
 10
235.3351722472
 20
-22.9154893612
 30
0.0
  0
VERTEX
  5
6A3
  8
0
  6
CONTINUOUS
 62
     7
 10
234.624833893
 20
-22.2698868667
 30
0.0
  0
VERTEX
  5
6A4
  8
0
  6
CONTINUOUS
 62
     7
 10
233.7576339953
 20
-21.6002018606
 30
0.0
  0
VERTEX
  5
6A5
  8
0
  6
CONTINUOUS
 62
     7
 10
232.7567229979
 20
-20.9344448005
 30
0.0
  0
VERTEX
  5
6A6
  8
0
  6
CONTINUOUS
 62
     7
 10
231.6476891749
 20
-20.2931688582
 30
0.0
  0
VERTEX
  5
6A7
  8
0
  6
CONTINUOUS
 62
     7
 10
230.6193004362
 20
-19.7728583073
 30
0.0
  0
VERTEX
  5
6A8
  8
0
  6
CONTINUOUS
 62
     7
 10
229.5537899248
 20
-19.2981408393
 30
0.0
  0
SEQEND
  5
7C2
  8
0
  6
CONTINUOUS
 62
     7
  0
ARC
  5
26F
  8
0
  6
CONTINUOUS
 62
     7
 10
231.8595529646
 20
-22.5240583741
 30
0.0
 40
5.019066539357964
 50
308.9515864466
 51
333.6323745761
  0
POLYLINE
  5
270
  8
0
  6
CONTINUOUS
 62
     7
 66
     1
 10
0.0
 20
0.0
 30
0.0
  0
VERTEX
  5
6A9
  8
0
  6
CONTINUOUS
 62
     7
 10
226.8910418265
 20
-23.6073599612
 30
0.0
  0
VERTEX
  5
6AA
  8
0
  6
CONTINUOUS
 62
     7
 10
228.2923529856
 20
-24.1521613156
 30
0.0
  0
VERTEX
  5
6AB
  8
0
  6
CONTINUOUS
 62
     7
 10
229.6417186968
 20
-24.6828810727
 30
0.0
  0
VERTEX
  5
6AC
  8
0
  6
CONTINUOUS
 62
     7
 10
230.9014509432
 20
-25.1801927989
 30
0.0
  0
VERTEX
  5
6AD
  8
0
  6
CONTINUOUS
 62
     7
 10
232.0392320864
 20
-25.6236811584
 30
0.0
  0
VERTEX
  5
6AE
  8
0
  6
CONTINUOUS
 62
     7
 10
233.0204973929
 20
-25.9909292167
 30
0.0
  0
VERTEX
  5
6AF
  8
0
  6
CONTINUOUS
 62
     7
 10
233.8283429854
 20
-26.2660977846
 30
0.0
  0
VERTEX
  5
6B0
  8
0
  6
CONTINUOUS
 62
     7
 10
234.4427178614
 20
-26.4319391405
 30
0.0
  0
VERTEX
  5
6B1
  8
0
  6
CONTINUOUS
 62
     7
 10
234.8509798758
 20
-26.4773753887
 30
0.0
  0
VERTEX
  5
6B2
  8
0
  6
CONTINUOUS
 62
     7
 10
235.0148568861
 20
-26.4272735869
 30
0.0
  0
SEQEND
  5
7C1
  8
0
  6
CONTINUOUS
 62
     7
  0
ARC
  5
271
  8
0
  6
CONTINUOUS
 62
     7
 10
201.3311247341
 20
-89.9000322605
 30
0.0
 40
71.0494740469846
 50
68.915269925
 51
111.084730075
  0
POLYLINE
  5
272
  8
0
  6
CONTINUOUS
 62
     7
 66
     1
 10
0.0
 20
0.0
 30
0.0
  0
VERTEX
  5
6B3
  8
0
  6
CONTINUOUS
 62
     7
 10
167.6473925822
 20
-26.4272735869
 30
0.0
  0
VERTEX
  5
6B4
  8
0
  6
CONTINUOUS
 62
     7
 10
167.8955028765
 20
-26.477353782
 30
0.0
  0
VERTEX
  5
6B5
  8
0
  6
CONTINUOUS
 62
     7
 10
168.3571825735
 20
-26.4009484505
 30
0.0
  0
VERTEX
  5
6B6
  8
0
  6
CONTINUOUS
 62
     7
 10
169.025511574
 20
-26.2044434851
 30
0.0
  0
VERTEX
  5
6B7
  8
0
  6
CONTINUOUS
 62
     7
 10
169.8829243891
 20
-25.9029944842
 30
0.0
  0
VERTEX
  5
6B8
  8
0
  6
CONTINUOUS
 62
     7
 10
170.9111402743
 20
-25.512462989
 30
0.0
  0
VERTEX
  5
6B9
  8
0
  6
CONTINUOUS
 62
     7
 10
172.0829199068
 20
-25.0531924372
 30
0.0
  0
VERTEX
  5
6BA
  8
0
  6
CONTINUOUS
 62
     7
 10
173.366106581
 20
-24.5466323053
 30
0.0
  0
VERTEX
  5
6BB
  8
0
  6
CONTINUOUS
 62
     7
 10
174.728084635
 20
-24.0120494222
 30
0.0
  0
VERTEX
  5
6BC
  8
0
  6
CONTINUOUS
 62
     7
 10
175.7712076418
 20
-23.6073599612
 30
0.0
  0
SEQEND
  5
7C0
  8
0
  6
CONTINUOUS
 62
     7
  0
ARC
  5
273
  8
0
  6
CONTINUOUS
 62
     7
 10
170.8023572845
 20
-22.5244669896
 30
0.0
 40
5.018535513636218
 50
206.3639998462
 51
231.048492575
  0
POLYLINE
  5
274
  8
0
  6
CONTINUOUS
 62
     7
 66
     1
 10
0.0
 20
0.0
 30
0.0
  0
VERTEX
  5
6BD
  8
0
  6
CONTINUOUS
 62
     7
 10
173.1085072272
 20
-19.2981199776
 30
0.0
  0
VERTEX
  5
6BE
  8
0
  6
CONTINUOUS
 62
     7
 10
171.8811343424
 20
-19.8506878173
 30
0.0
  0
VERTEX
  5
6BF
  8
0
  6
CONTINUOUS
 62
     7
 10
170.7076708786
 20
-20.4616242503
 30
0.0
  0
VERTEX
  5
6C0
  8
0
  6
CONTINUOUS
 62
     7
 10
169.6219186299
 20
-21.1137318467
 30
0.0
  0
VERTEX
  5
6C1
  8
0
  6
CONTINUOUS
 62
     7
 10
168.652595114
 20
-21.7843451952
 30
0.0
  0
VERTEX
  5
6C2
  8
0
  6
CONTINUOUS
 62
     7
 10
167.8309182637
 20
-22.4463158702
 30
0.0
  0
VERTEX
  5
6C3
  8
0
  6
CONTINUOUS
 62
     7
 10
167.1691129916
 20
-23.0775827026
 30
0.0
  0
VERTEX
  5
6C4
  8
0
  6
CONTINUOUS
 62
     7
 10
166.6828284972
 20
-23.6531400537
 30
0.0
  0
VERTEX
  5
6C5
  8
0
  6
CONTINUOUS
 62
     7
 10
166.3800875656
 20
-24.1476000702
 30
0.0
  0
VERTEX
  5
6C6
  8
0
  6
CONTINUOUS
 62
     7
 10
166.2710602395
 20
-24.4947822248
 30
0.0
  0
VERTEX
  5
6C7
  8
0
  6
CONTINUOUS
 62
     7
 10
166.3057948463
 20
-24.7530595814
 30
0.0
  0
SEQEND
  5
7BF
  8
0
  6
CONTINUOUS
 62
     7
  0
ARC
  5
275
  8
0
  6
CONTINUOUS
 62
     7
 10
201.3311235069
 20
-87.1276595018
 30
0.0
 40
73.46674418894757
 50
67.4086667073
 51
112.5912909408
  0
POLYLINE
  5
276
  8
0
  6
CONTINUOUS
 62
     7
 66
     1
 10
0.0
 20
0.0
 30
0.0
  0
VERTEX
  5
6C8
  8
0
  6
CONTINUOUS
 62
     7
 10
165.7185475342
 20
-23.745692656
 30
0.0
  0
VERTEX
  5
6C9
  8
0
  6
CONTINUOUS
 62
     7
 10
165.6885127537
 20
-23.4431119119
 30
0.0
  0
VERTEX
  5
6CA
  8
0
  6
CONTINUOUS
 62
     7
 10
165.8476303332
 20
-23.0251566922
 30
0.0
  0
VERTEX
  5
6CB
  8
0
  6
CONTINUOUS
 62
     7
 10
166.1970148794
 20
-22.5072869515
 30
0.0
  0
VERTEX
  5
6CC
  8
0
  6
CONTINUOUS
 62
     7
 10
166.7289833538
 20
-21.9136813139
 30
0.0
  0
VERTEX
  5
6CD
  8
0
  6
CONTINUOUS
 62
     7
 10
167.4366752617
 20
-21.2682323014
 30
0.0
  0
VERTEX
  5
6CE
  8
0
  6
CONTINUOUS
 62
     7
 10
168.3013449423
 20
-20.5980399107
 30
0.0
  0
VERTEX
  5
6CF
  8
0
  6
CONTINUOUS
 62
     7
 10
169.3001101725
 20
-19.9309320604
 30
0.0
  0
VERTEX
  5
6D0
  8
0
  6
CONTINUOUS
 62
     7
 10
170.4072962515
 20
-19.2875990128
 30
0.0
  0
VERTEX
  5
6D1
  8
0
  6
CONTINUOUS
 62
     7
 10
171.4342902415
 20
-18.7649884676
 30
0.0
  0
VERTEX
  5
6D2
  8
0
  6
CONTINUOUS
 62
     7
 10
172.498686146
 20
-18.2875321662
 30
0.0
  0
SEQEND
  5
7BE
  8
0
  6
CONTINUOUS
 62
     7
  0
POLYLINE
  5
277
  8
0
  6
CONTINUOUS
 62
     7
 66
     1
 10
0.0
 20
0.0
 30
0.0
  0
VERTEX
  5
6D3
  8
0
  6
CONTINUOUS
 62
     7
 10
230.163611006
 20
-18.2875515377
 30
0.0
  0
VERTEX
  5
6D4
  8
0
  6
CONTINUOUS
 62
     7
 10
231.389511656
 20
-18.8431651747
 30
0.0
  0
VERTEX
  5
6D5
  8
0
  6
CONTINUOUS
 62
     7
 10
232.5611482375
 20
-19.4565379476
 30
0.0
  0
VERTEX
  5
6D6
  8
0
  6
CONTINUOUS
 62
     7
 10
233.644754719
 20
-20.1103763139
 30
0.0
  0
VERTEX
  5
6D7
  8
0
  6
CONTINUOUS
 62
     7
 10
234.6117268317
 20
-20.7820185875
 30
0.0
  0
VERTEX
  5
6D8
  8
0
  6
CONTINUOUS
 62
     7
 10
235.4310761206
 20
-21.4444780206
 30
0.0
  0
VERTEX
  5
6D9
  8
0
  6
CONTINUOUS
 62
     7
 10
236.0903869383
 20
-22.0756070172
 30
0.0
  0
VERTEX
  5
6DA
  8
0
  6
CONTINUOUS
 62
     7
 10
236.5740369074
 20
-22.6504379367
 30
0.0
  0
VERTEX
  5
6DB
  8
0
  6
CONTINUOUS
 62
     7
 10
236.8740747683
 20
-23.1436589216
 30
0.0
  0
VERTEX
  5
6DC
  8
0
  6
CONTINUOUS
 62
     7
 10
236.9807193987
 20
-23.4893070018
 30
0.0
  0
VERTEX
  5
6DD
  8
0
  6
CONTINUOUS
 62
     7
 10
236.9436989539
 20
-23.7458044147
 30
0.0
  0
SEQEND
  5
7BD
  8
0
  6
CONTINUOUS
 62
     7
  0
ARC
  5
278
  8
0
  6
CONTINUOUS
 62
     7
 10
201.331125469
 20
-87.0722050783
 30
0.0
 40
74.58311326932277
 50
67.2580150351
 51
112.7419464699
  0
ARC
  5
279
  8
0
  6
CONTINUOUS
 62
     7
 10
96.9024262889
 20
-14.1327601958
 30
0.0
 40
1.001322846788991
 50
30.2902315368
 51
90.0802155235
  0
LINE
  5
27A
  8
0
  6
CONTINUOUS
 62
     7
 10
65.7612274401
 20
-13.1314383303
 30
0.0
 11
71.7515300028
 21
-13.1314383303
 31
0.0
  0
LINE
  5
27B
  8
0
  6
CONTINUOUS
 62
     7
 10
90.9107158892
 20
-13.1314383303
 30
0.0
 11
96.9010244124
 21
-13.1314383303
 31
0.0
  0
ARC
  5
27C
  8
0
  6
CONTINUOUS
 62
     7
 10
65.7598237149
 20
-14.1327569698
 30
0.0
 40
1.001319623372094
 50
89.9196784375
 51
149.7098745023
  0
LINE
  5
27D
  8
0
  6
CONTINUOUS
 62
     7
 10
64.4122670405
 20
-14.4579382097
 30
0.0
 11
64.8952017538
 21
-13.6277125632
 31
0.0
  0
LINE
  5
27E
  8
0
  6
CONTINUOUS
 62
     7
 10
63.6105070822
 20
-14.6452249443
 30
0.0
 11
64.5487914793
 21
-13.0321846759
 31
0.0
  0
ARC
  5
27F
  8
0
  6
CONTINUOUS
 62
     7
 10
65.4134171377
 20
-13.5372355345
 30
0.0
 40
1.001326070261739
 50
89.9198905166
 51
149.7096624231
  0
LINE
  5
280
  8
0
  6
CONTINUOUS
 62
     7
 10
65.4148171656
 20
-12.535910443
 30
0.0
 11
78.5333703272
 21
-12.535910443
 31
0.0
  0
ARC
  5
281
  8
0
  6
CONTINUOUS
 62
     7
 10
79.3188839772
 20
-11.9370493161
 30
0.0
 40
0.9877582414570527
 50
180.0217730304
 51
217.3212292825
  0
LINE
  5
282
  8
0
  6
CONTINUOUS
 62
     7
 10
78.331125807
 20
-11.9374246752
 30
0.0
 11
78.331125807
 21
-7.9672397529
 31
0.0
  0
ARC
  5
283
  8
0
  6
CONTINUOUS
 62
     7
 10
79.3274124136
 20
-7.970979486
 30
0.0
 40
0.9962936254518792
 50
89.7865010734
 51
179.7849314505
  0
LINE
  5
284
  8
0
  6
CONTINUOUS
 62
     7
 10
83.3311269991
 20
-6.9746927773
 30
0.0
 11
79.3311248534
 21
-6.9746927773
 31
0.0
  0
ARC
  5
285
  8
0
  6
CONTINUOUS
 62
     7
 10
83.3348369697
 20
-7.9709819737
 30
0.0
 40
0.9962961039020719
 50
0.2152110781
 51
90.213356398
  0
LINE
  5
286
  8
0
  6
CONTINUOUS
 62
     7
 10
84.3311260454
 20
-11.9374246752
 30
0.0
 11
84.3311260454
 21
-7.9672397529
 31
0.0
  0
ARC
  5
287
  8
0
  6
CONTINUOUS
 62
     7
 10
83.343320643
 20
-11.937033355
 30
0.0
 40
0.9878054799479825
 50
322.6796954679
 51
359.9773022191
  0
LINE
  5
288
  8
0
  6
CONTINUOUS
 62
     7
 10
84.1288815253
 20
-12.535910443
 30
0.0
 11
97.2474346869
 21
-12.535910443
 31
0.0
  0
ARC
  5
289
  8
0
  6
CONTINUOUS
 62
     7
 10
97.2488365634
 20
-13.5372323085
 30
0.0
 40
1.001322846789033
 50
30.2902315368
 51
90.0802155235
  0
LINE
  5
28A
  8
0
  6
CONTINUOUS
 62
     7
 10
98.1134603731
 20
-13.0321846759
 30
0.0
 11
99.0517447703
 21
-14.6452249443
 31
0.0
  0
LINE
  5
28B
  8
0
  6
CONTINUOUS
 62
     7
 10
97.7670500986
 20
-13.6277125632
 30
0.0
 11
98.2499818318
 21
-14.4579382097
 31
0.0
  0
ARC
  5
28C
  8
0
  6
CONTINUOUS
 62
     7
 10
65.7598206133
 20
-14.8639694449
 30
0.0
 40
1.0013157317525
 50
89.9195006515
 51
149.7099038593
  0
ARC
  5
28D
  8
0
  6
CONTINUOUS
 62
     7
 10
96.9024293905
 20
-14.8639726709
 30
0.0
 40
1.001318955186578
 50
30.2902021812
 51
90.080393308
  0
LINE
  5
28E
  8
0
  6
CONTINUOUS
 62
     7
 10
65.7612274401
 20
-13.8626547014
 30
0.0
 11
67.1797643416
 21
-13.8626547014
 31
0.0
  0
LINE
  5
28F
  8
0
  6
CONTINUOUS
 62
     7
 10
95.4824845307
 20
-13.8626547014
 30
0.0
 11
96.9010244124
 21
-13.8626547014
 31
0.0
  0
LINE
  5
290
  8
0
  6
CONTINUOUS
 62
     7
 10
84.3311260454
 20
-11.9374246752
 30
0.0
 11
84.3311260454
 21
-12.535910443
 31
0.0
  0
LINE
  5
291
  8
0
  6
CONTINUOUS
 62
     7
 10
78.331125807
 20
-12.535910443
 30
0.0
 11
78.331125807
 21
-11.9374246752
 31
0.0
  0
LINE
  5
292
  8
0
  6
CONTINUOUS
 62
     7
 10
84.3311260454
 20
-18.9417035734
 30
0.0
 11
84.3311260454
 21
-24.1456718599
 31
0.0
  0
LINE
  5
293
  8
0
  6
CONTINUOUS
 62
     7
 10
78.331125807
 20
-24.1456718599
 30
0.0
 11
78.331125807
 21
-18.9417035734
 31
0.0
  0
ARC
  5
294
  8
0
  6
CONTINUOUS
 62
     7
 10
83.3311253302
 20
-24.6326402818
 30
0.0
 40
1.0
 50
270.0
 51
0.0
  0
LINE
  5
295
  8
0
  6
CONTINUOUS
 62
     7
 10
84.3311260454
 20
-24.1456718599
 30
0.0
 11
84.3311260454
 21
-24.6326403176
 31
0.0
  0
ARC
  5
296
  8
0
  6
CONTINUOUS
 62
     7
 10
79.3311253302
 20
-24.6326402818
 30
0.0
 40
1.0
 50
180.0
 51
270.0
  0
LINE
  5
297
  8
0
  6
CONTINUOUS
 62
     7
 10
78.331125807
 20
-24.6326403176
 30
0.0
 11
78.331125807
 21
-24.1456718599
 31
0.0
  0
LINE
  5
298
  8
0
  6
CONTINUOUS
 62
     7
 10
83.3311269991
 20
-25.632640109
 30
0.0
 11
79.3311248534
 21
-25.632640109
 31
0.0
  0
LINE
  5
299
  8
0
  6
CONTINUOUS
 62
     7
 10
99.3311266415
 20
-35.8326402908
 30
0.0
 11
99.3311266415
 21
-32.2743533594
 31
0.0
  0
LINE
  5
29A
  8
0
  6
CONTINUOUS
 62
     7
 10
99.3311266415
 20
-27.4753124868
 30
0.0
 11
99.3311266415
 21
-26.6326402729
 31
0.0
  0
LINE
  5
29B
  8
0
  6
CONTINUOUS
 62
     7
 10
63.3311281912
 20
-35.8326402908
 30
0.0
 11
63.3311281912
 21
-32.2663498526
 31
0.0
  0
LINE
  5
29C
  8
0
  6
CONTINUOUS
 62
     7
 10
63.3311281912
 20
-27.4749839162
 30
0.0
 11
63.3311281912
 21
-26.6326402729
 31
0.0
  0
LINE
  5
29D
  8
0
  6
CONTINUOUS
 62
     7
 10
78.331125807
 20
-26.6326402729
 30
0.0
 11
78.331125807
 21
-24.6326403176
 31
0.0
  0
LINE
  5
29E
  8
0
  6
CONTINUOUS
 62
     7
 10
84.3311260454
 20
-24.6326403176
 30
0.0
 11
84.3311260454
 21
-26.6326402729
 31
0.0
  0
LINE
  5
29F
  8
0
  6
CONTINUOUS
 62
     7
 10
84.3311260454
 20
-25.632640109
 30
0.0
 11
99.3311266415
 21
-25.632640109
 31
0.0
  0
LINE
  5
2A0
  8
0
  6
CONTINUOUS
 62
     7
 10
99.3311266415
 20
-25.632640109
 30
0.0
 11
99.3311266415
 21
-26.6326402729
 31
0.0
  0
LINE
  5
2A1
  8
0
  6
CONTINUOUS
 62
     7
 10
63.3311281912
 20
-26.6326402729
 30
0.0
 11
63.3311281912
 21
-25.632640109
 31
0.0
  0
LINE
  5
2A2
  8
0
  6
CONTINUOUS
 62
     7
 10
63.3311281912
 20
-25.632640109
 30
0.0
 11
78.331125807
 21
-25.632640109
 31
0.0
  0
LINE
  5
2A3
  8
0
  6
CONTINUOUS
 62
     7
 10
99.3311266415
 20
-36.8326404547
 30
0.0
 11
63.3311281912
 21
-36.8326404547
 31
0.0
  0
LINE
  5
2A4
  8
0
  6
CONTINUOUS
 62
     7
 10
63.3311281912
 20
-36.8326404547
 30
0.0
 11
63.3311281912
 21
-35.8326402908
 31
0.0
  0
LINE
  5
2A5
  8
0
  6
CONTINUOUS
 62
     7
 10
99.3311266415
 20
-35.8326402908
 30
0.0
 11
99.3311266415
 21
-36.8326404547
 31
0.0
  0
ARC
  5
2A6
  8
0
  6
CONTINUOUS
 62
     7
 10
216.9024269455
 20
-14.1327569698
 30
0.0
 40
1.001319623372109
 50
30.2901254977
 51
90.0803215625
  0
LINE
  5
2A7
  8
0
  6
CONTINUOUS
 62
     7
 10
185.761226248
 20
-13.1314383303
 30
0.0
 11
191.7515347712
 21
-13.1314383303
 31
0.0
  0
LINE
  5
2A8
  8
0
  6
CONTINUOUS
 62
     7
 10
210.9107206576
 20
-13.1314383303
 30
0.0
 11
216.9010232203
 21
-13.1314383303
 31
0.0
  0
ARC
  5
2A9
  8
0
  6
CONTINUOUS
 62
     7
 10
185.7598243715
 20
-14.1327601958
 30
0.0
 40
1.001322846789107
 50
89.9197844765
 51
149.7097684632
  0
LINE
  5
2AA
  8
0
  6
CONTINUOUS
 62
     7
 10
184.4122688286
 20
-14.4579382097
 30
0.0
 11
184.8952005617
 21
-13.6277125632
 31
0.0
  0
LINE
  5
2AB
  8
0
  6
CONTINUOUS
 62
     7
 10
183.6105058901
 20
-14.6452249443
 30
0.0
 11
184.5487902872
 21
-13.0321846759
 31
0.0
  0
ARC
  5
2AC
  8
0
  6
CONTINUOUS
 62
     7
 10
185.4134140969
 20
-13.5372323085
 30
0.0
 40
1.001322846789009
 50
89.9197844765
 51
149.7097684632
  0
LINE
  5
2AD
  8
0
  6
CONTINUOUS
 62
     7
 10
185.4148159735
 20
-12.535910443
 30
0.0
 11
198.5333691351
 21
-12.535910443
 31
0.0
  0
ARC
  5
2AE
  8
0
  6
CONTINUOUS
 62
     7
 10
199.3189300174
 20
-11.937033355
 30
0.0
 40
0.9878054799482214
 50
180.0226977809
 51
217.3203045321
  0
LINE
  5
2AF
  8
0
  6
CONTINUOUS
 62
     7
 10
198.3311246149
 20
-11.9374246752
 30
0.0
 11
198.3311246149
 21
-7.9672397529
 31
0.0
  0
ARC
  5
2B0
  8
0
  6
CONTINUOUS
 62
     7
 10
199.3274136907
 20
-7.9709819737
 30
0.0
 40
0.9962961039020558
 50
89.786643602
 51
179.784788922
  0
LINE
  5
2B1
  8
0
  6
CONTINUOUS
 62
     7
 10
203.331125807
 20
-6.9746927773
 30
0.0
 11
199.3311236613
 21
-6.9746927773
 31
0.0
  0
ARC
  5
2B2
  8
0
  6
CONTINUOUS
 62
     7
 10
203.3348382467
 20
-7.970979486
 30
0.0
 40
0.9962936254518999
 50
0.2150685495
 51
90.2134989266
  0
LINE
  5
2B3
  8
0
  6
CONTINUOUS
 62
     7
 10
204.3311248534
 20
-11.9374246752
 30
0.0
 11
204.3311248534
 21
-7.9672397529
 31
0.0
  0
ARC
  5
2B4
  8
0
  6
CONTINUOUS
 62
     7
 10
203.3433666832
 20
-11.9370493161
 30
0.0
 40
0.9877582414574972
 50
322.6787707175
 51
359.9782269695
  0
LINE
  5
2B5
  8
0
  6
CONTINUOUS
 62
     7
 10
204.1288803332
 20
-12.535910443
 30
0.0
 11
217.2474334948
 21
-12.535910443
 31
0.0
  0
ARC
  5
2B6
  8
0
  6
CONTINUOUS
 62
     7
 10
217.2488335227
 20
-13.5372355345
 30
0.0
 40
1.001326070261781
 50
30.2903375769
 51
90.0801094834
  0
LINE
  5
2B7
  8
0
  6
CONTINUOUS
 62
     7
 10
218.1134591811
 20
-13.0321846759
 30
0.0
 11
219.0517435782
 21
-14.6452249443
 31
0.0
  0
LINE
  5
2B8
  8
0
  6
CONTINUOUS
 62
     7
 10
217.7670489065
 20
-13.6277125632
 30
0.0
 11
218.2499836199
 21
-14.4579382097
 31
0.0
  0
ARC
  5
2B9
  8
0
  6
CONTINUOUS
 62
     7
 10
216.9024300471
 20
-14.8639694449
 30
0.0
 40
1.001315731752516
 50
30.2900961407
 51
90.0804993485
  0
ARC
  5
2BA
  8
0
  6
CONTINUOUS
 62
     7
 10
185.7598212699
 20
-14.8639726709
 30
0.0
 40
1.001318955186696
 50
89.919606692
 51
149.7097978188
  0
LINE
  5
2BB
  8
0
  6
CONTINUOUS
 62
     7
 10
185.761226248
 20
-13.8626547014
 30
0.0
 11
187.1797661297
 21
-13.8626547014
 31
0.0
  0
LINE
  5
2BC
  8
0
  6
CONTINUOUS
 62
     7
 10
215.4824863188
 20
-13.8626547014
 30
0.0
 11
216.9010232203
 21
-13.8626547014
 31
0.0
  0
LINE
  5
2BD
  8
0
  6
CONTINUOUS
 62
     7
 10
198.3311246149
 20
-12.535910443
 30
0.0
 11
198.3311246149
 21
-11.9374246752
 31
0.0
  0
LINE
  5
2BE
  8
0
  6
CONTINUOUS
 62
     7
 10
204.3311248534
 20
-11.9374246752
 30
0.0
 11
204.3311248534
 21
-12.535910443
 31
0.0
  0
LINE
  5
2BF
  8
0
  6
CONTINUOUS
 62
     7
 10
204.3311248534
 20
-18.9417035734
 30
0.0
 11
204.3311248534
 21
-24.1456718599
 31
0.0
  0
LINE
  5
2C0
  8
0
  6
CONTINUOUS
 62
     7
 10
198.3311246149
 20
-24.1456718599
 30
0.0
 11
198.3311246149
 21
-18.9417035734
 31
0.0
  0
ARC
  5
2C1
  8
0
  6
CONTINUOUS
 62
     7
 10
203.3311253302
 20
-24.6326402818
 30
0.0
 40
1.000000000000028
 50
270.0
 51
0.0
  0
LINE
  5
2C2
  8
0
  6
CONTINUOUS
 62
     7
 10
204.3311248534
 20
-24.1456718599
 30
0.0
 11
204.3311248534
 21
-24.6326403176
 31
0.0
  0
LINE
  5
2C3
  8
0
  6
CONTINUOUS
 62
     7
 10
203.331125807
 20
-25.632640109
 30
0.0
 11
199.3311236613
 21
-25.632640109
 31
0.0
  0
ARC
  5
2C4
  8
0
  6
CONTINUOUS
 62
     7
 10
199.3311253302
 20
-24.6326402818
 30
0.0
 40
1.0
 50
180.0
 51
270.0
  0
LINE
  5
2C5
  8
0
  6
CONTINUOUS
 62
     7
 10
198.3311246149
 20
-24.6326403176
 30
0.0
 11
198.3311246149
 21
-24.1456718599
 31
0.0
  0
LINE
  5
2C6
  8
0
  6
CONTINUOUS
 62
     7
 10
204.3311248534
 20
-25.632640109
 30
0.0
 11
219.3311224692
 21
-25.632640109
 31
0.0
  0
LINE
  5
2C7
  8
0
  6
CONTINUOUS
 62
     7
 10
219.3311224692
 20
-25.632640109
 30
0.0
 11
219.3311224692
 21
-26.6326402729
 31
0.0
  0
LINE
  5
2C8
  8
0
  6
CONTINUOUS
 62
     7
 10
183.3311240189
 20
-26.6326402729
 30
0.0
 11
183.3311240189
 21
-25.632640109
 31
0.0
  0
LINE
  5
2C9
  8
0
  6
CONTINUOUS
 62
     7
 10
183.3311240189
 20
-25.632640109
 30
0.0
 11
198.3311246149
 21
-25.632640109
 31
0.0
  0
LINE
  5
2CA
  8
0
  6
CONTINUOUS
 62
     7
 10
219.3311224692
 20
-35.8326402908
 30
0.0
 11
219.3311224692
 21
-26.6326402729
 31
0.0
  0
LINE
  5
2CB
  8
0
  6
CONTINUOUS
 62
     7
 10
183.3311240189
 20
-35.8326402908
 30
0.0
 11
183.3311240189
 21
-26.6326402729
 31
0.0
  0
LINE
  5
2CC
  8
0
  6
CONTINUOUS
 62
     7
 10
198.3311246149
 20
-26.6326402729
 30
0.0
 11
198.3311246149
 21
-24.6326403176
 31
0.0
  0
LINE
  5
2CD
  8
0
  6
CONTINUOUS
 62
     7
 10
204.3311248534
 20
-24.6326403176
 30
0.0
 11
204.3311248534
 21
-26.6326402729
 31
0.0
  0
LINE
  5
2CE
  8
0
  6
CONTINUOUS
 62
     7
 10
219.3311224692
 20
-36.8326404547
 30
0.0
 11
214.9742196314
 21
-36.8326404547
 31
0.0
  0
LINE
  5
2CF
  8
0
  6
CONTINUOUS
 62
     7
 10
187.8113309853
 20
-36.8326404547
 30
0.0
 11
183.3311240189
 21
-36.8326404547
 31
0.0
  0
LINE
  5
2D0
  8
0
  6
CONTINUOUS
 62
     7
 10
219.3311224692
 20
-35.8326402908
 30
0.0
 11
219.3311224692
 21
-36.8326404547
 31
0.0
  0
LINE
  5
2D1
  8
0
  6
CONTINUOUS
 62
     7
 10
183.3311240189
 20
-36.8326404547
 30
0.0
 11
183.3311240189
 21
-35.8326402908
 31
0.0
  0
ARC
  5
2D2
  8
0
  6
CONTINUOUS
 62
     7
 10
201.3311237705
 20
-109.4637681276
 30
0.0
 40
73.90416181334238
 50
89.9999969424
 51
115.0850157941
  0
LINE
  5
2D3
  8
0
  6
CONTINUOUS
 62
     7
 10
169.6017245762
 20
-42.7174547171
 30
0.0
 11
169.9985246174
 21
-42.5302685653
 31
0.0
  0
LINE
  5
2D4
  8
0
  6
CONTINUOUS
 62
     7
 10
233.0605278723
 20
-42.7174547171
 30
0.0
 11
232.6637278311
 21
-42.5302685653
 31
0.0
  0
ARC
  5
2D5
  8
0
  6
CONTINUOUS
 62
     7
 10
201.3311241377
 20
-109.4637885362
 30
0.0
 40
73.90418222197638
 50
64.9149877259
 51
89.9999972271
  0
ARC
  5
2D6
  8
0
  6
CONTINUOUS
 62
     7
 10
229.8420090353
 20
-49.2980844294
 30
0.0
 40
7.325540328856595
 50
15.5161985504
 51
63.9372123427
  0
ARC
  5
2D7
  8
0
  6
CONTINUOUS
 62
     7
 10
229.4715227354
 20
-49.1311362449
 30
0.0
 40
7.332232095077667
 50
15.4884016411
 51
64.1914100242
  0
ARC
  5
2D8
  8
0
  6
CONTINUOUS
 62
     7
 10
173.1609522106
 20
-49.1062959247
 30
0.0
 40
7.296922920823208
 50
115.6830146952
 51
164.6371302727
  0
ARC
  5
2D9
  8
0
  6
CONTINUOUS
 62
     7
 10
172.8025503208
 20
-49.2833836753
 30
0.0
 40
7.30456697875791
 50
115.9887805148
 51
164.5577867343
  0
POLYLINE
  5
2DA
  8
0
  6
CONTINUOUS
 62
     7
 66
     1
 10
0.0
 20
0.0
 30
0.0
  0
VERTEX
  5
6DE
  8
0
  6
CONTINUOUS
 62
     7
 10
163.731054496
 20
-102.0216019308
 30
0.0
  0
VERTEX
  5
6DF
  8
0
  6
CONTINUOUS
 62
     7
 10
163.7310887687
 20
-100.8172960436
 30
0.0
  0
VERTEX
  5
6E0
  8
0
  6
CONTINUOUS
 62
     7
 10
163.7312198989
 20
-99.6037156736
 30
0.0
  0
VERTEX
  5
6E1
  8
0
  6
CONTINUOUS
 62
     7
 10
163.7316684239
 20
-97.2985894834
 30
0.0
  0
VERTEX
  5
6E2
  8
0
  6
CONTINUOUS
 62
     7
 10
163.7320588343
 20
-94.9906559145
 30
0.0
  0
VERTEX
  5
6E3
  8
0
  6
CONTINUOUS
 62
     7
 10
163.7311230414
 20
-90.3604002153
 30
0.0
  0
SEQEND
  5
7BC
  8
0
  6
CONTINUOUS
 62
     7
  0
LINE
  5
2DB
  8
0
  6
CONTINUOUS
 62
     7
 10
163.7311260216
 20
-90.3604002153
 30
0.0
 11
163.7311260216
 21
-80.3610326206
 31
0.0
  0
LINE
  5
2DC
  8
0
  6
CONTINUOUS
 62
     7
 10
163.7311260216
 20
-80.3610326206
 30
0.0
 11
163.7341882102
 21
-79.3326409017
 31
0.0
  0
LINE
  5
2DD
  8
0
  6
CONTINUOUS
 62
     7
 10
163.7311260216
 20
-70.3596146261
 30
0.0
 11
163.7311260216
 21
-62.2448088085
 31
0.0
  0
POLYLINE
  5
2DE
  8
0
  6
CONTINUOUS
 62
     7
 66
     1
 10
0.0
 20
0.0
 30
0.0
  0
VERTEX
  5
6E4
  8
0
  6
CONTINUOUS
 62
     7
 10
165.2624021284
 20
-49.1385342037
 30
0.0
  0
VERTEX
  5
6E5
  8
0
  6
CONTINUOUS
 62
     7
 10
165.566862654
 20
-48.01537557
 30
0.0
  0
VERTEX
  5
6E6
  8
0
  6
CONTINUOUS
 62
     7
 10
165.7616819255
 20
-47.3384232675
 30
0.0
  0
SEQEND
  5
7BB
  8
0
  6
CONTINUOUS
 62
     7
  0
POLYLINE
  5
2DF
  8
0
  6
CONTINUOUS
 62
     7
 66
     1
 10
0.0
 20
0.0
 30
0.0
  0
VERTEX
  5
6E7
  8
0
  6
CONTINUOUS
 62
     7
 10
166.1247785203
 20
-47.1731157457
 30
0.0
  0
VERTEX
  5
6E8
  8
0
  6
CONTINUOUS
 62
     7
 10
165.3503905051
 20
-49.8996884977
 30
0.0
  0
VERTEX
  5
6E9
  8
0
  6
CONTINUOUS
 62
     7
 10
164.7767270915
 20
-52.6068122541
 30
0.0
  0
VERTEX
  5
6EA
  8
0
  6
CONTINUOUS
 62
     7
 10
164.4152860157
 20
-55.325709418
 30
0.0
  0
VERTEX
  5
6EB
  8
0
  6
CONTINUOUS
 62
     7
 10
164.1676510684
 20
-58.0509783184
 30
0.0
  0
VERTEX
  5
6EC
  8
0
  6
CONTINUOUS
 62
     7
 10
164.0157173388
 20
-60.7771457588
 30
0.0
  0
VERTEX
  5
6ED
  8
0
  6
CONTINUOUS
 62
     7
 10
163.9473746531
 20
-65.3260709202
 30
0.0
  0
VERTEX
  5
6EE
  8
0
  6
CONTINUOUS
 62
     7
 10
163.9806519263
 20
-69.8767484581
 30
0.0
  0
VERTEX
  5
6EF
  8
0
  6
CONTINUOUS
 62
     7
 10
163.9808083885
 20
-74.4229914104
 30
0.0
  0
VERTEX
  5
6F0
  8
0
  6
CONTINUOUS
 62
     7
 10
163.9453182928
 20
-78.9739520704
 30
0.0
  0
VERTEX
  5
6F1
  8
0
  6
CONTINUOUS
 62
     7
 10
163.9142210595
 20
-83.5342676794
 30
0.0
  0
VERTEX
  5
6F2
  8
0
  6
CONTINUOUS
 62
     7
 10
163.8992960565
 20
-88.0671651518
 30
0.0
  0
VERTEX
  5
6F3
  8
0
  6
CONTINUOUS
 62
     7
 10
163.896248769
 20
-90.3138966715
 30
0.0
  0
VERTEX
  5
6F4
  8
0
  6
CONTINUOUS
 62
     7
 10
163.8948197477
 20
-92.5620169794
 30
0.0
  0
VERTEX
  5
6F5
  8
0
  6
CONTINUOUS
 62
     7
 10
163.8920928352
 20
-94.8374064123
 30
0.0
  0
VERTEX
  5
6F6
  8
0
  6
CONTINUOUS
 62
     7
 10
163.8843755238
 20
-97.1506924783
 30
0.0
  0
VERTEX
  5
6F7
  8
0
  6
CONTINUOUS
 62
     7
 10
163.8678292744
 20
-99.5117635881
 30
0.0
  0
VERTEX
  5
6F8
  8
0
  6
CONTINUOUS
 62
     7
 10
163.8393218629
 20
-101.9339533006
 30
0.0
  0
SEQEND
  5
7BA
  8
0
  6
CONTINUOUS
 62
     7
  0
POLYLINE
  5
2E0
  8
0
  6
CONTINUOUS
 62
     7
 66
     1
 10
0.0
 20
0.0
 30
0.0
  0
VERTEX
  5
6F9
  8
0
  6
CONTINUOUS
 62
     7
 10
236.5374754183
 20
-47.1731142556
 30
0.0
  0
VERTEX
  5
6FA
  8
0
  6
CONTINUOUS
 62
     7
 10
237.3952518217
 20
-50.2244786774
 30
0.0
  0
VERTEX
  5
6FB
  8
0
  6
CONTINUOUS
 62
     7
 10
237.9872332327
 20
-53.2582239663
 30
0.0
  0
VERTEX
  5
6FC
  8
0
  6
CONTINUOUS
 62
     7
 10
238.3470545523
 20
-56.3066692507
 30
0.0
  0
VERTEX
  5
6FD
  8
0
  6
CONTINUOUS
 62
     7
 10
238.5796914809
 20
-59.3593688165
 30
0.0
  0
VERTEX
  5
6FE
  8
0
  6
CONTINUOUS
 62
     7
 10
238.6925647967
 20
-62.4141247427
 30
0.0
  0
VERTEX
  5
6FF
  8
0
  6
CONTINUOUS
 62
     7
 10
238.7101720087
 20
-66.4183886205
 30
0.0
  0
VERTEX
  5
700
  8
0
  6
CONTINUOUS
 62
     7
 10
238.6784206145
 20
-70.4225303089
 30
0.0
  0
VERTEX
  5
701
  8
0
  6
CONTINUOUS
 62
     7
 10
238.68144257
 20
-74.4229914104
 30
0.0
  0
VERTEX
  5
702
  8
0
  6
CONTINUOUS
 62
     7
 10
238.7215564959
 20
-79.5212150966
 30
0.0
  0
VERTEX
  5
703
  8
0
  6
CONTINUOUS
 62
     7
 10
238.7529025786
 20
-84.6258552229
 30
0.0
  0
VERTEX
  5
704
  8
0
  6
CONTINUOUS
 62
     7
 10
238.7653837912
 20
-89.6864802992
 30
0.0
  0
VERTEX
  5
705
  8
0
  6
CONTINUOUS
 62
     7
 10
238.7668977492
 20
-91.6603417551
 30
0.0
  0
VERTEX
  5
706
  8
0
  6
CONTINUOUS
 62
     7
 10
238.768358063
 20
-93.6501295721
 30
0.0
  0
VERTEX
  5
707
  8
0
  6
CONTINUOUS
 62
     7
 10
238.7721608393
 20
-95.6652910864
 30
0.0
  0
VERTEX
  5
708
  8
0
  6
CONTINUOUS
 62
     7
 10
238.7808929198
 20
-97.7126510298
 30
0.0
  0
VERTEX
  5
709
  8
0
  6
CONTINUOUS
 62
     7
 10
238.7971828692
 20
-99.7987003481
 30
0.0
  0
VERTEX
  5
70A
  8
0
  6
CONTINUOUS
 62
     7
 10
238.8229261153
 20
-101.9339533006
 30
0.0
  0
SEQEND
  5
7B9
  8
0
  6
CONTINUOUS
 62
     7
  0
ARC
  5
2E1
  8
0
  6
CONTINUOUS
 62
     7
 10
232.0644034109
 20
-102.1497106312
 30
0.0
 40
6.761965717935066
 50
275.6854189804
 51
1.8284746651
  0
ARC
  5
2E2
  8
0
  6
CONTINUOUS
 62
     7
 10
201.3311247341
 20
223.2740756794
 30
0.0
 40
333.6336829098967
 50
264.5990581748
 51
275.4009418252
  0
POLYLINE
  5
2E3
  8
0
  6
CONTINUOUS
 62
     7
 66
     1
 10
0.0
 20
0.0
 30
0.0
  0
VERTEX
  5
70B
  8
0
  6
CONTINUOUS
 62
     7
 10
169.9279616587
 20
-108.8784129774
 30
0.0
  0
VERTEX
  5
70C
  8
0
  6
CONTINUOUS
 62
     7
 10
169.4963614456
 20
-108.8238151228
 30
0.0
  0
VERTEX
  5
70D
  8
0
  6
CONTINUOUS
 62
     7
 10
169.0628717654
 20
-108.7405116712
 30
0.0
  0
VERTEX
  5
70E
  8
0
  6
CONTINUOUS
 62
     7
 10
168.6300258152
 20
-108.6274714624
 30
0.0
  0
VERTEX
  5
70F
  8
0
  6
CONTINUOUS
 62
     7
 10
168.2381699793
 20
-108.4978194391
 30
0.0
  0
VERTEX
  5
710
  8
0
  6
CONTINUOUS
 62
     7
 10
167.8427080624
 20
-108.3386988794
 30
0.0
  0
VERTEX
  5
711
  8
0
  6
CONTINUOUS
 62
     7
 10
167.4463401549
 20
-108.1481905138
 30
0.0
  0
VERTEX
  5
712
  8
0
  6
CONTINUOUS
 62
     7
 10
167.1389709227
 20
-107.9769761717
 30
0.0
  0
VERTEX
  5
713
  8
0
  6
CONTINUOUS
 62
     7
 10
166.8352435343
 20
-107.7855320131
 30
0.0
  0
VERTEX
  5
714
  8
0
  6
CONTINUOUS
 62
     7
 10
166.547660064
 20
-107.5816185629
 30
0.0
  0
VERTEX
  5
715
  8
0
  6
CONTINUOUS
 62
     7
 10
166.2747408264
 20
-107.3652596628
 30
0.0
  0
VERTEX
  5
716
  8
0
  6
CONTINUOUS
 62
     7
 10
166.0086060874
 20
-107.1299643671
 30
0.0
  0
VERTEX
  5
717
  8
0
  6
CONTINUOUS
 62
     7
 10
165.7824407332
 20
-106.9084139024
 30
0.0
  0
VERTEX
  5
718
  8
0
  6
CONTINUOUS
 62
     7
 10
165.519383084
 20
-106.6216261541
 30
0.0
  0
VERTEX
  5
719
  8
0
  6
CONTINUOUS
 62
     7
 10
165.2236456983
 20
-106.2540264284
 30
0.0
  0
VERTEX
  5
71A
  8
0
  6
CONTINUOUS
 62
     7
 10
165.0123025291
 20
-105.9547991907
 30
0.0
  0
VERTEX
  5
71B
  8
0
  6
CONTINUOUS
 62
     7
 10
164.8020277731
 20
-105.6183488523
 30
0.0
  0
VERTEX
  5
71C
  8
0
  6
CONTINUOUS
 62
     7
 10
164.5908112638
 20
-105.2291960871
 30
0.0
  0
VERTEX
  5
71D
  8
0
  6
CONTINUOUS
 62
     7
 10
164.4147167914
 20
-104.8503489649
 30
0.0
  0
VERTEX
  5
71E
  8
0
  6
CONTINUOUS
 62
     7
 10
164.2702336423
 20
-104.4857056295
 30
0.0
  0
VERTEX
  5
71F
  8
0
  6
CONTINUOUS
 62
     7
 10
163.9406169765
 20
-103.240332142
 30
0.0
  0
VERTEX
  5
720
  8
0
  6
CONTINUOUS
 62
     7
 10
163.8393218629
 20
-101.9339533006
 30
0.0
  0
SEQEND
  5
7B8
  8
0
  6
CONTINUOUS
 62
     7
  0
LINE
  5
2E4
  8
0
  6
CONTINUOUS
 62
     7
 10
238.9311264269
 20
-70.3596146261
 30
0.0
 11
238.9311264269
 21
-62.2448088085
 31
0.0
  0
POLYLINE
  5
2E5
  8
0
  6
CONTINUOUS
 62
     7
 66
     1
 10
0.0
 20
0.0
 30
0.0
  0
VERTEX
  5
721
  8
0
  6
CONTINUOUS
 62
     7
 10
238.9293084853
 20
-79.3326409017
 30
0.0
  0
VERTEX
  5
722
  8
0
  6
CONTINUOUS
 62
     7
 10
238.9311264269
 20
-80.3610326206
 30
0.0
  0
VERTEX
  5
723
  8
0
  6
CONTINUOUS
 62
     7
 10
238.9346907847
 20
-82.7915640032
 30
0.0
  0
VERTEX
  5
724
  8
0
  6
CONTINUOUS
 62
     7
 10
238.9332781546
 20
-87.6528473055
 30
0.0
  0
VERTEX
  5
725
  8
0
  6
CONTINUOUS
 62
     7
 10
238.9308880083
 20
-91.2447066461
 30
0.0
  0
VERTEX
  5
726
  8
0
  6
CONTINUOUS
 62
     7
 10
238.9301787131
 20
-94.8360951101
 30
0.0
  0
VERTEX
  5
727
  8
0
  6
CONTINUOUS
 62
     7
 10
238.9305363409
 20
-97.2393365061
 30
0.0
  0
VERTEX
  5
728
  8
0
  6
CONTINUOUS
 62
     7
 10
238.9309833758
 20
-99.6410222208
 30
0.0
  0
VERTEX
  5
729
  8
0
  6
CONTINUOUS
 62
     7
 10
238.9311979525
 20
-102.0225556051
 30
0.0
  0
SEQEND
  5
7B7
  8
0
  6
CONTINUOUS
 62
     7
  0
LINE
  5
2E6
  8
0
  6
CONTINUOUS
 62
     7
 10
236.9005690329
 20
-47.3384232675
 30
0.0
 11
237.4073277228
 21
-49.1365717208
 31
0.0
  0
LINE
  5
2E7
  8
0
  6
CONTINUOUS
 62
     7
 10
238.9311264269
 20
-62.2448088085
 30
0.0
 11
238.928265404
 21
-61.8626685297
 31
0.0
  0
LINE
  5
2E8
  8
0
  6
CONTINUOUS
 62
     7
 10
232.7342878096
 20
-108.8784129774
 30
0.0
 11
232.84362657
 21
-108.8680536901
 31
0.0
  0
ARC
  5
2E9
  8
0
  6
CONTINUOUS
 62
     7
 10
232.1783523746
 20
-102.1468847516
 30
0.0
 40
6.754013744080483
 50
275.6528330981
 51
1.0547204143
  0
LINE
  5
2EA
  8
0
  6
CONTINUOUS
 62
     7
 10
169.8186258786
 20
-108.8680536901
 30
0.0
 11
169.9279616587
 21
-108.8784129774
 31
0.0
  0
LINE
  5
2EB
  8
0
  6
CONTINUOUS
 62
     7
 10
169.8186258786
 20
-108.8680536901
 30
0.0
 11
169.754544925
 21
-108.8564725076
 31
0.0
  0
POLYLINE
  5
2EC
  8
0
  6
CONTINUOUS
 62
     7
 66
     1
 10
0.0
 20
0.0
 30
0.0
  0
VERTEX
  5
72A
  8
0
  6
CONTINUOUS
 62
     7
 10
168.9505617134
 20
-108.711186186
 30
0.0
  0
VERTEX
  5
72B
  8
0
  6
CONTINUOUS
 62
     7
 10
168.6952332966
 20
-108.66504027
 30
0.0
  0
VERTEX
  5
72C
  8
0
  6
CONTINUOUS
 62
     7
 10
167.6473448984
 20
-108.2896979009
 30
0.0
  0
VERTEX
  5
72D
  8
0
  6
CONTINUOUS
 62
     7
 10
166.8325404637
 20
-107.8454227602
 30
0.0
  0
VERTEX
  5
72E
  8
0
  6
CONTINUOUS
 62
     7
 10
166.1021138542
 20
-107.3026688253
 30
0.0
  0
VERTEX
  5
72F
  8
0
  6
CONTINUOUS
 62
     7
 10
165.3364310973
 20
-106.5265388643
 30
0.0
  0
VERTEX
  5
730
  8
0
  6
CONTINUOUS
 62
     7
 10
164.7060613148
 20
-105.6324572717
 30
0.0
  0
VERTEX
  5
731
  8
0
  6
CONTINUOUS
 62
     7
 10
164.3257732503
 20
-104.8856229936
 30
0.0
  0
VERTEX
  5
732
  8
0
  6
CONTINUOUS
 62
     7
 10
164.0311921947
 20
-104.0794463312
 30
0.0
  0
VERTEX
  5
733
  8
0
  6
CONTINUOUS
 62
     7
 10
163.8327847235
 20
-103.2303364431
 30
0.0
  0
VERTEX
  5
734
  8
0
  6
CONTINUOUS
 62
     7
 10
163.7310276739
 20
-102.0216019308
 30
0.0
  0
SEQEND
  5
7B6
  8
0
  6
CONTINUOUS
 62
     7
  0
POLYLINE
  5
2ED
  8
0
  6
CONTINUOUS
 62
     7
 66
     1
 10
0.0
 20
0.0
 30
0.0
  0
VERTEX
  5
735
  8
0
  6
CONTINUOUS
 62
     7
 10
43.7310527079
 20
-27.3935885584
 30
0.0
  0
VERTEX
  5
736
  8
0
  6
CONTINUOUS
 62
     7
 10
43.7310884707
 20
-27.2266523396
 30
0.0
  0
VERTEX
  5
737
  8
0
  6
CONTINUOUS
 62
     7
 10
43.7312196009
 20
-27.114872024
 30
0.0
  0
VERTEX
  5
738
  8
0
  6
CONTINUOUS
 62
     7
 10
43.7316666357
 20
-27.0173040634
 30
0.0
  0
VERTEX
  5
739
  8
0
  6
CONTINUOUS
 62
     7
 10
43.7318573706
 20
-27.0232008254
 30
0.0
  0
SEQEND
  5
7B5
  8
0
  6
CONTINUOUS
 62
     7
  0
POLYLINE
  5
2EE
  8
0
  6
CONTINUOUS
 62
     7
 66
     1
 10
0.0
 20
0.0
 30
0.0
  0
VERTEX
  5
73A
  8
0
  6
CONTINUOUS
 62
     7
 10
49.8186240904
 20
-30.9233128974
 30
0.0
  0
VERTEX
  5
73B
  8
0
  6
CONTINUOUS
 62
     7
 10
48.6952315085
 20
-30.7109298134
 30
0.0
  0
VERTEX
  5
73C
  8
0
  6
CONTINUOUS
 62
     7
 10
47.6473460905
 20
-30.375866354
 30
0.0
  0
VERTEX
  5
73D
  8
0
  6
CONTINUOUS
 62
     7
 10
46.8325386755
 20
-30.0136238752
 30
0.0
  0
VERTEX
  5
73E
  8
0
  6
CONTINUOUS
 62
     7
 10
46.1021135561
 20
-29.6067626631
 30
0.0
  0
VERTEX
  5
73F
  8
0
  6
CONTINUOUS
 62
     7
 10
45.3364322893
 20
-29.0858422821
 30
0.0
  0
VERTEX
  5
740
  8
0
  6
CONTINUOUS
 62
     7
 10
44.7060595267
 20
-28.5727209827
 30
0.0
  0
VERTEX
  5
741
  8
0
  6
CONTINUOUS
 62
     7
 10
44.3257699721
 20
-28.2184220334
 30
0.0
  0
VERTEX
  5
742
  8
0
  6
CONTINUOUS
 62
     7
 10
44.0311918967
 20
-27.9065897172
 30
0.0
  0
VERTEX
  5
743
  8
0
  6
CONTINUOUS
 62
     7
 10
43.8327859156
 20
-27.6499987995
 30
0.0
  0
VERTEX
  5
744
  8
0
  6
CONTINUOUS
 62
     7
 10
43.731028866
 20
-27.3935859507
 30
0.0
  0
SEQEND
  5
7B4
  8
0
  6
CONTINUOUS
 62
     7
  0
POLYLINE
  5
2EF
  8
0
  6
CONTINUOUS
 62
     7
 66
     1
 10
0.0
 20
0.0
 30
0.0
  0
VERTEX
  5
745
  8
0
  6
CONTINUOUS
 62
     7
 10
112.8436247818
 20
-30.9233128974
 30
0.0
  0
VERTEX
  5
746
  8
0
  6
CONTINUOUS
 62
     7
 10
105.800391268
 20
-31.7093340164
 30
0.0
  0
VERTEX
  5
747
  8
0
  6
CONTINUOUS
 62
     7
 10
98.729745578
 20
-32.3268771587
 30
0.0
  0
VERTEX
  5
748
  8
0
  6
CONTINUOUS
 62
     7
 10
91.6041533463
 20
-32.7489980911
 30
0.0
  0
VERTEX
  5
749
  8
0
  6
CONTINUOUS
 62
     7
 10
84.4645450823
 20
-32.9574711105
 30
0.0
  0
VERTEX
  5
74A
  8
0
  6
CONTINUOUS
 62
     7
 10
78.6906848662
 20
-32.963079535
 30
0.0
  0
VERTEX
  5
74B
  8
0
  6
CONTINUOUS
 62
     7
 10
72.9179213755
 20
-32.8241204327
 30
0.0
  0
VERTEX
  5
74C
  8
0
  6
CONTINUOUS
 62
     7
 10
67.1540807001
 20
-32.5437978325
 30
0.0
  0
VERTEX
  5
74D
  8
0
  6
CONTINUOUS
 62
     7
 10
61.3588581793
 20
-32.1232142342
 30
0.0
  0
VERTEX
  5
74E
  8
0
  6
CONTINUOUS
 62
     7
 10
55.5788288824
 20
-31.5776173906
 30
0.0
  0
VERTEX
  5
74F
  8
0
  6
CONTINUOUS
 62
     7
 10
49.8186240904
 20
-30.9233128974
 30
0.0
  0
SEQEND
  5
7B3
  8
0
  6
CONTINUOUS
 62
     7
  0
POLYLINE
  5
2F0
  8
0
  6
CONTINUOUS
 62
     7
 66
     1
 10
0.0
 20
0.0
 30
0.0
  0
VERTEX
  5
750
  8
0
  6
CONTINUOUS
 62
     7
 10
118.9312229864
 20
-27.3937468832
 30
0.0
  0
VERTEX
  5
751
  8
0
  6
CONTINUOUS
 62
     7
 10
118.8420618884
 20
-27.6295018797
 30
0.0
  0
VERTEX
  5
752
  8
0
  6
CONTINUOUS
 62
     7
 10
118.5862447135
 20
-27.9549294566
 30
0.0
  0
VERTEX
  5
753
  8
0
  6
CONTINUOUS
 62
     7
 10
118.1864316575
 20
-28.3622120922
 30
0.0
  0
VERTEX
  5
754
  8
0
  6
CONTINUOUS
 62
     7
 10
117.6552231424
 20
-28.8283619513
 30
0.0
  0
VERTEX
  5
755
  8
0
  6
CONTINUOUS
 62
     7
 10
116.9218535535
 20
-29.3732994651
 30
0.0
  0
VERTEX
  5
756
  8
0
  6
CONTINUOUS
 62
     7
 10
116.0443047993
 20
-29.9027221692
 30
0.0
  0
VERTEX
  5
757
  8
0
  6
CONTINUOUS
 62
     7
 10
115.1660243981
 20
-30.3151359265
 30
0.0
  0
VERTEX
  5
758
  8
0
  6
CONTINUOUS
 62
     7
 10
114.1937295906
 20
-30.6509914757
 30
0.0
  0
VERTEX
  5
759
  8
0
  6
CONTINUOUS
 62
     7
 10
113.5301033966
 20
-30.8117632238
 30
0.0
  0
VERTEX
  5
75A
  8
0
  6
CONTINUOUS
 62
     7
 10
112.8436247818
 20
-30.9233128974
 30
0.0
  0
SEQEND
  5
7B2
  8
0
  6
CONTINUOUS
 62
     7
  0
POLYLINE
  5
2F1
  8
0
  6
CONTINUOUS
 62
     7
 66
     1
 10
0.0
 20
0.0
 30
0.0
  0
VERTEX
  5
75B
  8
0
  6
CONTINUOUS
 62
     7
 10
118.9303795807
 20
-27.0216805344
 30
0.0
  0
VERTEX
  5
75C
  8
0
  6
CONTINUOUS
 62
     7
 10
118.930537533
 20
-27.0127804434
 30
0.0
  0
VERTEX
  5
75D
  8
0
  6
CONTINUOUS
 62
     7
 10
118.9309815876
 20
-27.1107045417
 30
0.0
  0
VERTEX
  5
75E
  8
0
  6
CONTINUOUS
 62
     7
 10
118.9311961644
 20
-27.3937491184
 30
0.0
  0
SEQEND
  5
7B1
  8
0
  6
CONTINUOUS
 62
     7
  0
POLYLINE
  5
2F2
  8
0
  6
CONTINUOUS
 62
     7
 66
     1
 10
0.0
 20
0.0
 30
0.0
  0
VERTEX
  5
75F
  8
0
  6
CONTINUOUS
 62
     7
 10
46.1247812025
 20
-26.017958433
 30
0.0
  0
VERTEX
  5
760
  8
0
  6
CONTINUOUS
 62
     7
 10
45.3503916972
 20
-26.0159560894
 30
0.0
  0
VERTEX
  5
761
  8
0
  6
CONTINUOUS
 62
     7
 10
45.1543043368
 20
-26.0150772934
 30
0.0
  0
SEQEND
  5
7B0
  8
0
  6
CONTINUOUS
 62
     7
  0
POLYLINE
  5
2F3
  8
0
  6
CONTINUOUS
 62
     7
 66
     1
 10
0.0
 20
0.0
 30
0.0
  0
VERTEX
  5
762
  8
0
  6
CONTINUOUS
 62
     7
 10
43.8777099364
 20
-25.8603320872
 30
0.0
  0
VERTEX
  5
763
  8
0
  6
CONTINUOUS
 62
     7
 10
43.8678274863
 20
-25.9131950741
 30
0.0
  0
VERTEX
  5
764
  8
0
  6
CONTINUOUS
 62
     7
 10
43.8393245451
 20
-26.1690252876
 30
0.0
  0
SEQEND
  5
7AF
  8
0
  6
CONTINUOUS
 62
     7
  0
ARC
  5
2F4
  8
0
  6
CONTINUOUS
 62
     7
 10
45.7708054428
 20
-33.7173409863
 30
0.0
 40
7.707477437858943
 50
77.9964829048
 51
87.3677808442
  0
LINE
  5
2F5
  8
0
  6
CONTINUOUS
 62
     7
 10
48.3981917612
 20
-26.3888896858
 30
0.0
 11
48.5603819601
 21
-26.424271748
 31
0.0
  0
LINE
  5
2F6
  8
0
  6
CONTINUOUS
 62
     7
 10
113.985858392
 20
-26.4495742922
 30
0.0
 11
114.2746726982
 21
-26.3865777706
 31
0.0
  0
ARC
  5
2F7
  8
0
  6
CONTINUOUS
 62
     7
 10
116.8980915856
 20
-33.8227870376
 30
0.0
 40
7.813117617558331
 50
92.6453866685
 51
101.8765644316
  0
POLYLINE
  5
2F8
  8
0
  6
CONTINUOUS
 62
     7
 66
     1
 10
0.0
 20
0.0
 30
0.0
  0
VERTEX
  5
765
  8
0
  6
CONTINUOUS
 62
     7
 10
116.5374781005
 20
-26.0179968035
 30
0.0
  0
VERTEX
  5
766
  8
0
  6
CONTINUOUS
 62
     7
 10
117.3952530138
 20
-26.0156264012
 30
0.0
  0
VERTEX
  5
767
  8
0
  6
CONTINUOUS
 62
     7
 10
117.5154815428
 20
-26.0150907045
 30
0.0
  0
SEQEND
  5
7AE
  8
0
  6
CONTINUOUS
 62
     7
  0
POLYLINE
  5
2F9
  8
0
  6
CONTINUOUS
 62
     7
 66
     1
 10
0.0
 20
0.0
 30
0.0
  0
VERTEX
  5
768
  8
0
  6
CONTINUOUS
 62
     7
 10
118.7433759682
 20
-26.0185749685
 30
0.0
  0
VERTEX
  5
769
  8
0
  6
CONTINUOUS
 62
     7
 10
118.7529007904
 20
-26.0302269315
 30
0.0
  0
VERTEX
  5
76A
  8
0
  6
CONTINUOUS
 62
     7
 10
118.7653820031
 20
-26.0060568755
 30
0.0
  0
VERTEX
  5
76B
  8
0
  6
CONTINUOUS
 62
     7
 10
118.7668989413
 20
-25.9485819792
 30
0.0
  0
VERTEX
  5
76C
  8
0
  6
CONTINUOUS
 62
     7
 10
118.7683562748
 20
-25.8776975279
 30
0.0
  0
SEQEND
  5
7AD
  8
0
  6
CONTINUOUS
 62
     7
  0
POLYLINE
  5
2FA
  8
0
  6
CONTINUOUS
 62
     7
 66
     1
 10
0.0
 20
0.0
 30
0.0
  0
VERTEX
  5
76D
  8
0
  6
CONTINUOUS
 62
     7
 10
118.7701369636
 20
-25.8542736476
 30
0.0
  0
VERTEX
  5
76E
  8
0
  6
CONTINUOUS
 62
     7
 10
118.7721635215
 20
-25.8276367044
 30
0.0
  0
VERTEX
  5
76F
  8
0
  6
CONTINUOUS
 62
     7
 10
118.7808926217
 20
-25.8340982204
 30
0.0
  0
VERTEX
  5
770
  8
0
  6
CONTINUOUS
 62
     7
 10
118.7971855514
 20
-25.9336092924
 30
0.0
  0
VERTEX
  5
771
  8
0
  6
CONTINUOUS
 62
     7
 10
118.8229287975
 20
-26.1690256601
 30
0.0
  0
SEQEND
  5
7AC
  8
0
  6
CONTINUOUS
 62
     7
  0
POLYLINE
  5
2FB
  8
0
  6
CONTINUOUS
 62
     7
 66
     1
 10
0.0
 20
0.0
 30
0.0
  0
VERTEX
  5
772
  8
0
  6
CONTINUOUS
 62
     7
 10
118.8229287975
 20
-26.1690252876
 30
0.0
  0
VERTEX
  5
773
  8
0
  6
CONTINUOUS
 62
     7
 10
118.7485466711
 20
-26.3832898294
 30
0.0
  0
VERTEX
  5
774
  8
0
  6
CONTINUOUS
 62
     7
 10
118.5039306991
 20
-26.6769507384
 30
0.0
  0
VERTEX
  5
775
  8
0
  6
CONTINUOUS
 62
     7
 10
118.1016664021
 20
-27.0493922239
 30
0.0
  0
VERTEX
  5
776
  8
0
  6
CONTINUOUS
 62
     7
 10
117.5581107848
 20
-27.4805670088
 30
0.0
  0
VERTEX
  5
777
  8
0
  6
CONTINUOUS
 62
     7
 10
116.8271864765
 20
-27.9759676611
 30
0.0
  0
VERTEX
  5
778
  8
0
  6
CONTINUOUS
 62
     7
 10
115.9546147101
 20
-28.4620237952
 30
0.0
  0
VERTEX
  5
779
  8
0
  6
CONTINUOUS
 62
     7
 10
115.0626848452
 20
-28.8526426484
 30
0.0
  0
VERTEX
  5
77A
  8
0
  6
CONTINUOUS
 62
     7
 10
114.0772054903
 20
-29.1714475905
 30
0.0
  0
VERTEX
  5
77B
  8
0
  6
CONTINUOUS
 62
     7
 10
113.4164999239
 20
-29.3216889208
 30
0.0
  0
VERTEX
  5
77C
  8
0
  6
CONTINUOUS
 62
     7
 10
112.7342890017
 20
-29.4261501586
 30
0.0
  0
SEQEND
  5
7AB
  8
0
  6
CONTINUOUS
 62
     7
  0
POLYLINE
  5
2FC
  8
0
  6
CONTINUOUS
 62
     7
 66
     1
 10
0.0
 20
0.0
 30
0.0
  0
VERTEX
  5
77D
  8
0
  6
CONTINUOUS
 62
     7
 10
112.7342890017
 20
-29.4261533251
 30
0.0
  0
VERTEX
  5
77E
  8
0
  6
CONTINUOUS
 62
     7
 10
107.6696793549
 20
-29.9759333437
 30
0.0
  0
VERTEX
  5
77F
  8
0
  6
CONTINUOUS
 62
     7
 10
102.6915769093
 20
-30.4397873064
 30
0.0
  0
VERTEX
  5
780
  8
0
  6
CONTINUOUS
 62
     7
 10
97.6992557757
 20
-30.8190085409
 30
0.0
  0
VERTEX
  5
781
  8
0
  6
CONTINUOUS
 62
     7
 10
92.6527838223
 20
-31.1066314178
 30
0.0
  0
VERTEX
  5
782
  8
0
  6
CONTINUOUS
 62
     7
 10
87.6334081404
 20
-31.2914945658
 30
0.0
  0
VERTEX
  5
783
  8
0
  6
CONTINUOUS
 62
     7
 10
82.5910578482
 20
-31.3718084661
 30
0.0
  0
VERTEX
  5
784
  8
0
  6
CONTINUOUS
 62
     7
 10
77.5614748709
 20
-31.3451562375
 30
0.0
  0
VERTEX
  5
785
  8
0
  6
CONTINUOUS
 62
     7
 10
72.9394207709
 20
-31.2271202831
 30
0.0
  0
VERTEX
  5
786
  8
0
  6
CONTINUOUS
 62
     7
 10
68.3378468268
 20
-31.0224154913
 30
0.0
  0
VERTEX
  5
787
  8
0
  6
CONTINUOUS
 62
     7
 10
63.7382815592
 20
-30.7343996545
 30
0.0
  0
VERTEX
  5
788
  8
0
  6
CONTINUOUS
 62
     7
 10
59.1279218905
 20
-30.3670513859
 30
0.0
  0
VERTEX
  5
789
  8
0
  6
CONTINUOUS
 62
     7
 10
54.5818935149
 20
-29.9341321407
 30
0.0
  0
VERTEX
  5
78A
  8
0
  6
CONTINUOUS
 62
     7
 10
49.9279628508
 20
-29.4261533251
 30
0.0
  0
SEQEND
  5
7AA
  8
0
  6
CONTINUOUS
 62
     7
  0
POLYLINE
  5
2FD
  8
0
  6
CONTINUOUS
 62
     7
 66
     1
 10
0.0
 20
0.0
 30
0.0
  0
VERTEX
  5
78B
  8
0
  6
CONTINUOUS
 62
     7
 10
49.9279628508
 20
-29.4261533251
 30
0.0
  0
VERTEX
  5
78C
  8
0
  6
CONTINUOUS
 62
     7
 10
49.496365618
 20
-29.366034404
 30
0.0
  0
VERTEX
  5
78D
  8
0
  6
CONTINUOUS
 62
     7
 10
49.0628729575
 20
-29.2850665232
 30
0.0
  0
VERTEX
  5
78E
  8
0
  6
CONTINUOUS
 62
     7
 10
48.6300240271
 20
-29.1832571333
 30
0.0
  0
VERTEX
  5
78F
  8
0
  6
CONTINUOUS
 62
     7
 10
48.2381711714
 20
-29.0724236002
 30
0.0
  0
VERTEX
  5
790
  8
0
  6
CONTINUOUS
 62
     7
 10
47.8427062743
 20
-28.9423528542
 30
0.0
  0
VERTEX
  5
791
  8
0
  6
CONTINUOUS
 62
     7
 10
47.446341347
 20
-28.7931184699
 30
0.0
  0
VERTEX
  5
792
  8
0
  6
CONTINUOUS
 62
     7
 10
47.1389721148
 20
-28.6638684054
 30
0.0
  0
VERTEX
  5
793
  8
0
  6
CONTINUOUS
 62
     7
 10
46.8352447264
 20
-28.524278984
 30
0.0
  0
VERTEX
  5
794
  8
0
  6
CONTINUOUS
 62
     7
 10
46.5476582758
 20
-28.3808813845
 30
0.0
  0
VERTEX
  5
795
  8
0
  6
CONTINUOUS
 62
     7
 10
46.2747405283
 20
-28.2343834122
 30
0.0
  0
VERTEX
  5
796
  8
0
  6
CONTINUOUS
 62
     7
 10
46.0086057894
 20
-28.0814328646
 30
0.0
  0
VERTEX
  5
797
  8
0
  6
CONTINUOUS
 62
     7
 10
45.7824419253
 20
-27.9432402407
 30
0.0
  0
VERTEX
  5
798
  8
0
  6
CONTINUOUS
 62
     7
 10
45.519382786
 20
-27.7727761721
 30
0.0
  0
VERTEX
  5
799
  8
0
  6
CONTINUOUS
 62
     7
 10
45.2236483805
 20
-27.5677760547
 30
0.0
  0
VERTEX
  5
79A
  8
0
  6
CONTINUOUS
 62
     7
 10
45.0123022311
 20
-27.4118424808
 30
0.0
  0
VERTEX
  5
79B
  8
0
  6
CONTINUOUS
 62
     7
 10
44.8020289652
 20
-27.2482459848
 30
0.0
  0
VERTEX
  5
79C
  8
0
  6
CONTINUOUS
 62
     7
 10
44.590813946
 20
-27.0745505994
 30
0.0
  0
VERTEX
  5
79D
  8
0
  6
CONTINUOUS
 62
     7
 10
44.4147179835
 20
-26.9209270781
 30
0.0
  0
VERTEX
  5
79E
  8
0
  6
CONTINUOUS
 62
     7
 10
44.2702303641
 20
-26.7871828233
 30
0.0
  0
VERTEX
  5
79F
  8
0
  6
CONTINUOUS
 62
     7
 10
43.9406166785
 20
-26.4239588236
 30
0.0
  0
VERTEX
  5
7A0
  8
0
  6
CONTINUOUS
 62
     7
 10
43.8393245451
 20
-26.1690256601
 30
0.0
  0
SEQEND
  5
7A9
  8
0
  6
CONTINUOUS
 62
     7
  0
LINE
  5
2FE
  8
0
  6
CONTINUOUS
 62
     7
 10
44.4311271422
 20
-28.3165744921
 30
0.0
 11
44.4311271422
 21
-29.4263351192
 31
0.0
  0
LINE
  5
2FF
  8
0
  6
CONTINUOUS
 62
     7
 10
43.6311255209
 20
-29.4263351192
 30
0.0
 11
43.6311255209
 21
-27.7326402669
 31
0.0
  0
LINE
  5
300
  8
0
  6
CONTINUOUS
 62
     7
 10
43.7156627886
 20
-27.1988747125
 30
0.0
 11
43.6311255209
 21
-27.7326402669
 31
0.0
  0
LINE
  5
301
  8
0
  6
CONTINUOUS
 62
     7
 10
43.6311255209
 20
-31.3511784138
 30
0.0
 11
43.6311255209
 21
-29.4263351192
 31
0.0
  0
LINE
  5
302
  8
0
  6
CONTINUOUS
 62
     7
 10
44.4311271422
 20
-31.3511784138
 30
0.0
 11
44.4311271422
 21
-29.4263351192
 31
0.0
  0
LINE
  5
303
  8
0
  6
CONTINUOUS
 62
     7
 10
43.6311255209
 20
-37.363715977
 30
0.0
 11
43.6311255209
 21
-31.3511784138
 31
0.0
  0
LINE
  5
304
  8
0
  6
CONTINUOUS
 62
     7
 10
44.4311271422
 20
-37.363715977
 30
0.0
 11
44.4311271422
 21
-31.3511784138
 31
0.0
  0
LINE
  5
305
  8
0
  6
CONTINUOUS
 62
     7
 10
60.0311229937
 20
-27.2939832365
 30
0.0
 11
60.0311229937
 21
-25.232640416
 31
0.0
  0
LINE
  5
306
  8
0
  6
CONTINUOUS
 62
     7
 10
60.0311229937
 20
-37.4326401805
 30
0.0
 11
60.0311229937
 21
-32.0012876713
 31
0.0
  0
LINE
  5
307
  8
0
  6
CONTINUOUS
 62
     7
 10
43.6311255209
 20
-27.7326402669
 30
0.0
 11
43.6311255209
 21
-25.232640416
 31
0.0
  0
LINE
  5
308
  8
0
  6
CONTINUOUS
 62
     7
 10
43.6311255209
 20
-37.4326401805
 30
0.0
 11
43.6311255209
 21
-37.363715977
 31
0.0
  0
POLYLINE
  5
309
  8
0
  6
CONTINUOUS
 62
     7
 66
     1
 10
0.0
 20
0.0
 30
0.0
  0
VERTEX
  5
7A1
  8
0
  6
CONTINUOUS
 62
     7
 10
163.631125819
 20
-36.25706932
 30
0.0
  0
VERTEX
  5
7A2
  8
0
  6
CONTINUOUS
 62
     7
 10
163.6442209594
 20
-36.1955487584
 30
0.0
  0
VERTEX
  5
7A3
  8
0
  6
CONTINUOUS
 62
     7
 10
163.6571492069
 20
-36.1326401537
 30
0.0
  0
SEQEND
  5
7A8
  8
0
  6
CONTINUOUS
 62
     7
  0
LINE
  5
30A
  8
0
  6
CONTINUOUS
 62
     7
 10
180.0311247818
 20
-37.4326401805
 30
0.0
 11
180.0311247818
 21
-25.232640416
 31
0.0
  0
LINE
  5
30B
  8
0
  6
CONTINUOUS
 62
     7
 10
163.631125819
 20
-36.25706932
 30
0.0
 11
163.631125819
 21
-25.232640416
 31
0.0
  0
LINE
  5
30C
  8
0
  6
CONTINUOUS
 62
     7
 10
163.7562732212
 20
-79.3326409017
 30
0.0
 11
163.7740398757
 21
-79.3326409017
 31
0.0
  0
LINE
  5
30D
  8
0
  6
CONTINUOUS
 62
     7
 10
163.7562732212
 20
-36.1326401537
 30
0.0
 11
163.7562732212
 21
-79.3326409017
 31
0.0
  0
LINE
  5
30E
  8
0
  6
CONTINUOUS
 62
     7
 10
167.3119495623
 20
-36.5073507135
 30
0.0
 11
167.3119495623
 21
-42.605064944
 31
0.0
  0
ARC
  5
30F
  8
0
  6
CONTINUOUS
 62
     7
 10
168.5097185462
 20
-42.6101908719
 30
0.0
 40
1.197779952258174
 50
179.7548005922
 51
249.5392102241
  0
LINE
  5
310
  8
0
  6
CONTINUOUS
 62
     7
 10
163.7562732212
 20
-36.1326401537
 30
0.0
 11
164.5562733524
 21
-36.1326401537
 31
0.0
  0
ARC
  5
311
  8
0
  6
CONTINUOUS
 62
     7
 10
180.6531241945
 20
107.3419814537
 30
0.0
 40
144.4666650322348
 50
263.6006721768
 51
264.7013128449
  0
LINE
  5
312
  8
0
  6
CONTINUOUS
 62
     7
 10
163.7562732212
 20
-79.3326409017
 30
0.0
 11
163.631125819
 21
-79.3326409017
 31
0.0
  0
LINE
  5
313
  8
0
  6
CONTINUOUS
 62
     7
 10
163.6571492069
 20
-36.1326401537
 30
0.0
 11
163.7562732212
 21
-36.1326401537
 31
0.0
  0
LINE
  5
314
  8
0
  6
CONTINUOUS
 62
     7
 10
163.631125819
 20
-79.3326409017
 30
0.0
 11
163.631125819
 21
-36.25706932
 31
0.0
  0
LINE
  5
315
  8
0
  6
CONTINUOUS
 62
     7
 10
118.942085933
 20
-27.170469374
 30
0.0
 11
119.0311248414
 21
-27.7326402669
 31
0.0
  0
LINE
  5
316
  8
0
  6
CONTINUOUS
 62
     7
 10
119.0311248414
 20
-27.7326402669
 30
0.0
 11
119.0311248414
 21
-29.4263351192
 31
0.0
  0
LINE
  5
317
  8
0
  6
CONTINUOUS
 62
     7
 10
118.2311247103
 20
-29.4263351192
 30
0.0
 11
118.2311247103
 21
-28.3166830843
 31
0.0
  0
LINE
  5
318
  8
0
  6
CONTINUOUS
 62
     7
 10
119.0311248414
 20
-29.4263351192
 30
0.0
 11
119.0311248414
 21
-31.3511784138
 31
0.0
  0
LINE
  5
319
  8
0
  6
CONTINUOUS
 62
     7
 10
118.2311247103
 20
-29.4263351192
 30
0.0
 11
118.2311247103
 21
-31.3511784138
 31
0.0
  0
LINE
  5
31A
  8
0
  6
CONTINUOUS
 62
     7
 10
119.0311248414
 20
-31.3511784138
 30
0.0
 11
119.0311248414
 21
-37.363715977
 31
0.0
  0
LINE
  5
31B
  8
0
  6
CONTINUOUS
 62
     7
 10
118.2311247103
 20
-31.3511784138
 30
0.0
 11
118.2311247103
 21
-37.363715977
 31
0.0
  0
LINE
  5
31C
  8
0
  6
CONTINUOUS
 62
     7
 10
102.6311258786
 20
-25.232640416
 30
0.0
 11
102.6311258786
 21
-27.2980180984
 31
0.0
  0
LINE
  5
31D
  8
0
  6
CONTINUOUS
 62
     7
 10
102.6311258786
 20
-31.9890579158
 30
0.0
 11
102.6311258786
 21
-37.4326401805
 31
0.0
  0
LINE
  5
31E
  8
0
  6
CONTINUOUS
 62
     7
 10
119.0311248414
 20
-37.363715977
 30
0.0
 11
119.0311248414
 21
-37.4326401805
 31
0.0
  0
LINE
  5
31F
  8
0
  6
CONTINUOUS
 62
     7
 10
119.0311248414
 20
-25.232640416
 30
0.0
 11
119.0311248414
 21
-27.7326402669
 31
0.0
  0
LINE
  5
320
  8
0
  6
CONTINUOUS
 62
     7
 10
222.6311276667
 20
-25.232640416
 30
0.0
 11
222.6311276667
 21
-37.4326401805
 31
0.0
  0
POLYLINE
  5
321
  8
0
  6
CONTINUOUS
 62
     7
 66
     1
 10
0.0
 20
0.0
 30
0.0
  0
VERTEX
  5
7A4
  8
0
  6
CONTINUOUS
 62
     7
 10
239.0051017516
 20
-36.1326401537
 30
0.0
  0
VERTEX
  5
7A5
  8
0
  6
CONTINUOUS
 62
     7
 10
239.018029999
 20
-36.1955487584
 30
0.0
  0
VERTEX
  5
7A6
  8
0
  6
CONTINUOUS
 62
     7
 10
239.0311251395
 20
-36.25706932
 30
0.0
  0
SEQEND
  5
7A7
  8
0
  6
CONTINUOUS
 62
     7
  0
LINE
  5
322
  8
0
  6
CONTINUOUS
 62
     7
 10
239.0311251395
 20
-25.232640416
 30
0.0
 11
239.0311251395
 21
-36.25706932
 31
0.0
  0
LINE
  5
323
  8
0
  6
CONTINUOUS
 62
     7
 10
238.8882110827
 20
-79.3326409017
 30
0.0
 11
238.9059792273
 21
-79.3326409017
 31
0.0
  0
ARC
  5
324
  8
0
  6
CONTINUOUS
 62
     7
 10
234.1526671055
 20
-42.6102526621
 30
0.0
 40
1.197644036148838
 50
290.0294013085
 51
0.2481833311
  0
LINE
  5
325
  8
0
  6
CONTINUOUS
 62
     7
 10
235.350299906
 20
-42.605064944
 30
0.0
 11
235.350299906
 21
-36.5073507135
 31
0.0
  0
ARC
  5
326
  8
0
  6
CONTINUOUS
 62
     7
 10
222.1481626154
 20
105.9846481174
 30
0.0
 40
143.1022926437171
 50
275.2934435342
 51
276.4045777145
  0
LINE
  5
327
  8
0
  6
CONTINUOUS
 62
     7
 10
238.105977606
 20
-36.1326401537
 30
0.0
 11
238.9059792273
 21
-36.1326401537
 31
0.0
  0
LINE
  5
328
  8
0
  6
CONTINUOUS
 62
     7
 10
238.9059792273
 20
-79.3326409017
 30
0.0
 11
238.9059792273
 21
-36.1326401537
 31
0.0
  0
LINE
  5
329
  8
0
  6
CONTINUOUS
 62
     7
 10
238.9059792273
 20
-79.3326409017
 30
0.0
 11
239.0311251395
 21
-79.3326409017
 31
0.0
  0
LINE
  5
32A
  8
0
  6
CONTINUOUS
 62
     7
 10
238.9059792273
 20
-36.1326401537
 30
0.0
 11
239.0051017516
 21
-36.1326401537
 31
0.0
  0
LINE
  5
32B
  8
0
  6
CONTINUOUS
 62
     7
 10
239.0311251395
 20
-36.25706932
 30
0.0
 11
239.0311251395
 21
-79.3326409017
 31
0.0
  0
LINE
  5
32C
  8
0
  6
CONTINUOUS
 62
     7
 10
239.3311272375
 20
-25.7188332682
 30
0.0
 11
239.3311272375
 21
-37.7326400434
 31
0.0
  0
LINE
  5
32D
  8
0
  6
CONTINUOUS
 62
     7
 10
242.7311311476
 20
-25.7188332682
 30
0.0
 11
242.7311311476
 21
-37.7326400434
 31
0.0
  0
LINE
  5
32E
  8
0
  6
CONTINUOUS
 62
     7
 10
221.931124758
 20
-25.3326402461
 30
0.0
 11
221.931124758
 21
-37.3326403504
 31
0.0
  0
LINE
  5
32F
  8
0
  6
CONTINUOUS
 62
     7
 10
239.3311272375
 20
-22.7326401924
 30
0.0
 11
239.3311272375
 21
-25.7188332682
 31
0.0
  0
LINE
  5
330
  8
0
  6
CONTINUOUS
 62
     7
 10
242.7311311476
 20
-22.7326401924
 30
0.0
 11
242.7311311476
 21
-25.7188332682
 31
0.0
  0
LINE
  5
331
  8
0
  6
CONTINUOUS
 62
     7
 10
119.3311254494
 20
-25.7188332682
 30
0.0
 11
119.3311254494
 21
-37.7326400434
 31
0.0
  0
LINE
  5
332
  8
0
  6
CONTINUOUS
 62
     7
 10
122.7311248891
 20
-25.7188332682
 30
0.0
 11
122.7311248891
 21
-37.7326400434
 31
0.0
  0
LINE
  5
333
  8
0
  6
CONTINUOUS
 62
     7
 10
101.9311259501
 20
-25.3326402461
 30
0.0
 11
101.9311259501
 21
-27.343998984
 31
0.0
  0
LINE
  5
334
  8
0
  6
CONTINUOUS
 62
     7
 10
101.9311259501
 20
-32.0487766942
 30
0.0
 11
101.9311259501
 21
-37.3326403504
 31
0.0
  0
LINE
  5
335
  8
0
  6
CONTINUOUS
 62
     7
 10
119.3311254494
 20
-22.7326401924
 30
0.0
 11
119.3311254494
 21
-25.7188332682
 31
0.0
  0
LINE
  5
336
  8
0
  6
CONTINUOUS
 62
     7
 10
122.7311248891
 20
-22.7326401924
 30
0.0
 11
122.7311248891
 21
-25.7188332682
 31
0.0
  0
LINE
  5
337
  8
0
  6
CONTINUOUS
 62
     7
 10
39.9311195128
 20
-25.7188332682
 30
0.0
 11
39.9311195128
 21
-37.7326400434
 31
0.0
  0
LINE
  5
338
  8
0
  6
CONTINUOUS
 62
     7
 10
43.3311234228
 20
-25.7188332682
 30
0.0
 11
43.3311234228
 21
-37.7326400434
 31
0.0
  0
LINE
  5
339
  8
0
  6
CONTINUOUS
 62
     7
 10
60.7311259024
 20
-25.3326402461
 30
0.0
 11
60.7311259024
 21
-27.3441368198
 31
0.0
  0
LINE
  5
33A
  8
0
  6
CONTINUOUS
 62
     7
 10
60.7311259024
 20
-32.0653962386
 30
0.0
 11
60.7311259024
 21
-37.3326403504
 31
0.0
  0
LINE
  5
33B
  8
0
  6
CONTINUOUS
 62
     7
 10
39.9311195128
 20
-22.7326401924
 30
0.0
 11
39.9311195128
 21
-25.7188332682
 31
0.0
  0
LINE
  5
33C
  8
0
  6
CONTINUOUS
 62
     7
 10
43.3311234228
 20
-22.7326401924
 30
0.0
 11
43.3311234228
 21
-25.7188332682
 31
0.0
  0
LINE
  5
33D
  8
0
  6
CONTINUOUS
 62
     7
 10
159.9311257713
 20
-25.7188332682
 30
0.0
 11
159.9311257713
 21
-37.7326400434
 31
0.0
  0
LINE
  5
33E
  8
0
  6
CONTINUOUS
 62
     7
 10
163.331125211
 20
-25.7188332682
 30
0.0
 11
163.331125211
 21
-37.7326400434
 31
0.0
  0
LINE
  5
33F
  8
0
  6
CONTINUOUS
 62
     7
 10
180.7311247103
 20
-25.3326402461
 30
0.0
 11
180.7311247103
 21
-37.3326403504
 31
0.0
  0
LINE
  5
340
  8
0
  6
CONTINUOUS
 62
     7
 10
159.9311257713
 20
-22.7326401924
 30
0.0
 11
159.9311257713
 21
-25.7188332682
 31
0.0
  0
LINE
  5
341
  8
0
  6
CONTINUOUS
 62
     7
 10
163.331125211
 20
-22.7326401924
 30
0.0
 11
163.331125211
 21
-25.7188332682
 31
0.0
  0
ENDSEC
  0
EOF
