  0
SECTION
  2
HEADER
  9
$ACADVER
  1
AC1009
  9
$DWGCODEPAGE
  3
ansi_1252
  9
$INSBASE
 10
0.0
 20
0.0
 30
0.0
  9
$EXTMIN
 10
0.0
 20
0.0
 30
0.0
  9
$EXTMAX
 10
420.0
 20
297.0
 30
0.0
  9
$LIMMIN
 10
0.0
 20
0.0
  9
$LIMMAX
 10
420.0
 20
297.0
  9
$ORTHOMODE
 70
     0
  9
$REGENMODE
 70
     1
  9
$FILLMODE
 70
     1
  9
$QTEXTMODE
 70
     0
  9
$MIRRTEXT
 70
     1
  9
$DRAGMODE
 70
     2
  9
$LTSCALE
 40
1.0
  9
$OSMODE
 70
    37
  9
$ATTMODE
 70
     1
  9
$TEXTSIZE
 40
3.5
  9
$TRACEWID
 40
1.0
  9
$TEXTSTYLE
  7
STANDARD
  9
$CLAYER
  8
0
  9
$CELTYPE
  6
BYLAYER
  9
$CECOLOR
 62
   256
  9
$DIMSCALE
 40
1.0
  9
$DIMASZ
 40
4.0
  9
$DIMEXO
 40
0.0
  9
$DIMDLI
 40
3.75
  9
$DIMRND
 40
0.0
  9
$DIMDLE
 40
0.0
  9
$DIMEXE
 40
2.0
  9
$DIMTP
 40
0.0
  9
$DIMTM
 40
0.0
  9
$DIMTXT
 40
3.5
  9
$DIMCEN
 40
2.5
  9
$DIMTSZ
 40
0.0
  9
$DIMTOL
 70
     0
  9
$DIMLIM
 70
     0
  9
$DIMTIH
 70
     1
  9
$DIMTOH
 70
     1
  9
$DIMSE1
 70
     0
  9
$DIMSE2
 70
     0
  9
$DIMTAD
 70
     1
  9
$DIMZIN
 70
     0
  9
$DIMBLK
  1

  9
$DIMASO
 70
     1
  9
$DIMSHO
 70
     1
  9
$DIMPOST
  1

  9
$DIMAPOST
  1

  9
$DIMALT
 70
     0
  9
$DIMALTD
 70
     3
  9
$DIMALTF
 40
0.0393700787
  9
$DIMLFAC
 40
5.0
  9
$DIMTOFL
 70
     1
  9
$DIMTVP
 40
0.0
  9
$DIMTIX
 70
     0
  9
$DIMSOXD
 70
     0
  9
$DIMSAH
 70
     0
  9
$DIMBLK1
  1

  9
$DIMBLK2
  1

  9
$DIMSTYLE
  2
ISO-25
  9
$DIMCLRD
 70
     0
  9
$DIMCLRE
 70
     0
  9
$DIMCLRT
 70
     0
  9
$DIMTFAC
 40
1.0
  9
$DIMGAP
 40
1.524
  9
$LUNITS
 70
     2
  9
$LUPREC
 70
     2
  9
$SKETCHINC
 40
1.0
  9
$FILLETRAD
 40
10.0
  9
$AUNITS
 70
     0
  9
$AUPREC
 70
     2
  9
$MENU
  1
.
  9
$ELEVATION
 40
0.0
  9
$PELEVATION
 40
0.0
  9
$THICKNESS
 40
0.0
  9
$LIMCHECK
 70
     0
  9
$CHAMFERA
 40
10.0
  9
$CHAMFERB
 40
10.0
  9
$SKPOLY
 70
     0
  9
$TDCREATE
 40
2457801.682974236
  9
$TDUPDATE
 40
2457801.682974444
  9
$TDINDWG
 40
0.0000000116
  9
$TDUSRTIMER
 40
0.0000000116
  9
$USRTIMER
 70
     1
  9
$ANGBASE
 50
0.0
  9
$ANGDIR
 70
     0
  9
$PDMODE
 70
     0
  9
$PDSIZE
 40
-1.0
  9
$PLINEWID
 40
0.0
  9
$COORDS
 70
     1
  9
$SPLFRAME
 70
     0
  9
$SPLINETYPE
 70
     6
  9
$SPLINESEGS
 70
     8
  9
$ATTDIA
 70
     0
  9
$ATTREQ
 70
     1
  9
$HANDLING
 70
     1
  9
$HANDSEED
  5
5D8
  9
$SURFTAB1
 70
     6
  9
$SURFTAB2
 70
     6
  9
$SURFTYPE
 70
     6
  9
$SURFU
 70
     6
  9
$SURFV
 70
     6
  9
$UCSNAME
  2

  9
$UCSORG
 10
0.0
 20
0.0
 30
0.0
  9
$UCSXDIR
 10
1.0
 20
0.0
 30
0.0
  9
$UCSYDIR
 10
0.0
 20
1.0
 30
0.0
  9
$PUCSNAME
  2

  9
$PUCSORG
 10
0.0
 20
0.0
 30
0.0
  9
$PUCSXDIR
 10
1.0
 20
0.0
 30
0.0
  9
$PUCSYDIR
 10
0.0
 20
1.0
 30
0.0
  9
$USERI1
 70
     0
  9
$USERI2
 70
     0
  9
$USERI3
 70
     0
  9
$USERI4
 70
     0
  9
$USERI5
 70
     0
  9
$USERR1
 40
0.0
  9
$USERR2
 40
0.0
  9
$USERR3
 40
0.0
  9
$USERR4
 40
0.0
  9
$USERR5
 40
0.0
  9
$WORLDVIEW
 70
     1
  9
$SHADEDGE
 70
     3
  9
$SHADEDIF
 70
    70
  9
$TILEMODE
 70
     1
  9
$MAXACTVP
 70
    64
  9
$PLIMCHECK
 70
     0
  9
$PEXTMIN
 10
1.0000000000E+20
 20
1.0000000000E+20
 30
1.0000000000E+20
  9
$PEXTMAX
 10
-1.0000000000E+20
 20
-1.0000000000E+20
 30
-1.0000000000E+20
  9
$PLIMMIN
 10
0.0
 20
0.0
  9
$PLIMMAX
 10
420.0
 20
297.0
  9
$UNITMODE
 70
     0
  9
$VISRETAIN
 70
     1
  9
$PLINEGEN
 70
     0
  9
$PSLTSCALE
 70
     1
  0
ENDSEC
  0
SECTION
  2
TABLES
  0
TABLE
  2
VPORT
 70
     1
  0
VPORT
  2
*ACTIVE
 70
     0
 10
0.0
 20
0.0
 11
1.0
 21
1.0
 12
210.0
 22
148.5
 13
0.0
 23
0.0
 14
10.0
 24
10.0
 15
10.0
 25
10.0
 16
0.0
 26
0.0
 36
1.0
 17
0.0
 27
0.0
 37
0.0
 40
297.0
 41
1.4141414141
 42
50.0
 43
0.0
 44
0.0
 50
0.0
 51
0.0
 71
     0
 72
  2000
 73
     1
 74
     3
 75
     0
 76
     0
 77
     0
 78
     0
  0
ENDTAB
  0
TABLE
  2
LTYPE
 70
     6
  0
LTYPE
  2
CONTINUOUS
 70
     0
  3
Solid line
 72
    65
 73
     0
 40
0.0
  0
LTYPE
  2
HIDDEN
 70
     0
  3
Hidden __ __ __ __ __ __ __ __ __ __ __ __ __ __
 72
    65
 73
     2
 40
1.905
 49
1.27
 49
-0.635
  0
LTYPE
  2
PHANTOM
 70
     0
  3
Phantom ______  __  __  ______  __  __  ______
 72
    65
 73
     6
 40
12.7
 49
6.35
 49
-1.27
 49
1.27
 49
-1.27
 49
1.27
 49
-1.27
  0
LTYPE
  2
CENTER
 70
     0
  3
Center ____ _ ____ _ ____ _ ____ _ ____ _ ____
 72
    65
 73
     4
 40
10.16
 49
6.35
 49
-1.27
 49
1.27
 49
-1.27
  0
LTYPE
  2
CENTERX2
 70
     0
  3
Center (2x) ________  __  ________  __  _____
 72
    65
 73
     4
 40
20.32
 49
12.7
 49
-2.54
 49
2.54
 49
-2.54
  0
LTYPE
  2
DOT2
 70
     0
  3
Dot (.5x) ........................................
 72
    65
 73
     2
 40
0.635
 49
0.0
 49
-0.635
  0
ENDTAB
  0
TABLE
  2
LAYER
 70
     2
  0
LAYER
  2
0
 70
     0
 62
     7
  6
CONTINUOUS
  0
LAYER
  2
FORMAT
 70
     0
 62
     7
  6
CONTINUOUS
  0
ENDTAB
  0
TABLE
  2
STYLE
 70
     1
  0
STYLE
  2
STANDARD
 70
     0
 40
0.0
 41
1.0
 50
0.0
 71
     0
 42
3.5
  3
txt
  4

  0
ENDTAB
  0
TABLE
  2
VIEW
 70
     0
  0
ENDTAB
  0
TABLE
  2
UCS
 70
     0
  0
ENDTAB
  0
TABLE
  2
APPID
 70
     1
  0
APPID
  2
ACAD
 70
     0
  0
ENDTAB
  0
TABLE
  2
DIMSTYLE
 70
     1
  0
DIMSTYLE
  2
ISO-25
 70
     0
  3

  4

  5

  6

  7

 40
1.0
 41
2.5
 42
0.625
 43
3.75
 44
1.25
 45
0.0
 46
0.0
 47
0.0
 48
0.0
140
2.5
141
2.5
142
0.0
143
0.0393700787
144
1.0
145
0.0
146
1.0
147
0.625
 71
     0
 72
     0
 73
     0
 74
     0
 75
     0
 76
     0
 77
     1
 78
     8
170
     0
171
     3
172
     1
173
     0
174
     0
175
     0
176
     0
177
     0
178
     0
  0
ENDTAB
  0
ENDSEC
  0
SECTION
  2
BLOCKS
  0
BLOCK
  8
0
  2
$MODEL_SPACE
 70
     0
 10
0.0
 20
0.0
 30
0.0
  3
$MODEL_SPACE
  1

  0
ENDBLK
  5
21
  8
0
  0
BLOCK
 67
     1
  8
0
  2
$PAPER_SPACE
 70
     0
 10
0.0
 20
0.0
 30
0.0
  3
$PAPER_SPACE
  1

  0
ENDBLK
  5
1D
 67
     1
  8
0
  0
ENDSEC
  0
SECTION
  2
ENTITIES
  0
POLYLINE
  5
45
  8
0
  6
CONTINUOUS
 62
     7
 66
     1
 10
0.0
 20
0.0
 30
0.0
  0
VERTEX
  5
272
  8
0
  6
CONTINUOUS
 62
     7
 10
120.9188290742
 20
270.671434789
 30
0.0
  0
VERTEX
  5
273
  8
0
  6
CONTINUOUS
 62
     7
 10
120.8543159869
 20
270.7008675626
 30
0.0
  0
VERTEX
  5
274
  8
0
  6
CONTINUOUS
 62
     7
 10
120.3240015414
 20
270.9421948483
 30
0.0
  0
SEQEND
  5
5D7
  8
0
  6
CONTINUOUS
 62
     7
  0
LINE
  5
46
  8
0
  6
CONTINUOUS
 62
     7
 10
57.6538004783
 20
270.9428266576
 30
0.0
 11
57.0568867829
 21
270.6708506634
 31
0.0
  0
LINE
  5
47
  8
0
  6
CONTINUOUS
 62
     7
 10
51.2883433011
 20
184.2862264207
 30
0.0
 11
67.6883437541
 21
184.2862264207
 31
0.0
  0
LINE
  5
48
  8
0
  6
CONTINUOUS
 62
     7
 10
67.6883437541
 20
196.4862243226
 30
0.0
 11
52.0883449223
 21
196.4862243226
 31
0.0
  0
LINE
  5
49
  8
0
  6
CONTINUOUS
 62
     7
 10
66.1872618702
 20
198.8053754857
 30
0.0
 11
66.2513309028
 21
198.8053754857
 31
0.0
  0
LINE
  5
4A
  8
0
  6
CONTINUOUS
 62
     7
 10
125.8883424905
 20
196.4862243226
 30
0.0
 11
110.2883436587
 21
196.4862243226
 31
0.0
  0
LINE
  5
4B
  8
0
  6
CONTINUOUS
 62
     7
 10
110.2883436587
 20
184.2862264207
 30
0.0
 11
126.6883441117
 21
184.2862264207
 31
0.0
  0
LINE
  5
4C
  8
0
  6
CONTINUOUS
 62
     7
 10
111.72535651
 20
198.8053754857
 30
0.0
 11
111.7894255426
 21
198.8053754857
 31
0.0
  0
LINE
  5
4D
  8
0
  6
CONTINUOUS
 62
     7
 10
130.3883441594
 20
196.7862264207
 30
0.0
 11
126.9883432296
 21
196.7862264207
 31
0.0
  0
LINE
  5
4E
  8
0
  6
CONTINUOUS
 62
     7
 10
126.9883432296
 20
196.38622561
 30
0.0
 11
126.6883441117
 21
196.38622561
 31
0.0
  0
LINE
  5
4F
  8
0
  6
CONTINUOUS
 62
     7
 10
110.2883436587
 20
196.38622561
 30
0.0
 11
109.5883437302
 21
196.38622561
 31
0.0
  0
LINE
  5
50
  8
0
  6
CONTINUOUS
 62
     7
 10
109.5883437302
 20
184.3862251332
 30
0.0
 11
110.2883436587
 21
184.3862251332
 31
0.0
  0
LINE
  5
51
  8
0
  6
CONTINUOUS
 62
     7
 10
126.6883441117
 20
184.3862251332
 30
0.0
 11
126.9883432296
 21
184.3862251332
 31
0.0
  0
LINE
  5
52
  8
0
  6
CONTINUOUS
 62
     7
 10
50.9883441832
 20
196.7862264207
 30
0.0
 11
47.5883432534
 21
196.7862264207
 31
0.0
  0
LINE
  5
53
  8
0
  6
CONTINUOUS
 62
     7
 10
50.9883441832
 20
184.3862251332
 30
0.0
 11
51.2883433011
 21
184.3862251332
 31
0.0
  0
LINE
  5
54
  8
0
  6
CONTINUOUS
 62
     7
 10
67.6883437541
 20
184.3862251332
 30
0.0
 11
68.3883436826
 21
184.3862251332
 31
0.0
  0
LINE
  5
55
  8
0
  6
CONTINUOUS
 62
     7
 10
68.3883436826
 20
196.38622561
 30
0.0
 11
67.6883437541
 21
196.38622561
 31
0.0
  0
LINE
  5
56
  8
0
  6
CONTINUOUS
 62
     7
 10
51.2883433011
 20
196.38622561
 30
0.0
 11
50.9883441832
 21
196.38622561
 31
0.0
  0
ARC
  5
57
  8
0
  6
CONTINUOUS
 62
     7
 10
117.6913733993
 20
265.2970954751
 30
0.0
 40
6.227668123549329
 50
13.1088160823
 51
94.4238426402
  0
ARC
  5
58
  8
0
  6
CONTINUOUS
 62
     7
 10
60.2803799162
 20
265.3050819316
 30
0.0
 40
6.220092230680259
 50
85.5247304017
 51
167.0678867635
  0
POLYLINE
  5
59
  8
0
  6
CONTINUOUS
 62
     7
 66
     1
 10
0.0
 20
0.0
 30
0.0
  0
VERTEX
  5
275
  8
0
  6
CONTINUOUS
 62
     7
 10
117.2110088971
 20
271.50620976
 30
0.0
  0
VERTEX
  5
276
  8
0
  6
CONTINUOUS
 62
     7
 10
114.027503958
 20
271.34747067
 30
0.0
  0
VERTEX
  5
277
  8
0
  6
CONTINUOUS
 62
     7
 10
110.7889049557
 20
271.2078527501
 30
0.0
  0
VERTEX
  5
278
  8
0
  6
CONTINUOUS
 62
     7
 10
107.5024598148
 20
271.0876659444
 30
0.0
  0
VERTEX
  5
279
  8
0
  6
CONTINUOUS
 62
     7
 10
103.8584896233
 20
270.9787205746
 30
0.0
  0
VERTEX
  5
27A
  8
0
  6
CONTINUOUS
 62
     7
 10
100.1753375736
 20
270.8936766675
 30
0.0
  0
VERTEX
  5
27B
  8
0
  6
CONTINUOUS
 62
     7
 10
96.4627952185
 20
270.8327726414
 30
0.0
  0
VERTEX
  5
27C
  8
0
  6
CONTINUOUS
 62
     7
 10
92.7304782775
 20
270.7961634686
 30
0.0
  0
VERTEX
  5
27D
  8
0
  6
CONTINUOUS
 62
     7
 10
88.9883437064
 20
270.7839564374
 30
0.0
  0
VERTEX
  5
27E
  8
0
  6
CONTINUOUS
 62
     7
 10
85.2462091353
 20
270.7961634686
 30
0.0
  0
VERTEX
  5
27F
  8
0
  6
CONTINUOUS
 62
     7
 10
81.5138921943
 20
270.8327726414
 30
0.0
  0
VERTEX
  5
280
  8
0
  6
CONTINUOUS
 62
     7
 10
77.8013498392
 20
270.8936766675
 30
0.0
  0
VERTEX
  5
281
  8
0
  6
CONTINUOUS
 62
     7
 10
74.1181977895
 20
270.9787205746
 30
0.0
  0
VERTEX
  5
282
  8
0
  6
CONTINUOUS
 62
     7
 10
70.474227598
 20
271.0876659444
 30
0.0
  0
VERTEX
  5
283
  8
0
  6
CONTINUOUS
 62
     7
 10
67.1877988484
 20
271.2078527501
 30
0.0
  0
VERTEX
  5
284
  8
0
  6
CONTINUOUS
 62
     7
 10
63.9492192176
 20
271.34747067
 30
0.0
  0
VERTEX
  5
285
  8
0
  6
CONTINUOUS
 62
     7
 10
60.7657261994
 20
271.50620976
 30
0.0
  0
SEQEND
  5
5D6
  8
0
  6
CONTINUOUS
 62
     7
  0
POLYLINE
  5
5A
  8
0
  6
CONTINUOUS
 62
     7
 66
     1
 10
0.0
 20
0.0
 30
0.0
  0
VERTEX
  5
286
  8
0
  6
CONTINUOUS
 62
     7
 10
120.9082105067
 20
270.6469492009
 30
0.0
  0
VERTEX
  5
287
  8
0
  6
CONTINUOUS
 62
     7
 10
121.3019766715
 20
270.4793528607
 30
0.0
  0
VERTEX
  5
288
  8
0
  6
CONTINUOUS
 62
     7
 10
122.2689428237
 20
269.8249415448
 30
0.0
  0
VERTEX
  5
289
  8
0
  6
CONTINUOUS
 62
     7
 10
123.0882921126
 20
268.9962224057
 30
0.0
  0
VERTEX
  5
28A
  8
0
  6
CONTINUOUS
 62
     7
 10
123.7476059106
 20
268.0143670132
 30
0.0
  0
VERTEX
  5
28B
  8
0
  6
CONTINUOUS
 62
     7
 10
124.2312588599
 20
266.9002727559
 30
0.0
  0
VERTEX
  5
28C
  8
0
  6
CONTINUOUS
 62
     7
 10
124.4145520833
 20
266.1590413144
 30
0.0
  0
SEQEND
  5
5D5
  8
0
  6
CONTINUOUS
 62
     7
  0
POLYLINE
  5
5B
  8
0
  6
CONTINUOUS
 62
     7
 66
     1
 10
0.0
 20
0.0
 30
0.0
  0
VERTEX
  5
28D
  8
0
  6
CONTINUOUS
 62
     7
 10
53.5421081689
 20
266.1360696843
 30
0.0
  0
VERTEX
  5
28E
  8
0
  6
CONTINUOUS
 62
     7
 10
53.8542338517
 20
267.2016815236
 30
0.0
  0
VERTEX
  5
28F
  8
0
  6
CONTINUOUS
 62
     7
 10
54.3862023261
 20
268.2869152119
 30
0.0
  0
VERTEX
  5
290
  8
0
  6
CONTINUOUS
 62
     7
 10
55.0938912537
 20
269.2351297429
 30
0.0
  0
VERTEX
  5
291
  8
0
  6
CONTINUOUS
 62
     7
 10
55.9585639146
 20
270.0223163655
 30
0.0
  0
VERTEX
  5
292
  8
0
  6
CONTINUOUS
 62
     7
 10
56.9573291448
 20
270.6235961011
 30
0.0
  0
VERTEX
  5
293
  8
0
  6
CONTINUOUS
 62
     7
 10
57.060558429
 20
270.6614092877
 30
0.0
  0
SEQEND
  5
5D4
  8
0
  6
CONTINUOUS
 62
     7
  0
LINE
  5
5C
  8
0
  6
CONTINUOUS
 62
     7
 10
103.9883443025
 20
169.1862241318
 30
0.0
 11
73.9883431104
 21
169.1862241318
 31
0.0
  0
ARC
  5
5D
  8
0
  6
CONTINUOUS
 62
     7
 10
73.9883437064
 20
172.1862257054
 30
0.0
 40
3.000000000000028
 50
180.0
 51
270.0
  0
LINE
  5
5E
  8
0
  6
CONTINUOUS
 62
     7
 10
70.9883429911
 20
172.1862272313
 30
0.0
 11
70.9883429911
 21
178.5862282803
 31
0.0
  0
ARC
  5
5F
  8
0
  6
CONTINUOUS
 62
     7
 10
103.9883437064
 20
172.1862257054
 30
0.0
 40
3.000000000000028
 50
270.0
 51
0.0
  0
LINE
  5
60
  8
0
  6
CONTINUOUS
 62
     7
 10
106.9883444217
 20
172.1862272313
 30
0.0
 11
106.9883444217
 21
178.5862282803
 31
0.0
  0
LINE
  5
61
  8
0
  6
CONTINUOUS
 62
     7
 10
70.9883429911
 20
179.5862273266
 30
0.0
 11
106.9883444217
 21
179.5862273266
 31
0.0
  0
LINE
  5
62
  8
0
  6
CONTINUOUS
 62
     7
 10
70.9883429911
 20
178.5862282803
 30
0.0
 11
70.9883429911
 21
179.5862273266
 31
0.0
  0
LINE
  5
63
  8
0
  6
CONTINUOUS
 62
     7
 10
106.9883444217
 20
179.5862273266
 30
0.0
 11
106.9883444217
 21
178.5862282803
 31
0.0
  0
LINE
  5
64
  8
0
  6
CONTINUOUS
 62
     7
 10
85.9883437735
 20
189.3075124314
 30
0.0
 11
85.9883437735
 21
193.5815826943
 31
0.0
  0
LINE
  5
65
  8
0
  6
CONTINUOUS
 62
     7
 10
91.9883436393
 20
193.5815826943
 30
0.0
 11
91.9883436393
 21
189.3075124314
 31
0.0
  0
LINE
  5
66
  8
0
  6
CONTINUOUS
 62
     7
 10
91.9883436393
 20
189.3075124314
 30
0.0
 11
91.9883436393
 21
179.5862273266
 31
0.0
  0
LINE
  5
67
  8
0
  6
CONTINUOUS
 62
     7
 10
85.9883437735
 20
179.5862273266
 30
0.0
 11
85.9883437735
 21
189.3075124314
 31
0.0
  0
LINE
  5
68
  8
0
  6
CONTINUOUS
 62
     7
 10
91.9883436393
 20
194.6896568825
 30
0.0
 11
91.9883436393
 21
193.5815826943
 31
0.0
  0
LINE
  5
69
  8
0
  6
CONTINUOUS
 62
     7
 10
85.9883437735
 20
193.5815826943
 30
0.0
 11
85.9883437735
 21
194.6744457772
 31
0.0
  0
ARC
  5
6A
  8
0
  6
CONTINUOUS
 62
     7
 10
88.9883437064
 20
268.5544405972
 30
0.0
 40
73.93765876098934
 50
244.5871825967
 51
295.4128174033
  0
LINE
  5
6B
  8
0
  6
CONTINUOUS
 62
     7
 10
57.4758418706
 20
267.9216460278
 30
0.0
 11
57.585180631
 21
267.9319933942
 31
0.0
  0
LINE
  5
6C
  8
0
  6
CONTINUOUS
 62
     7
 10
120.3915067819
 20
267.9319933942
 30
0.0
 11
120.5008455422
 21
267.9216460278
 31
0.0
  0
ARC
  5
6D
  8
0
  6
CONTINUOUS
 62
     7
 10
88.9883437064
 20
-64.2322456966
 30
0.0
 40
333.6453889380235
 50
84.5803878418
 51
95.4196121582
  0
POLYLINE
  5
6E
  8
0
  6
CONTINUOUS
 62
     7
 66
     1
 10
0.0
 20
0.0
 30
0.0
  0
VERTEX
  5
294
  8
0
  6
CONTINUOUS
 62
     7
 10
120.7177438643
 20
201.7710403493
 30
0.0
  0
VERTEX
  5
295
  8
0
  6
CONTINUOUS
 62
     7
 10
121.7186041978
 20
202.3548320821
 30
0.0
  0
VERTEX
  5
296
  8
0
  6
CONTINUOUS
 62
     7
 10
122.2118862775
 20
202.7677074959
 30
0.0
  0
SEQEND
  5
5D3
  8
0
  6
CONTINUOUS
 62
     7
  0
POLYLINE
  5
6F
  8
0
  6
CONTINUOUS
 62
     7
 66
     1
 10
0.0
 20
0.0
 30
0.0
  0
VERTEX
  5
297
  8
0
  6
CONTINUOUS
 62
     7
 10
55.7492264417
 20
202.7817741921
 30
0.0
  0
VERTEX
  5
298
  8
0
  6
CONTINUOUS
 62
     7
 10
56.1258026269
 20
202.4499551346
 30
0.0
  0
VERTEX
  5
299
  8
0
  6
CONTINUOUS
 62
     7
 10
57.2589435485
 20
201.7710403493
 30
0.0
  0
SEQEND
  5
5D2
  8
0
  6
CONTINUOUS
 62
     7
  0
LINE
  5
70
  8
0
  6
CONTINUOUS
 62
     7
 10
51.3883449939
 20
239.4146160176
 30
0.0
 11
51.3914056924
 21
238.3862213185
 31
0.0
  0
LINE
  5
71
  8
0
  6
CONTINUOUS
 62
     7
 10
51.3883449939
 20
249.4139865925
 30
0.0
 11
51.3883449939
 21
239.4146160176
 31
0.0
  0
POLYLINE
  5
72
  8
0
  6
CONTINUOUS
 62
     7
 66
     1
 10
0.0
 20
0.0
 30
0.0
  0
VERTEX
  5
29A
  8
0
  6
CONTINUOUS
 62
     7
 10
51.3882734683
 20
261.0751942685
 30
0.0
  0
VERTEX
  5
29B
  8
0
  6
CONTINUOUS
 62
     7
 10
51.3883062508
 20
259.8708824208
 30
0.0
  0
VERTEX
  5
29C
  8
0
  6
CONTINUOUS
 62
     7
 10
51.3884403613
 20
258.6573080113
 30
0.0
  0
VERTEX
  5
29D
  8
0
  6
CONTINUOUS
 62
     7
 10
51.3888873961
 20
256.3521699002
 30
0.0
  0
VERTEX
  5
29E
  8
0
  6
CONTINUOUS
 62
     7
 10
51.3892778066
 20
254.0442422917
 30
0.0
  0
VERTEX
  5
29F
  8
0
  6
CONTINUOUS
 62
     7
 10
51.3883420136
 20
249.4139865925
 30
0.0
  0
SEQEND
  5
5D1
  8
0
  6
CONTINUOUS
 62
     7
  0
ARC
  5
73
  8
0
  6
CONTINUOUS
 62
     7
 10
58.1471186074
 20
261.1951223729
 30
0.0
 40
6.759935867863643
 50
95.6989914649
 51
181.0165384505
  0
ARC
  5
74
  8
0
  6
CONTINUOUS
 62
     7
 10
119.8355554
 20
261.2004627998
 30
0.0
 40
6.754029534916045
 50
358.9453527211
 51
84.3470442198
  0
POLYLINE
  5
75
  8
0
  6
CONTINUOUS
 62
     7
 66
     1
 10
0.0
 20
0.0
 30
0.0
  0
VERTEX
  5
2A0
  8
0
  6
CONTINUOUS
 62
     7
 10
126.5865274575
 20
238.3862213185
 30
0.0
  0
VERTEX
  5
2A1
  8
0
  6
CONTINUOUS
 62
     7
 10
126.5883424189
 20
239.4146160176
 30
0.0
  0
VERTEX
  5
2A2
  8
0
  6
CONTINUOUS
 62
     7
 10
126.5919067767
 20
241.8451503804
 30
0.0
  0
VERTEX
  5
2A3
  8
0
  6
CONTINUOUS
 62
     7
 10
126.5904971269
 20
246.7064336827
 30
0.0
  0
VERTEX
  5
2A4
  8
0
  6
CONTINUOUS
 62
     7
 10
126.5881069806
 20
250.2982930234
 30
0.0
  0
VERTEX
  5
2A5
  8
0
  6
CONTINUOUS
 62
     7
 10
126.5873947051
 20
253.8896755269
 30
0.0
  0
VERTEX
  5
2A6
  8
0
  6
CONTINUOUS
 62
     7
 10
126.5877553132
 20
256.2929228833
 30
0.0
  0
VERTEX
  5
2A7
  8
0
  6
CONTINUOUS
 62
     7
 10
126.5881993678
 20
258.694608598
 30
0.0
  0
VERTEX
  5
2A8
  8
0
  6
CONTINUOUS
 62
     7
 10
126.5884139445
 20
261.0761479428
 30
0.0
  0
SEQEND
  5
5D0
  8
0
  6
CONTINUOUS
 62
     7
  0
LINE
  5
76
  8
0
  6
CONTINUOUS
 62
     7
 10
57.5355240014
 20
201.6486302903
 30
0.0
 11
57.6557435897
 21
201.5838519623
 31
0.0
  0
LINE
  5
77
  8
0
  6
CONTINUOUS
 62
     7
 10
120.3209438231
 20
201.5838519623
 30
0.0
 11
120.4305895474
 21
201.6429440072
 31
0.0
  0
LINE
  5
78
  8
0
  6
CONTINUOUS
 62
     7
 10
120.7349308637
 20
267.8819850972
 30
0.0
 11
120.3915067819
 21
267.9319933942
 31
0.0
  0
LINE
  5
79
  8
0
  6
CONTINUOUS
 62
     7
 10
51.2883433011
 20
191.3867668202
 30
0.0
 11
52.0883449223
 21
191.3867668202
 31
0.0
  0
LINE
  5
7A
  8
0
  6
CONTINUOUS
 62
     7
 10
67.6883437541
 20
184.2862264207
 30
0.0
 11
67.6883437541
 21
196.4862243226
 31
0.0
  0
LINE
  5
7B
  8
0
  6
CONTINUOUS
 62
     7
 10
51.2883433011
 20
184.2862264207
 30
0.0
 11
51.2883433011
 21
191.3867668202
 31
0.0
  0
LINE
  5
7C
  8
0
  6
CONTINUOUS
 62
     7
 10
52.0883449223
 20
191.3867668202
 30
0.0
 11
52.0883449223
 21
236.929340749
 31
0.0
  0
LINE
  5
7D
  8
0
  6
CONTINUOUS
 62
     7
 10
51.2883433011
 20
191.3867668202
 30
0.0
 11
51.2883433011
 21
236.929340749
 31
0.0
  0
LINE
  5
7E
  8
0
  6
CONTINUOUS
 62
     7
 10
52.0883449223
 20
238.3862213185
 30
0.0
 11
51.2883433011
 21
238.3862213185
 31
0.0
  0
LINE
  5
7F
  8
0
  6
CONTINUOUS
 62
     7
 10
52.0883449223
 20
236.929340749
 30
0.0
 11
52.0883449223
 21
238.3862213185
 31
0.0
  0
LINE
  5
80
  8
0
  6
CONTINUOUS
 62
     7
 10
51.2883433011
 20
236.929340749
 30
0.0
 11
51.2883433011
 21
238.3862213185
 31
0.0
  0
ARC
  5
81
  8
0
  6
CONTINUOUS
 62
     7
 10
54.4365596842
 20
236.3984583841
 30
0.0
 40
1.987801520105277
 50
359.647335336
 51
89.6430026788
  0
LINE
  5
82
  8
0
  6
CONTINUOUS
 62
     7
 10
56.4243235495
 20
229.2240218213
 30
0.0
 11
56.4243235495
 21
236.3862232259
 31
0.0
  0
ARC
  5
83
  8
0
  6
CONTINUOUS
 62
     7
 10
86.5525252281
 20
229.1752747337
 30
0.0
 40
30.1282411146622
 50
179.9072961615
 51
232.1235145853
  0
ARC
  5
84
  8
0
  6
CONTINUOUS
 62
     7
 10
66.9566859066
 20
203.985785201
 30
0.0
 40
1.785821512733455
 50
333.9117425335
 51
52.0486930605
  0
POLYLINE
  5
85
  8
0
  6
CONTINUOUS
 62
     7
 66
     1
 10
0.0
 20
0.0
 30
0.0
  0
VERTEX
  5
2A9
  8
0
  6
CONTINUOUS
 62
     7
 10
67.3426517156
 20
199.7378126671
 30
0.0
  0
VERTEX
  5
2AA
  8
0
  6
CONTINUOUS
 62
     7
 10
67.851240268
 20
201.5053228429
 30
0.0
  0
VERTEX
  5
2AB
  8
0
  6
CONTINUOUS
 62
     7
 10
68.5605638531
 20
203.2004610589
 30
0.0
  0
SEQEND
  5
5CF
  8
0
  6
CONTINUOUS
 62
     7
  0
ARC
  5
86
  8
0
  6
CONTINUOUS
 62
     7
 10
66.1858578573
 20
199.9905776609
 30
0.0
 40
1.184087062881101
 50
252.0748571538
 51
347.674321566
  0
POLYLINE
  5
87
  8
0
  6
CONTINUOUS
 62
     7
 66
     1
 10
0.0
 20
0.0
 30
0.0
  0
VERTEX
  5
2AC
  8
0
  6
CONTINUOUS
 62
     7
 10
57.6947548297
 20
202.0654455712
 30
0.0
  0
VERTEX
  5
2AD
  8
0
  6
CONTINUOUS
 62
     7
 10
61.7187985089
 20
200.344587951
 30
0.0
  0
VERTEX
  5
2AE
  8
0
  6
CONTINUOUS
 62
     7
 10
65.8214264419
 20
198.8639668515
 30
0.0
  0
SEQEND
  5
5CE
  8
0
  6
CONTINUOUS
 62
     7
  0
LINE
  5
88
  8
0
  6
CONTINUOUS
 62
     7
 10
56.7144461778
 20
202.6377991727
 30
0.0
 11
57.6947548297
 21
202.0654455712
 31
0.0
  0
ARC
  5
89
  8
0
  6
CONTINUOUS
 62
     7
 10
56.0288230093
 20
201.6714469623
 30
0.0
 40
1.184869496387532
 50
54.6444460832
 51
180.6188325968
  0
LINE
  5
8A
  8
0
  6
CONTINUOUS
 62
     7
 10
54.8440226224
 20
196.4862243226
 30
0.0
 11
54.8440226224
 21
201.6586498311
 31
0.0
  0
LINE
  5
8B
  8
0
  6
CONTINUOUS
 62
     7
 10
54.4489451554
 20
238.3862213185
 30
0.0
 11
52.0883449223
 21
238.3862213185
 31
0.0
  0
ARC
  5
8C
  8
0
  6
CONTINUOUS
 62
     7
 10
56.1600260712
 20
201.6677730931
 30
0.0
 40
1.190892483190293
 50
90.2709222324
 51
180.438939306
  0
LINE
  5
8D
  8
0
  6
CONTINUOUS
 62
     7
 10
54.5329430011
 20
238.3862213185
 30
0.0
 11
54.4489451554
 21
238.3862213185
 31
0.0
  0
LINE
  5
8E
  8
0
  6
CONTINUOUS
 62
     7
 10
54.9691685346
 20
196.4862243226
 30
0.0
 11
54.9691685346
 21
201.6586498311
 31
0.0
  0
LINE
  5
8F
  8
0
  6
CONTINUOUS
 62
     7
 10
110.2883436587
 20
196.4862243226
 30
0.0
 11
110.2883436587
 21
184.2862264207
 31
0.0
  0
LINE
  5
90
  8
0
  6
CONTINUOUS
 62
     7
 10
126.6883441117
 20
191.3867668202
 30
0.0
 11
125.8883424905
 21
191.3867668202
 31
0.0
  0
LINE
  5
91
  8
0
  6
CONTINUOUS
 62
     7
 10
126.6883441117
 20
191.3867668202
 30
0.0
 11
126.6883441117
 21
184.2862264207
 31
0.0
  0
LINE
  5
92
  8
0
  6
CONTINUOUS
 62
     7
 10
125.8883424905
 20
236.929340749
 30
0.0
 11
125.8883424905
 21
191.3867668202
 31
0.0
  0
LINE
  5
93
  8
0
  6
CONTINUOUS
 62
     7
 10
126.6883441117
 20
236.929340749
 30
0.0
 11
126.6883441117
 21
191.3867668202
 31
0.0
  0
LINE
  5
94
  8
0
  6
CONTINUOUS
 62
     7
 10
126.6883441117
 20
238.3862213185
 30
0.0
 11
125.8883424905
 21
238.3862213185
 31
0.0
  0
LINE
  5
95
  8
0
  6
CONTINUOUS
 62
     7
 10
125.8883424905
 20
238.3862213185
 30
0.0
 11
125.8883424905
 21
236.929340749
 31
0.0
  0
LINE
  5
96
  8
0
  6
CONTINUOUS
 62
     7
 10
126.6883441117
 20
238.3862213185
 30
0.0
 11
126.6883441117
 21
236.929340749
 31
0.0
  0
ARC
  5
97
  8
0
  6
CONTINUOUS
 62
     7
 10
117.7499463689
 20
207.5278464952
 30
0.0
 40
6.02069581058189
 50
294.8691335512
 51
305.6879394352
  0
ARC
  5
98
  8
0
  6
CONTINUOUS
 62
     7
 10
88.5424732008
 20
270.71810706
 30
0.0
 40
75.63452393836707
 50
288.1916151611
 51
294.8120179715
  0
ARC
  5
99
  8
0
  6
CONTINUOUS
 62
     7
 10
111.7908295555
 20
199.9905776609
 30
0.0
 40
1.184087062881105
 50
192.325678434
 51
287.9251428462
  0
ARC
  5
9A
  8
0
  6
CONTINUOUS
 62
     7
 10
95.1840669189
 20
196.2491296699
 30
0.0
 40
15.83895338422876
 50
12.7242864193
 51
26.0321668905
  0
ARC
  5
9B
  8
0
  6
CONTINUOUS
 62
     7
 10
111.0200015062
 20
203.985785201
 30
0.0
 40
1.785821512733468
 50
127.9513069395
 51
206.0882574665
  0
ARC
  5
9C
  8
0
  6
CONTINUOUS
 62
     7
 10
91.4308436529
 20
229.1720137398
 30
0.0
 40
30.12156510914806
 50
307.8702619552
 51
0.098927298
  0
LINE
  5
9D
  8
0
  6
CONTINUOUS
 62
     7
 10
121.5523638633
 20
236.3862232259
 30
0.0
 11
121.5523638633
 21
229.2240218213
 31
0.0
  0
ARC
  5
9E
  8
0
  6
CONTINUOUS
 62
     7
 10
123.5401277286
 20
236.3984583841
 30
0.0
 40
1.987801520105277
 50
90.3569973212
 51
180.352664664
  0
LINE
  5
9F
  8
0
  6
CONTINUOUS
 62
     7
 10
125.8883424905
 20
238.3862213185
 30
0.0
 11
123.5277422574
 21
238.3862213185
 31
0.0
  0
LINE
  5
A0
  8
0
  6
CONTINUOUS
 62
     7
 10
123.1326647904
 20
201.6586498311
 30
0.0
 11
123.1326647904
 21
196.4862243226
 31
0.0
  0
ARC
  5
A1
  8
0
  6
CONTINUOUS
 62
     7
 10
121.9475431702
 20
201.6708333254
 30
0.0
 40
1.185184243991683
 50
359.4109986692
 51
125.3257226509
  0
ARC
  5
A2
  8
0
  6
CONTINUOUS
 62
     7
 10
121.8136409067
 20
201.6652078098
 30
0.0
 40
1.193895982895913
 50
359.6852771112
 51
86.5798636769
  0
LINE
  5
A3
  8
0
  6
CONTINUOUS
 62
     7
 10
123.5277422574
 20
238.3862213185
 30
0.0
 11
123.4437444117
 21
238.3862213185
 31
0.0
  0
LINE
  5
A4
  8
0
  6
CONTINUOUS
 62
     7
 10
123.0075188783
 20
201.6586498311
 30
0.0
 11
123.0075188783
 21
196.4862243226
 31
0.0
  0
LINE
  5
A5
  8
0
  6
CONTINUOUS
 62
     7
 10
130.3883441594
 20
196.7862264207
 30
0.0
 11
130.3883441594
 21
187.6289919903
 31
0.0
  0
LINE
  5
A6
  8
0
  6
CONTINUOUS
 62
     7
 10
126.9883432296
 20
196.7862264207
 30
0.0
 11
126.9883432296
 21
187.6289919903
 31
0.0
  0
LINE
  5
A7
  8
0
  6
CONTINUOUS
 62
     7
 10
109.5883437302
 20
196.38622561
 30
0.0
 11
109.5883437302
 21
184.3862251332
 31
0.0
  0
CIRCLE
  5
A8
  8
0
  6
CONTINUOUS
 62
     7
 10
126.4883437064
 20
173.1862257054
 30
0.0
 40
1.100000000000023
  0
LINE
  5
A9
  8
0
  6
CONTINUOUS
 62
     7
 10
128.3883430865
 20
168.7862233212
 30
0.0
 11
122.5883432534
 21
168.7862233212
 31
0.0
  0
ARC
  5
AA
  8
0
  6
CONTINUOUS
 62
     7
 10
122.5883437064
 20
170.7862257054
 30
0.0
 40
2.0
 50
180.0
 51
270.0
  0
LINE
  5
AB
  8
0
  6
CONTINUOUS
 62
     7
 10
120.5883451608
 20
170.7862273743
 30
0.0
 11
120.5883451608
 21
178.7862257054
 31
0.0
  0
ARC
  5
AC
  8
0
  6
CONTINUOUS
 62
     7
 10
128.3883437064
 20
170.7862257054
 30
0.0
 40
2.0
 50
270.0
 51
0.0
  0
LINE
  5
AD
  8
0
  6
CONTINUOUS
 62
     7
 10
130.3883441594
 20
170.7862273743
 30
0.0
 11
130.3883441594
 21
178.7862257054
 31
0.0
  0
LINE
  5
AE
  8
0
  6
CONTINUOUS
 62
     7
 10
120.5883451608
 20
178.7862257054
 30
0.0
 11
120.5883451608
 21
179.7862247517
 31
0.0
  0
LINE
  5
AF
  8
0
  6
CONTINUOUS
 62
     7
 10
120.5883451608
 20
179.7862247517
 30
0.0
 11
130.3883441594
 21
179.7862247517
 31
0.0
  0
LINE
  5
B0
  8
0
  6
CONTINUOUS
 62
     7
 10
130.3883441594
 20
179.7862247517
 30
0.0
 11
130.3883441594
 21
178.7862257054
 31
0.0
  0
LINE
  5
B1
  8
0
  6
CONTINUOUS
 62
     7
 10
130.3883441594
 20
187.6289919903
 30
0.0
 11
130.3883441594
 21
183.3208159497
 31
0.0
  0
LINE
  5
B2
  8
0
  6
CONTINUOUS
 62
     7
 10
126.9883432296
 20
183.3208159497
 30
0.0
 11
126.9883432296
 21
187.6289919903
 31
0.0
  0
LINE
  5
B3
  8
0
  6
CONTINUOUS
 62
     7
 10
130.3883441594
 20
183.3208159497
 30
0.0
 11
130.3883441594
 21
179.7862247517
 31
0.0
  0
LINE
  5
B4
  8
0
  6
CONTINUOUS
 62
     7
 10
126.9883432296
 20
183.3208159497
 30
0.0
 11
126.9883432296
 21
179.7862247517
 31
0.0
  0
LINE
  5
B5
  8
0
  6
CONTINUOUS
 62
     7
 10
47.5883432534
 20
196.7862264207
 30
0.0
 11
47.5883432534
 21
187.6289919903
 31
0.0
  0
LINE
  5
B6
  8
0
  6
CONTINUOUS
 62
     7
 10
50.9883441832
 20
196.7862264207
 30
0.0
 11
50.9883441832
 21
187.6289919903
 31
0.0
  0
LINE
  5
B7
  8
0
  6
CONTINUOUS
 62
     7
 10
68.3883436826
 20
196.38622561
 30
0.0
 11
68.3883436826
 21
184.3862251332
 31
0.0
  0
LINE
  5
B8
  8
0
  6
CONTINUOUS
 62
     7
 10
47.5883432534
 20
179.7862247517
 30
0.0
 11
57.3883422521
 21
179.7862247517
 31
0.0
  0
LINE
  5
B9
  8
0
  6
CONTINUOUS
 62
     7
 10
57.3883422521
 20
179.7862247517
 30
0.0
 11
57.3883422521
 21
178.7862257054
 31
0.0
  0
LINE
  5
BA
  8
0
  6
CONTINUOUS
 62
     7
 10
47.5883432534
 20
178.7862257054
 30
0.0
 11
47.5883432534
 21
179.7862247517
 31
0.0
  0
CIRCLE
  5
BB
  8
0
  6
CONTINUOUS
 62
     7
 10
51.4883437064
 20
173.1862257054
 30
0.0
 40
1.100000000000009
  0
LINE
  5
BC
  8
0
  6
CONTINUOUS
 62
     7
 10
55.3883441594
 20
168.7862233212
 30
0.0
 11
49.5883443263
 21
168.7862233212
 31
0.0
  0
ARC
  5
BD
  8
0
  6
CONTINUOUS
 62
     7
 10
49.5883437064
 20
170.7862257054
 30
0.0
 40
2.0
 50
180.0
 51
270.0
  0
ARC
  5
BE
  8
0
  6
CONTINUOUS
 62
     7
 10
55.3883437064
 20
170.7862257054
 30
0.0
 40
2.0
 50
270.0
 51
0.0
  0
LINE
  5
BF
  8
0
  6
CONTINUOUS
 62
     7
 10
57.3883422521
 20
178.7862257054
 30
0.0
 11
57.3883422521
 21
170.7862273743
 31
0.0
  0
LINE
  5
C0
  8
0
  6
CONTINUOUS
 62
     7
 10
47.5883432534
 20
170.7862273743
 30
0.0
 11
47.5883432534
 21
178.7862257054
 31
0.0
  0
LINE
  5
C1
  8
0
  6
CONTINUOUS
 62
     7
 10
47.5883432534
 20
183.3208159497
 30
0.0
 11
47.5883432534
 21
187.6289919903
 31
0.0
  0
LINE
  5
C2
  8
0
  6
CONTINUOUS
 62
     7
 10
50.9883441832
 20
187.6289919903
 30
0.0
 11
50.9883441832
 21
183.3208159497
 31
0.0
  0
LINE
  5
C3
  8
0
  6
CONTINUOUS
 62
     7
 10
47.5883432534
 20
183.3208159497
 30
0.0
 11
47.5883432534
 21
179.7862247517
 31
0.0
  0
LINE
  5
C4
  8
0
  6
CONTINUOUS
 62
     7
 10
50.9883441832
 20
183.3208159497
 30
0.0
 11
50.9883441832
 21
179.7862247517
 31
0.0
  0
LINE
  5
C5
  8
0
  6
CONTINUOUS
 62
     7
 10
81.8154127207
 20
104.9862257158
 30
0.0
 11
85.5740592685
 21
104.9862257158
 31
0.0
  0
LINE
  5
C6
  8
0
  6
CONTINUOUS
 62
     7
 10
85.5740592685
 20
103.7862257054
 30
0.0
 11
81.8154127207
 21
103.7862257054
 31
0.0
  0
LINE
  5
C7
  8
0
  6
CONTINUOUS
 62
     7
 10
92.4026281443
 20
104.9862257158
 30
0.0
 11
96.1612746921
 21
104.9862257158
 31
0.0
  0
LINE
  5
C8
  8
0
  6
CONTINUOUS
 62
     7
 10
96.1612746921
 20
103.7862257054
 30
0.0
 11
92.4026281443
 21
103.7862257054
 31
0.0
  0
LINE
  5
C9
  8
0
  6
CONTINUOUS
 62
     7
 10
85.5740592685
 20
104.9862257158
 30
0.0
 11
92.4026281443
 21
104.9862257158
 31
0.0
  0
LINE
  5
CA
  8
0
  6
CONTINUOUS
 62
     7
 10
85.5740592685
 20
103.7862257054
 30
0.0
 11
92.4026281443
 21
103.7862257054
 31
0.0
  0
LINE
  5
CB
  8
0
  6
CONTINUOUS
 62
     7
 10
100.9883434382
 20
103.7862257054
 30
0.0
 11
100.9883434382
 21
104.9862257158
 31
0.0
  0
LINE
  5
CC
  8
0
  6
CONTINUOUS
 62
     7
 10
100.9883434382
 20
104.9862257158
 30
0.0
 11
96.1612746921
 21
104.9862257158
 31
0.0
  0
LINE
  5
CD
  8
0
  6
CONTINUOUS
 62
     7
 10
96.1612746921
 20
103.7862257054
 30
0.0
 11
100.9883434382
 21
103.7862257054
 31
0.0
  0
LINE
  5
CE
  8
0
  6
CONTINUOUS
 62
     7
 10
76.9883439746
 20
103.7862257054
 30
0.0
 11
76.9883439746
 21
104.9862257158
 31
0.0
  0
LINE
  5
CF
  8
0
  6
CONTINUOUS
 62
     7
 10
81.8154127207
 20
104.9862257158
 30
0.0
 11
76.9883439746
 21
104.9862257158
 31
0.0
  0
LINE
  5
D0
  8
0
  6
CONTINUOUS
 62
     7
 10
76.9883439746
 20
103.7862257054
 30
0.0
 11
81.8154127207
 21
103.7862257054
 31
0.0
  0
POLYLINE
  5
D1
  8
0
  6
CONTINUOUS
 62
     7
 66
     1
 10
0.0
 20
0.0
 30
0.0
  0
VERTEX
  5
2AF
  8
0
  6
CONTINUOUS
 62
     7
 10
93.7883437481
 20
169.1862241318
 30
0.0
  0
VERTEX
  5
2B0
  8
0
  6
CONTINUOUS
 62
     7
 10
93.8198131379
 20
169.1547588399
 30
0.0
  0
VERTEX
  5
2B1
  8
0
  6
CONTINUOUS
 62
     7
 10
93.9122230616
 20
169.0623477986
 30
0.0
  0
VERTEX
  5
2B2
  8
0
  6
CONTINUOUS
 62
     7
 10
93.9691291061
 20
169.0054432442
 30
0.0
  0
VERTEX
  5
2B3
  8
0
  6
CONTINUOUS
 62
     7
 10
93.9883437809
 20
168.9862267068
 30
0.0
  0
SEQEND
  5
5CD
  8
0
  6
CONTINUOUS
 62
     7
  0
LINE
  5
D2
  8
0
  6
CONTINUOUS
 62
     7
 10
93.9883437809
 20
168.9862267068
 30
0.0
 11
93.9883437809
 21
104.9862257158
 31
0.0
  0
LINE
  5
D3
  8
0
  6
CONTINUOUS
 62
     7
 10
45.3883447554
 20
169.3862275174
 30
0.0
 11
45.3883447554
 21
169.9862257531
 31
0.0
  0
ARC
  5
D4
  8
0
  6
CONTINUOUS
 62
     7
 10
45.7883437064
 20
169.3862257054
 30
0.0
 40
0.3999999999999915
 50
180.0
 51
270.0
  0
LINE
  5
D5
  8
0
  6
CONTINUOUS
 62
     7
 10
132.188344827
 20
168.9862267068
 30
0.0
 11
129.2601236012
 21
168.9862267068
 31
0.0
  0
LINE
  5
D6
  8
0
  6
CONTINUOUS
 62
     7
 10
121.7165627387
 20
168.9862267068
 30
0.0
 11
93.9883437809
 21
168.9862267068
 31
0.0
  0
LINE
  5
D7
  8
0
  6
CONTINUOUS
 62
     7
 10
132.5883426574
 20
169.9862257531
 30
0.0
 11
132.5883426574
 21
169.3862275174
 31
0.0
  0
ARC
  5
D8
  8
0
  6
CONTINUOUS
 62
     7
 10
132.1883437064
 20
169.3862257054
 30
0.0
 40
0.4000000000000057
 50
270.0
 51
0.0
  0
LINE
  5
D9
  8
0
  6
CONTINUOUS
 62
     7
 10
45.3883447554
 20
177.9862240842
 30
0.0
 11
45.3883447554
 21
178.5862282803
 31
0.0
  0
ARC
  5
DA
  8
0
  6
CONTINUOUS
 62
     7
 10
45.7883437064
 20
178.5862257054
 30
0.0
 40
0.3999999999999915
 50
90.0
 51
180.0
  0
LINE
  5
DB
  8
0
  6
CONTINUOUS
 62
     7
 10
132.5883426574
 20
177.9862240842
 30
0.0
 11
132.5883426574
 21
169.9862257531
 31
0.0
  0
LINE
  5
DC
  8
0
  6
CONTINUOUS
 62
     7
 10
45.3883447554
 20
169.9862257531
 30
0.0
 11
45.3883447554
 21
177.9862240842
 31
0.0
  0
LINE
  5
DD
  8
0
  6
CONTINUOUS
 62
     7
 10
45.7883425858
 20
178.9862231305
 30
0.0
 11
47.5883432534
 21
178.9862231305
 31
0.0
  0
LINE
  5
DE
  8
0
  6
CONTINUOUS
 62
     7
 10
57.3883422521
 20
178.9862231305
 30
0.0
 11
70.9883429911
 21
178.9862231305
 31
0.0
  0
LINE
  5
DF
  8
0
  6
CONTINUOUS
 62
     7
 10
106.9883444217
 20
178.9862231305
 30
0.0
 11
120.5883451608
 21
178.9862231305
 31
0.0
  0
LINE
  5
E0
  8
0
  6
CONTINUOUS
 62
     7
 10
130.3883441594
 20
178.9862231305
 30
0.0
 11
132.188344827
 21
178.9862231305
 31
0.0
  0
CIRCLE
  5
E1
  8
0
  6
CONTINUOUS
 62
     7
 10
126.4883437064
 20
173.1862257054
 30
0.0
 40
1.050000000000026
  0
CIRCLE
  5
E2
  8
0
  6
CONTINUOUS
 62
     7
 10
51.4883437064
 20
173.1862257054
 30
0.0
 40
1.050000000000004
  0
LINE
  5
E3
  8
0
  6
CONTINUOUS
 62
     7
 10
83.9883436319
 20
104.9862257158
 30
0.0
 11
83.9883436319
 21
168.9862267068
 31
0.0
  0
POLYLINE
  5
E4
  8
0
  6
CONTINUOUS
 62
     7
 66
     1
 10
0.0
 20
0.0
 30
0.0
  0
VERTEX
  5
2B4
  8
0
  6
CONTINUOUS
 62
     7
 10
83.9883436319
 20
168.9862267068
 30
0.0
  0
VERTEX
  5
2B5
  8
0
  6
CONTINUOUS
 62
     7
 10
84.0075583067
 20
169.0054432442
 30
0.0
  0
VERTEX
  5
2B6
  8
0
  6
CONTINUOUS
 62
     7
 10
84.0644643512
 20
169.0623477986
 30
0.0
  0
VERTEX
  5
2B7
  8
0
  6
CONTINUOUS
 62
     7
 10
84.1568742749
 20
169.1547588399
 30
0.0
  0
VERTEX
  5
2B8
  8
0
  6
CONTINUOUS
 62
     7
 10
84.1883436647
 20
169.1862241318
 30
0.0
  0
SEQEND
  5
5CC
  8
0
  6
CONTINUOUS
 62
     7
  0
LINE
  5
E5
  8
0
  6
CONTINUOUS
 62
     7
 10
132.5883426574
 20
178.5862282803
 30
0.0
 11
132.5883426574
 21
177.9862240842
 31
0.0
  0
ARC
  5
E6
  8
0
  6
CONTINUOUS
 62
     7
 10
132.1883437064
 20
178.5862257054
 30
0.0
 40
0.4000000000000057
 50
0.0
 51
90.0
  0
LINE
  5
E7
  8
0
  6
CONTINUOUS
 62
     7
 10
83.9883436319
 20
168.9862267068
 30
0.0
 11
56.2601246741
 21
168.9862267068
 31
0.0
  0
LINE
  5
E8
  8
0
  6
CONTINUOUS
 62
     7
 10
48.7165638116
 20
168.9862267068
 30
0.0
 11
45.7883425858
 21
168.9862267068
 31
0.0
  0
POLYLINE
  5
E9
  8
0
  6
CONTINUOUS
 62
     7
 66
     1
 10
0.0
 20
0.0
 30
0.0
  0
VERTEX
  5
2B9
  8
0
  6
CONTINUOUS
 62
     7
 10
304.0663042189
 20
270.5252961209
 30
0.0
  0
VERTEX
  5
2BA
  8
0
  6
CONTINUOUS
 62
     7
 10
304.6515815974
 20
267.8857997945
 30
0.0
  0
VERTEX
  5
2BB
  8
0
  6
CONTINUOUS
 62
     7
 10
305.2109443666
 20
265.4240325978
 30
0.0
  0
VERTEX
  5
2BC
  8
0
  6
CONTINUOUS
 62
     7
 10
305.7495140554
 20
263.140995889
 30
0.0
  0
VERTEX
  5
2BD
  8
0
  6
CONTINUOUS
 62
     7
 10
306.2414565207
 20
261.0317067197
 30
0.0
  0
VERTEX
  5
2BE
  8
0
  6
CONTINUOUS
 62
     7
 10
306.6516527058
 20
259.109564214
 30
0.0
  0
VERTEX
  5
2BF
  8
0
  6
CONTINUOUS
 62
     7
 10
306.9639229299
 20
257.4090079358
 30
0.0
  0
VERTEX
  5
2C0
  8
0
  6
CONTINUOUS
 62
     7
 10
307.0956536652
 20
256.5906123212
 30
0.0
  0
SEQEND
  5
5CB
  8
0
  6
CONTINUOUS
 62
     7
  0
ARC
  5
EA
  8
0
  6
CONTINUOUS
 62
     7
 10
93.7648109478
 20
219.916930399
 30
0.0
 40
216.396153196117
 50
5.3056924443
 51
8.16556371
  0
LINE
  5
EB
  8
0
  6
CONTINUOUS
 62
     7
 10
305.2380957724
 20
270.7839564374
 30
0.0
 11
304.0663042189
 21
270.5252961209
 31
0.0
  0
LINE
  5
EC
  8
0
  6
CONTINUOUS
 62
     7
 10
309.2338183046
 20
239.9269775441
 30
0.0
 11
310.4279012502
 21
240.0460080197
 31
0.0
  0
POLYLINE
  5
ED
  8
0
  6
CONTINUOUS
 62
     7
 66
     1
 10
0.0
 20
0.0
 30
0.0
  0
VERTEX
  5
2C1
  8
0
  6
CONTINUOUS
 62
     7
 10
370.5976747991
 20
191.2306980183
 30
0.0
  0
VERTEX
  5
2C2
  8
0
  6
CONTINUOUS
 62
     7
 10
371.0574233056
 20
191.2698701909
 30
0.0
  0
VERTEX
  5
2C3
  8
0
  6
CONTINUOUS
 62
     7
 10
373.7456613303
 20
191.4729193738
 30
0.0
  0
VERTEX
  5
2C4
  8
0
  6
CONTINUOUS
 62
     7
 10
376.188718629
 20
191.6311816266
 30
0.0
  0
VERTEX
  5
2C5
  8
0
  6
CONTINUOUS
 62
     7
 10
378.3823066474
 20
191.7570606759
 30
0.0
  0
VERTEX
  5
2C6
  8
0
  6
CONTINUOUS
 62
     7
 10
380.0533467055
 20
191.8454603245
 30
0.0
  0
VERTEX
  5
2C7
  8
0
  6
CONTINUOUS
 62
     7
 10
381.5414005042
 20
191.9204548886
 30
0.0
  0
VERTEX
  5
2C8
  8
0
  6
CONTINUOUS
 62
     7
 10
382.864081216
 20
191.9854001095
 30
0.0
  0
VERTEX
  5
2C9
  8
0
  6
CONTINUOUS
 62
     7
 10
384.1437333347
 20
192.0483008912
 30
0.0
  0
VERTEX
  5
2CA
  8
0
  6
CONTINUOUS
 62
     7
 10
385.4057961227
 20
192.112256675
 30
0.0
  0
VERTEX
  5
2CB
  8
0
  6
CONTINUOUS
 62
     7
 10
386.6521590472
 20
192.17904964
 30
0.0
  0
VERTEX
  5
2CC
  8
0
  6
CONTINUOUS
 62
     7
 10
387.8845446826
 20
192.2502891114
 30
0.0
  0
VERTEX
  5
2CD
  8
0
  6
CONTINUOUS
 62
     7
 10
389.1045265914
 20
192.327459245
 30
0.0
  0
VERTEX
  5
2CE
  8
0
  6
CONTINUOUS
 62
     7
 10
390.7143109561
 20
192.4418524792
 30
0.0
  0
VERTEX
  5
2CF
  8
0
  6
CONTINUOUS
 62
     7
 10
392.3237674953
 20
192.5729767373
 30
0.0
  0
VERTEX
  5
2D0
  8
0
  6
CONTINUOUS
 62
     7
 10
393.952506137
 20
192.6771835377
 30
0.0
  0
VERTEX
  5
2D1
  8
0
  6
CONTINUOUS
 62
     7
 10
394.4380872966
 20
192.6815823605
 30
0.0
  0
VERTEX
  5
2D2
  8
0
  6
CONTINUOUS
 62
     7
 10
394.9292236091
 20
192.6650301507
 30
0.0
  0
VERTEX
  5
2D3
  8
0
  6
CONTINUOUS
 62
     7
 10
395.5208593131
 20
192.6088944962
 30
0.0
  0
VERTEX
  5
2D4
  8
0
  6
CONTINUOUS
 62
     7
 10
396.2279909373
 20
192.4743370106
 30
0.0
  0
VERTEX
  5
2D5
  8
0
  6
CONTINUOUS
 62
     7
 10
397.0370465041
 20
192.2161356499
 30
0.0
  0
VERTEX
  5
2D6
  8
0
  6
CONTINUOUS
 62
     7
 10
397.9379766704
 20
191.8003932526
 30
0.0
  0
VERTEX
  5
2D7
  8
0
  6
CONTINUOUS
 62
     7
 10
398.9235335113
 20
191.2026301911
 30
0.0
  0
VERTEX
  5
2D8
  8
0
  6
CONTINUOUS
 62
     7
 10
399.9908023597
 20
190.4129997781
 30
0.0
  0
VERTEX
  5
2D9
  8
0
  6
CONTINUOUS
 62
     7
 10
401.1432104827
 20
189.443071275
 30
0.0
  0
VERTEX
  5
2DA
  8
0
  6
CONTINUOUS
 62
     7
 10
401.919370246
 20
188.7533680489
 30
0.0
  0
SEQEND
  5
5CA
  8
0
  6
CONTINUOUS
 62
     7
  0
LINE
  5
EE
  8
0
  6
CONTINUOUS
 62
     7
 10
401.9362383605
 20
188.7583509972
 30
0.0
 11
401.9362383605
 21
190.3537348798
 31
0.0
  0
POLYLINE
  5
EF
  8
0
  6
CONTINUOUS
 62
     7
 66
     1
 10
0.0
 20
0.0
 30
0.0
  0
VERTEX
  5
2DB
  8
0
  6
CONTINUOUS
 62
     7
 10
314.1255200924
 20
240.5276016286
 30
0.0
  0
VERTEX
  5
2DC
  8
0
  6
CONTINUOUS
 62
     7
 10
314.6730729462
 20
240.7224253705
 30
0.0
  0
VERTEX
  5
2DD
  8
0
  6
CONTINUOUS
 62
     7
 10
315.2059988202
 20
241.1646918347
 30
0.0
  0
VERTEX
  5
2DE
  8
0
  6
CONTINUOUS
 62
     7
 10
315.7049761237
 20
241.8465451291
 30
0.0
  0
VERTEX
  5
2DF
  8
0
  6
CONTINUOUS
 62
     7
 10
316.1496707321
 20
242.7453235676
 30
0.0
  0
VERTEX
  5
2E0
  8
0
  6
CONTINUOUS
 62
     7
 10
316.517785293
 20
243.8336090138
 30
0.0
  0
VERTEX
  5
2E1
  8
0
  6
CONTINUOUS
 62
     7
 10
316.7935275556
 20
245.0801924756
 30
0.0
  0
VERTEX
  5
2E2
  8
0
  6
CONTINUOUS
 62
     7
 10
316.9597261668
 20
246.4539245656
 30
0.0
  0
VERTEX
  5
2E3
  8
0
  6
CONTINUOUS
 62
     7
 10
317.0053829522
 20
247.9111746838
 30
0.0
  0
VERTEX
  5
2E4
  8
0
  6
CONTINUOUS
 62
     7
 10
316.9569266112
 20
249.0097121289
 30
0.0
  0
SEQEND
  5
5C9
  8
0
  6
CONTINUOUS
 62
     7
  0
POLYLINE
  5
F0
  8
0
  6
CONTINUOUS
 62
     7
 66
     1
 10
0.0
 20
0.0
 30
0.0
  0
VERTEX
  5
2E5
  8
0
  6
CONTINUOUS
 62
     7
 10
314.1255200924
 20
240.5276016286
 30
0.0
  0
VERTEX
  5
2E6
  8
0
  6
CONTINUOUS
 62
     7
 10
313.0647593261
 20
240.3973535588
 30
0.0
  0
VERTEX
  5
2E7
  8
0
  6
CONTINUOUS
 62
     7
 10
312.1303469957
 20
240.2826265385
 30
0.0
  0
VERTEX
  5
2E8
  8
0
  6
CONTINUOUS
 62
     7
 10
311.3240071655
 20
240.1836232236
 30
0.0
  0
VERTEX
  5
2E9
  8
0
  6
CONTINUOUS
 62
     7
 10
310.4121089996
 20
240.0716499379
 30
0.0
  0
VERTEX
  5
2EA
  8
0
  6
CONTINUOUS
 62
     7
 10
309.7582751037
 20
239.9913744023
 30
0.0
  0
VERTEX
  5
2EB
  8
0
  6
CONTINUOUS
 62
     7
 10
309.3650900842
 20
239.94309464
 30
0.0
  0
VERTEX
  5
2EC
  8
0
  6
CONTINUOUS
 62
     7
 10
309.2338183046
 20
239.9269775441
 30
0.0
  0
SEQEND
  5
5C8
  8
0
  6
CONTINUOUS
 62
     7
  0
POLYLINE
  5
F1
  8
0
  6
CONTINUOUS
 62
     7
 66
     1
 10
0.0
 20
0.0
 30
0.0
  0
VERTEX
  5
2ED
  8
0
  6
CONTINUOUS
 62
     7
 10
304.0663042189
 20
270.5252961209
 30
0.0
  0
VERTEX
  5
2EE
  8
0
  6
CONTINUOUS
 62
     7
 10
304.1633212091
 20
270.5372051289
 30
0.0
  0
VERTEX
  5
2EF
  8
0
  6
CONTINUOUS
 62
     7
 10
304.4539609076
 20
270.5728844693
 30
0.0
  0
VERTEX
  5
2F0
  8
0
  6
CONTINUOUS
 62
     7
 10
304.937576604
 20
270.6322745373
 30
0.0
  0
VERTEX
  5
2F1
  8
0
  6
CONTINUOUS
 62
     7
 10
305.6128972293
 20
270.7151845982
 30
0.0
  0
VERTEX
  5
2F2
  8
0
  6
CONTINUOUS
 62
     7
 10
306.4780213953
 20
270.8214119961
 30
0.0
  0
VERTEX
  5
2F3
  8
0
  6
CONTINUOUS
 62
     7
 10
307.4483984233
 20
270.9405616811
 30
0.0
  0
VERTEX
  5
2F4
  8
0
  6
CONTINUOUS
 62
     7
 10
308.5779466749
 20
271.0792497685
 30
0.0
  0
VERTEX
  5
2F5
  8
0
  6
CONTINUOUS
 62
     7
 10
309.8641642452
 20
271.2371782353
 30
0.0
  0
SEQEND
  5
5C7
  8
0
  6
CONTINUOUS
 62
     7
  0
POLYLINE
  5
F2
  8
0
  6
CONTINUOUS
 62
     7
 66
     1
 10
0.0
 20
0.0
 30
0.0
  0
VERTEX
  5
2F6
  8
0
  6
CONTINUOUS
 62
     7
 10
315.322324735
 20
263.4268716862
 30
0.0
  0
VERTEX
  5
2F7
  8
0
  6
CONTINUOUS
 62
     7
 10
315.019743991
 20
264.7386864712
 30
0.0
  0
VERTEX
  5
2F8
  8
0
  6
CONTINUOUS
 62
     7
 10
314.6017887713
 20
266.0088614514
 30
0.0
  0
VERTEX
  5
2F9
  8
0
  6
CONTINUOUS
 62
     7
 10
314.0839190305
 20
267.2016815236
 30
0.0
  0
VERTEX
  5
2FA
  8
0
  6
CONTINUOUS
 62
     7
 10
313.490313393
 20
268.2869152119
 30
0.0
  0
VERTEX
  5
2FB
  8
0
  6
CONTINUOUS
 62
     7
 10
312.8448643805
 20
269.2351297429
 30
0.0
  0
VERTEX
  5
2FC
  8
0
  6
CONTINUOUS
 62
     7
 10
312.1746719898
 20
270.0223163655
 30
0.0
  0
VERTEX
  5
2FD
  8
0
  6
CONTINUOUS
 62
     7
 10
311.5075641395
 20
270.6235961011
 30
0.0
  0
VERTEX
  5
2FE
  8
0
  6
CONTINUOUS
 62
     7
 10
310.8642310918
 20
271.0290984204
 30
0.0
  0
VERTEX
  5
2FF
  8
0
  6
CONTINUOUS
 62
     7
 10
310.3416205467
 20
271.2123588612
 30
0.0
  0
VERTEX
  5
300
  8
0
  6
CONTINUOUS
 62
     7
 10
309.8641642452
 20
271.2371782353
 30
0.0
  0
SEQEND
  5
5C6
  8
0
  6
CONTINUOUS
 62
     7
  0
POLYLINE
  5
F3
  8
0
  6
CONTINUOUS
 62
     7
 66
     1
 10
0.0
 20
0.0
 30
0.0
  0
VERTEX
  5
301
  8
0
  6
CONTINUOUS
 62
     7
 10
315.322324735
 20
263.4268716862
 30
0.0
  0
VERTEX
  5
302
  8
0
  6
CONTINUOUS
 62
     7
 10
315.8954301001
 20
259.8539904645
 30
0.0
  0
VERTEX
  5
303
  8
0
  6
CONTINUOUS
 62
     7
 10
316.3196877659
 20
256.2504724553
 30
0.0
  0
VERTEX
  5
304
  8
0
  6
CONTINUOUS
 62
     7
 10
316.6599349202
 20
252.6320771268
 30
0.0
  0
VERTEX
  5
305
  8
0
  6
CONTINUOUS
 62
     7
 10
316.9569266112
 20
249.0097121289
 30
0.0
  0
SEQEND
  5
5C5
  8
0
  6
CONTINUOUS
 62
     7
  0
POLYLINE
  5
F4
  8
0
  6
CONTINUOUS
 62
     7
 66
     1
 10
0.0
 20
0.0
 30
0.0
  0
VERTEX
  5
306
  8
0
  6
CONTINUOUS
 62
     7
 10
310.8747520567
 20
271.50620976
 30
0.0
  0
VERTEX
  5
307
  8
0
  6
CONTINUOUS
 62
     7
 10
311.4273198963
 20
271.4654997876
 30
0.0
  0
VERTEX
  5
308
  8
0
  6
CONTINUOUS
 62
     7
 10
312.0382563294
 20
271.2145523122
 30
0.0
  0
VERTEX
  5
309
  8
0
  6
CONTINUOUS
 62
     7
 10
312.6903639258
 20
270.7558707287
 30
0.0
  0
VERTEX
  5
30A
  8
0
  6
CONTINUOUS
 62
     7
 10
313.3609772743
 20
270.1038435986
 30
0.0
  0
VERTEX
  5
30B
  8
0
  6
CONTINUOUS
 62
     7
 10
314.0229479493
 20
269.2774728825
 30
0.0
  0
VERTEX
  5
30C
  8
0
  6
CONTINUOUS
 62
     7
 10
314.6542147816
 20
268.2977513364
 30
0.0
  0
VERTEX
  5
30D
  8
0
  6
CONTINUOUS
 62
     7
 10
315.2297721327
 20
267.1854690602
 30
0.0
  0
VERTEX
  5
30E
  8
0
  6
CONTINUOUS
 62
     7
 10
315.7242321492
 20
265.9735516598
 30
0.0
  0
VERTEX
  5
30F
  8
0
  6
CONTINUOUS
 62
     7
 10
316.0714143039
 20
264.8582057049
 30
0.0
  0
VERTEX
  5
310
  8
0
  6
CONTINUOUS
 62
     7
 10
316.3296916605
 20
263.7143210461
 30
0.0
  0
SEQEND
  5
5C4
  8
0
  6
CONTINUOUS
 62
     7
  0
POLYLINE
  5
F5
  8
0
  6
CONTINUOUS
 62
     7
 66
     1
 10
0.0
 20
0.0
 30
0.0
  0
VERTEX
  5
311
  8
0
  6
CONTINUOUS
 62
     7
 10
316.3296916605
 20
263.7143210461
 30
0.0
  0
VERTEX
  5
312
  8
0
  6
CONTINUOUS
 62
     7
 10
316.9183124871
 20
260.0863174489
 30
0.0
  0
VERTEX
  5
313
  8
0
  6
CONTINUOUS
 62
     7
 10
317.3536134036
 20
256.433923631
 30
0.0
  0
VERTEX
  5
314
  8
0
  6
CONTINUOUS
 62
     7
 10
317.7002293141
 20
252.7887062123
 30
0.0
  0
VERTEX
  5
315
  8
0
  6
CONTINUOUS
 62
     7
 10
318.0039052935
 20
249.1406992963
 30
0.0
  0
SEQEND
  5
5C3
  8
0
  6
CONTINUOUS
 62
     7
  0
POLYLINE
  5
F6
  8
0
  6
CONTINUOUS
 62
     7
 66
     1
 10
0.0
 20
0.0
 30
0.0
  0
VERTEX
  5
316
  8
0
  6
CONTINUOUS
 62
     7
 10
315.1839920403
 20
240.6366662076
 30
0.0
  0
VERTEX
  5
317
  8
0
  6
CONTINUOUS
 62
     7
 10
314.1627774657
 20
240.5098394444
 30
0.0
  0
VERTEX
  5
318
  8
0
  6
CONTINUOUS
 62
     7
 10
313.2618502797
 20
240.3979496052
 30
0.0
  0
VERTEX
  5
319
  8
0
  6
CONTINUOUS
 62
     7
 10
312.4828533353
 20
240.3012112668
 30
0.0
  0
VERTEX
  5
31A
  8
0
  6
CONTINUOUS
 62
     7
 10
311.5863309325
 20
240.1898697903
 30
0.0
  0
VERTEX
  5
31B
  8
0
  6
CONTINUOUS
 62
     7
 10
310.9435171903
 20
240.1100353291
 30
0.0
  0
VERTEX
  5
31C
  8
0
  6
CONTINUOUS
 62
     7
 10
310.5569616975
 20
240.0620297482
 30
0.0
  0
VERTEX
  5
31D
  8
0
  6
CONTINUOUS
 62
     7
 10
310.4279012502
 20
240.0460080197
 30
0.0
  0
SEQEND
  5
5C2
  8
0
  6
CONTINUOUS
 62
     7
  0
POLYLINE
  5
F7
  8
0
  6
CONTINUOUS
 62
     7
 66
     1
 10
0.0
 20
0.0
 30
0.0
  0
VERTEX
  5
31E
  8
0
  6
CONTINUOUS
 62
     7
 10
318.003905666
 20
249.1406992963
 30
0.0
  0
VERTEX
  5
31F
  8
0
  6
CONTINUOUS
 62
     7
 10
318.0539858611
 20
247.6452902844
 30
0.0
  0
VERTEX
  5
320
  8
0
  6
CONTINUOUS
 62
     7
 10
317.9775805296
 20
246.2025956204
 30
0.0
  0
VERTEX
  5
321
  8
0
  6
CONTINUOUS
 62
     7
 10
317.7810755641
 20
244.8553279927
 30
0.0
  0
VERTEX
  5
322
  8
0
  6
CONTINUOUS
 62
     7
 10
317.4796265633
 20
243.641109853
 30
0.0
  0
VERTEX
  5
323
  8
0
  6
CONTINUOUS
 62
     7
 10
317.0890950681
 20
242.5981358578
 30
0.0
  0
VERTEX
  5
324
  8
0
  6
CONTINUOUS
 62
     7
 10
316.6298245163
 20
241.7534545949
 30
0.0
  0
VERTEX
  5
325
  8
0
  6
CONTINUOUS
 62
     7
 10
316.1232643844
 20
241.1359385541
 30
0.0
  0
VERTEX
  5
326
  8
0
  6
CONTINUOUS
 62
     7
 10
315.5886815013
 20
240.7566265156
 30
0.0
  0
VERTEX
  5
327
  8
0
  6
CONTINUOUS
 62
     7
 10
315.1839920403
 20
240.6366662076
 30
0.0
  0
SEQEND
  5
5C1
  8
0
  6
CONTINUOUS
 62
     7
  0
LINE
  5
F8
  8
0
  6
CONTINUOUS
 62
     7
 10
310.8747729183
 20
271.50620976
 30
0.0
 11
310.0267537953
 21
271.3975624135
 31
0.0
  0
POLYLINE
  5
F9
  8
0
  6
CONTINUOUS
 62
     7
 66
     1
 10
0.0
 20
0.0
 30
0.0
  0
VERTEX
  5
328
  8
0
  6
CONTINUOUS
 62
     7
 10
305.2380957724
 20
270.7839564374
 30
0.0
  0
VERTEX
  5
329
  8
0
  6
CONTINUOUS
 62
     7
 10
305.3334408523
 20
270.7961634686
 30
0.0
  0
VERTEX
  5
32A
  8
0
  6
CONTINUOUS
 62
     7
 10
305.6190648199
 20
270.8327726414
 30
0.0
  0
VERTEX
  5
32B
  8
0
  6
CONTINUOUS
 62
     7
 10
306.0943239452
 20
270.8936766675
 30
0.0
  0
VERTEX
  5
32C
  8
0
  6
CONTINUOUS
 62
     7
 10
306.7579873921
 20
270.9787205746
 30
0.0
  0
VERTEX
  5
32D
  8
0
  6
CONTINUOUS
 62
     7
 10
307.6081642033
 20
271.0876659444
 30
0.0
  0
VERTEX
  5
32E
  8
0
  6
CONTINUOUS
 62
     7
 10
308.546083522
 20
271.2078527501
 30
0.0
  0
VERTEX
  5
32F
  8
0
  6
CONTINUOUS
 62
     7
 10
309.6357413651
 20
271.34747067
 30
0.0
  0
VERTEX
  5
330
  8
0
  6
CONTINUOUS
 62
     7
 10
310.8747520567
 20
271.50620976
 30
0.0
  0
SEQEND
  5
5C0
  8
0
  6
CONTINUOUS
 62
     7
  0
LINE
  5
FA
  8
0
  6
CONTINUOUS
 62
     7
 10
311.8414619089
 20
251.12826386
 30
0.0
 11
311.1102462829
 21
257.0835427334
 31
0.0
  0
LINE
  5
FB
  8
0
  6
CONTINUOUS
 62
     7
 10
311.8414619089
 20
251.12826386
 30
0.0
 11
310.1189159871
 21
250.9167627385
 31
0.0
  0
LINE
  5
FC
  8
0
  6
CONTINUOUS
 62
     7
 10
311.1102462829
 20
257.0835427334
 30
0.0
 11
309.3877011062
 21
256.8720416119
 31
0.0
  0
LINE
  5
FD
  8
0
  6
CONTINUOUS
 62
     7
 10
312.4078423799
 20
251.1977986386
 30
0.0
 11
312.2512669386
 21
252.4730042508
 31
0.0
  0
LINE
  5
FE
  8
0
  6
CONTINUOUS
 62
     7
 10
312.4078423799
 20
251.1977986386
 30
0.0
 11
311.8414619089
 21
251.12826386
 31
0.0
  0
LINE
  5
FF
  8
0
  6
CONTINUOUS
 62
     7
 10
311.5694315256
 20
257.1399168065
 30
0.0
 11
311.1102462829
 21
257.0835427334
 31
0.0
  0
POLYLINE
  5
100
  8
0
  6
CONTINUOUS
 62
     7
 66
     1
 10
0.0
 20
0.0
 30
0.0
  0
VERTEX
  5
331
  8
0
  6
CONTINUOUS
 62
     7
 10
310.1189159871
 20
250.9167627385
 30
0.0
  0
VERTEX
  5
332
  8
0
  6
CONTINUOUS
 62
     7
 10
310.0868919016
 20
250.9128288319
 30
0.0
  0
VERTEX
  5
333
  8
0
  6
CONTINUOUS
 62
     7
 10
310.0472160698
 20
250.907953172
 30
0.0
  0
VERTEX
  5
334
  8
0
  6
CONTINUOUS
 62
     7
 10
310.0002207876
 20
250.9021834424
 30
0.0
  0
VERTEX
  5
335
  8
0
  6
CONTINUOUS
 62
     7
 10
309.946302426
 20
250.8955673268
 30
0.0
  0
VERTEX
  5
336
  8
0
  6
CONTINUOUS
 62
     7
 10
309.88591249
 20
250.888152509
 30
0.0
  0
VERTEX
  5
337
  8
0
  6
CONTINUOUS
 62
     7
 10
309.8195561291
 20
250.8799985936
 30
0.0
  0
VERTEX
  5
338
  8
0
  6
CONTINUOUS
 62
     7
 10
309.7477921368
 20
250.8711890271
 30
0.0
  0
VERTEX
  5
339
  8
0
  6
CONTINUOUS
 62
     7
 10
309.67122252
 20
250.8617834141
 30
0.0
  0
SEQEND
  5
5BF
  8
0
  6
CONTINUOUS
 62
     7
  0
POLYLINE
  5
101
  8
0
  6
CONTINUOUS
 62
     7
 66
     1
 10
0.0
 20
0.0
 30
0.0
  0
VERTEX
  5
33A
  8
0
  6
CONTINUOUS
 62
     7
 10
308.9400061489
 20
256.8170622876
 30
0.0
  0
VERTEX
  5
33B
  8
0
  6
CONTINUOUS
 62
     7
 10
309.0165757657
 20
256.8264679005
 30
0.0
  0
VERTEX
  5
33C
  8
0
  6
CONTINUOUS
 62
     7
 10
309.088339758
 20
256.835277467
 30
0.0
  0
VERTEX
  5
33D
  8
0
  6
CONTINUOUS
 62
     7
 10
309.1546961189
 20
256.8434313824
 30
0.0
  0
VERTEX
  5
33E
  8
0
  6
CONTINUOUS
 62
     7
 10
309.2150860549
 20
256.8508462002
 30
0.0
  0
VERTEX
  5
33F
  8
0
  6
CONTINUOUS
 62
     7
 10
309.2690044166
 20
256.8574623158
 30
0.0
  0
VERTEX
  5
340
  8
0
  6
CONTINUOUS
 62
     7
 10
309.3159996988
 20
256.8632320454
 30
0.0
  0
VERTEX
  5
341
  8
0
  6
CONTINUOUS
 62
     7
 10
309.3556755305
 20
256.8681077054
 30
0.0
  0
VERTEX
  5
342
  8
0
  6
CONTINUOUS
 62
     7
 10
309.3877011062
 20
256.8720416119
 30
0.0
  0
SEQEND
  5
5BE
  8
0
  6
CONTINUOUS
 62
     7
  0
LINE
  5
102
  8
0
  6
CONTINUOUS
 62
     7
 10
309.67122252
 20
250.8617834141
 30
0.0
 11
305.3400316359
 21
250.3299907735
 31
0.0
  0
LINE
  5
103
  8
0
  6
CONTINUOUS
 62
     7
 10
308.9400061489
 20
256.8170622876
 30
0.0
 11
304.6088167549
 21
256.285257726
 31
0.0
  0
LINE
  5
104
  8
0
  6
CONTINUOUS
 62
     7
 10
327.8092724354
 20
177.9862240842
 30
0.0
 11
327.8092724354
 21
178.9326385548
 31
0.0
  0
LINE
  5
105
  8
0
  6
CONTINUOUS
 62
     7
 10
328.0092724682
 20
169.1862241318
 30
0.0
 11
327.8092724354
 21
169.1862241318
 31
0.0
  0
LINE
  5
106
  8
0
  6
CONTINUOUS
 62
     7
 10
327.8092724354
 20
169.1862241318
 30
0.0
 11
327.8092724354
 21
169.9862257531
 31
0.0
  0
LINE
  5
107
  8
0
  6
CONTINUOUS
 62
     7
 10
304.8437588931
 20
250.2690509846
 30
0.0
 11
304.1125425221
 21
256.2243298581
 31
0.0
  0
POLYLINE
  5
108
  8
0
  6
CONTINUOUS
 62
     7
 66
     1
 10
0.0
 20
0.0
 30
0.0
  0
VERTEX
  5
343
  8
0
  6
CONTINUOUS
 62
     7
 10
305.3400316359
 20
250.3299907735
 30
0.0
  0
VERTEX
  5
344
  8
0
  6
CONTINUOUS
 62
     7
 10
305.2320816637
 20
250.3167347005
 30
0.0
  0
VERTEX
  5
345
  8
0
  6
CONTINUOUS
 62
     7
 10
305.1344686271
 20
250.3047422459
 30
0.0
  0
VERTEX
  5
346
  8
0
  6
CONTINUOUS
 62
     7
 10
305.0488659264
 20
250.2942399075
 30
0.0
  0
VERTEX
  5
347
  8
0
  6
CONTINUOUS
 62
     7
 10
304.9767353655
 20
250.2853826573
 30
0.0
  0
VERTEX
  5
348
  8
0
  6
CONTINUOUS
 62
     7
 10
304.9193122507
 20
250.2783254674
 30
0.0
  0
VERTEX
  5
349
  8
0
  6
CONTINUOUS
 62
     7
 10
304.8775800587
 20
250.2731994679
 30
0.0
  0
VERTEX
  5
34A
  8
0
  6
CONTINUOUS
 62
     7
 10
304.8522510649
 20
250.2700881055
 30
0.0
  0
VERTEX
  5
34B
  8
0
  6
CONTINUOUS
 62
     7
 10
304.8437588931
 20
250.2690509846
 30
0.0
  0
SEQEND
  5
5BD
  8
0
  6
CONTINUOUS
 62
     7
  0
POLYLINE
  5
109
  8
0
  6
CONTINUOUS
 62
     7
 66
     1
 10
0.0
 20
0.0
 30
0.0
  0
VERTEX
  5
34C
  8
0
  6
CONTINUOUS
 62
     7
 10
304.1125425221
 20
256.2243298581
 30
0.0
  0
VERTEX
  5
34D
  8
0
  6
CONTINUOUS
 62
     7
 10
304.1210346938
 20
256.2253669789
 30
0.0
  0
VERTEX
  5
34E
  8
0
  6
CONTINUOUS
 62
     7
 10
304.1463636876
 20
256.2284783414
 30
0.0
  0
VERTEX
  5
34F
  8
0
  6
CONTINUOUS
 62
     7
 10
304.1880958797
 20
256.2336043408
 30
0.0
  0
VERTEX
  5
350
  8
0
  6
CONTINUOUS
 62
     7
 10
304.2455189944
 20
256.2406615308
 30
0.0
  0
VERTEX
  5
351
  8
0
  6
CONTINUOUS
 62
     7
 10
304.3176495553
 20
256.24950686
 30
0.0
  0
VERTEX
  5
352
  8
0
  6
CONTINUOUS
 62
     7
 10
304.4032537461
 20
256.2600211194
 30
0.0
  0
VERTEX
  5
353
  8
0
  6
CONTINUOUS
 62
     7
 10
304.5008652927
 20
256.2720135739
 30
0.0
  0
VERTEX
  5
354
  8
0
  6
CONTINUOUS
 62
     7
 10
304.6088167549
 20
256.285257726
 30
0.0
  0
SEQEND
  5
5BC
  8
0
  6
CONTINUOUS
 62
     7
  0
LINE
  5
10A
  8
0
  6
CONTINUOUS
 62
     7
 10
312.2092724861
 20
169.1862241318
 30
0.0
 11
317.0092725278
 21
169.1862241318
 31
0.0
  0
LINE
  5
10B
  8
0
  6
CONTINUOUS
 62
     7
 10
303.5140567542
 20
256.1508373311
 30
0.0
 11
299.543871832
 21
255.6633667042
 31
0.0
  0
LINE
  5
10C
  8
0
  6
CONTINUOUS
 62
     7
 10
300.9967916728
 20
235.6247738888
 30
0.0
 11
298.5513248564
 21
255.5414990475
 31
0.0
  0
POLYLINE
  5
10D
  8
0
  6
CONTINUOUS
 62
     7
 66
     1
 10
0.0
 20
0.0
 30
0.0
  0
VERTEX
  5
355
  8
0
  6
CONTINUOUS
 62
     7
 10
298.5513248564
 20
255.5414990475
 30
0.0
  0
VERTEX
  5
356
  8
0
  6
CONTINUOUS
 62
     7
 10
298.5703968526
 20
255.5438355496
 30
0.0
  0
VERTEX
  5
357
  8
0
  6
CONTINUOUS
 62
     7
 10
298.626878214
 20
255.5507735303
 30
0.0
  0
VERTEX
  5
358
  8
0
  6
CONTINUOUS
 62
     7
 10
298.7185993315
 20
255.5620388081
 30
0.0
  0
VERTEX
  5
359
  8
0
  6
CONTINUOUS
 62
     7
 10
298.8420360805
 20
255.5771903088
 30
0.0
  0
VERTEX
  5
35A
  8
0
  6
CONTINUOUS
 62
     7
 10
298.9924424411
 20
255.5956558278
 30
0.0
  0
VERTEX
  5
35B
  8
0
  6
CONTINUOUS
 62
     7
 10
299.1640412332
 20
255.6167320302
 30
0.0
  0
VERTEX
  5
35C
  8
0
  6
CONTINUOUS
 62
     7
 10
299.3502357126
 20
255.639584451
 30
0.0
  0
VERTEX
  5
35D
  8
0
  6
CONTINUOUS
 62
     7
 10
299.543871832
 20
255.6633667042
 30
0.0
  0
SEQEND
  5
5BB
  8
0
  6
CONTINUOUS
 62
     7
  0
ARC
  5
10E
  8
0
  6
CONTINUOUS
 62
     7
 10
320.8477142044
 20
238.0621633964
 30
0.0
 40
20.00000000000004
 50
187.0
 51
193.0
  0
LINE
  5
10F
  8
0
  6
CONTINUOUS
 62
     7
 10
310.8504534782
 20
192.4568311265
 30
0.0
 11
301.3603129507
 21
233.5631445935
 31
0.0
  0
LINE
  5
110
  8
0
  6
CONTINUOUS
 62
     7
 10
305.2378186108
 20
250.3174380353
 30
0.0
 11
306.952067566
 21
236.35599175
 31
0.0
  0
POLYLINE
  5
111
  8
0
  6
CONTINUOUS
 62
     7
 66
     1
 10
0.0
 20
0.0
 30
0.0
  0
VERTEX
  5
35E
  8
0
  6
CONTINUOUS
 62
     7
 10
303.5140567542
 20
256.1508373311
 30
0.0
  0
VERTEX
  5
35F
  8
0
  6
CONTINUOUS
 62
     7
 10
303.5942697049
 20
256.1606959393
 30
0.0
  0
VERTEX
  5
360
  8
0
  6
CONTINUOUS
 62
     7
 10
303.6739581348
 20
256.1704711011
 30
0.0
  0
VERTEX
  5
361
  8
0
  6
CONTINUOUS
 62
     7
 10
303.7526019932
 20
256.1801270535
 30
0.0
  0
VERTEX
  5
362
  8
0
  6
CONTINUOUS
 62
     7
 10
303.8296827198
 20
256.1895922711
 30
0.0
  0
VERTEX
  5
363
  8
0
  6
CONTINUOUS
 62
     7
 10
303.9047011257
 20
256.1988071492
 30
0.0
  0
VERTEX
  5
364
  8
0
  6
CONTINUOUS
 62
     7
 10
303.9771624924
 20
256.2077001622
 30
0.0
  0
VERTEX
  5
365
  8
0
  6
CONTINUOUS
 62
     7
 10
304.046594453
 20
256.2162355473
 30
0.0
  0
VERTEX
  5
366
  8
0
  6
CONTINUOUS
 62
     7
 10
304.1125425221
 20
256.2243298581
 30
0.0
  0
SEQEND
  5
5BA
  8
0
  6
CONTINUOUS
 62
     7
  0
ARC
  5
112
  8
0
  6
CONTINUOUS
 62
     7
 10
320.8477142044
 20
238.0621633964
 30
0.0
 40
14.00000000000003
 50
187.0
 51
193.0
  0
LINE
  5
113
  8
0
  6
CONTINUOUS
 62
     7
 10
307.2065332056
 20
234.9128440907
 30
0.0
 11
316.6966737331
 21
193.8065365842
 31
0.0
  0
ARC
  5
114
  8
0
  6
CONTINUOUS
 62
     7
 10
297.2092723609
 20
189.3075135394
 30
0.0
 40
14.0
 50
0.0
 51
13.0
  0
LINE
  5
115
  8
0
  6
CONTINUOUS
 62
     7
 10
311.2092726947
 20
169.1862241318
 30
0.0
 11
311.2092726947
 21
189.3075124314
 31
0.0
  0
LINE
  5
116
  8
0
  6
CONTINUOUS
 62
     7
 10
312.2092724861
 20
169.1862241318
 30
0.0
 11
311.2092726947
 21
169.1862241318
 31
0.0
  0
POLYLINE
  5
117
  8
0
  6
CONTINUOUS
 62
     7
 66
     1
 10
0.0
 20
0.0
 30
0.0
  0
VERTEX
  5
367
  8
0
  6
CONTINUOUS
 62
     7
 10
316.6966737331
 20
193.8065365842
 30
0.0
  0
VERTEX
  5
368
  8
0
  6
CONTINUOUS
 62
     7
 10
316.8164187194
 20
193.2521060994
 30
0.0
  0
VERTEX
  5
369
  8
0
  6
CONTINUOUS
 62
     7
 10
316.913684559
 20
192.7333191922
 30
0.0
  0
SEQEND
  5
5B9
  8
0
  6
CONTINUOUS
 62
     7
  0
POLYLINE
  5
118
  8
0
  6
CONTINUOUS
 62
     7
 66
     1
 10
0.0
 20
0.0
 30
0.0
  0
VERTEX
  5
36A
  8
0
  6
CONTINUOUS
 62
     7
 10
393.5982340099
 20
194.3252758076
 30
0.0
  0
VERTEX
  5
36B
  8
0
  6
CONTINUOUS
 62
     7
 10
392.3939281226
 20
194.4922164967
 30
0.0
  0
VERTEX
  5
36C
  8
0
  6
CONTINUOUS
 62
     7
 10
391.1803477527
 20
194.6039930871
 30
0.0
  0
VERTEX
  5
36D
  8
0
  6
CONTINUOUS
 62
     7
 10
388.8752215625
 20
194.7015599301
 30
0.0
  0
VERTEX
  5
36E
  8
0
  6
CONTINUOUS
 62
     7
 10
386.5672879935
 20
194.6893707802
 30
0.0
  0
VERTEX
  5
36F
  8
0
  6
CONTINUOUS
 62
     7
 10
381.9370322944
 20
194.5399717381
 30
0.0
  0
SEQEND
  5
5B8
  8
0
  6
CONTINUOUS
 62
     7
  0
POLYLINE
  5
119
  8
0
  6
CONTINUOUS
 62
     7
 66
     1
 10
0.0
 20
0.0
 30
0.0
  0
VERTEX
  5
370
  8
0
  6
CONTINUOUS
 62
     7
 10
381.9370322944
 20
194.5399776986
 30
0.0
  0
VERTEX
  5
371
  8
0
  6
CONTINUOUS
 62
     7
 10
380.5741184474
 20
194.519104152
 30
0.0
  0
VERTEX
  5
372
  8
0
  6
CONTINUOUS
 62
     7
 10
379.1015320541
 20
194.5130781224
 30
0.0
  0
VERTEX
  5
373
  8
0
  6
CONTINUOUS
 62
     7
 10
377.7026766063
 20
194.5178107312
 30
0.0
  0
VERTEX
  5
374
  8
0
  6
CONTINUOUS
 62
     7
 10
376.2232237579
 20
194.5280388882
 30
0.0
  0
VERTEX
  5
375
  8
0
  6
CONTINUOUS
 62
     7
 10
374.7947388412
 20
194.5381597569
 30
0.0
  0
VERTEX
  5
376
  8
0
  6
CONTINUOUS
 62
     7
 10
373.282515359
 20
194.5435778191
 30
0.0
  0
VERTEX
  5
377
  8
0
  6
CONTINUOUS
 62
     7
 10
371.9376646997
 20
194.5399419358
 30
0.0
  0
SEQEND
  5
5B7
  8
0
  6
CONTINUOUS
 62
     7
  0
POLYLINE
  5
11A
  8
0
  6
CONTINUOUS
 62
     7
 66
     1
 10
0.0
 20
0.0
 30
0.0
  0
VERTEX
  5
378
  8
0
  6
CONTINUOUS
 62
     7
 10
371.9376646997
 20
194.5399419358
 30
0.0
  0
VERTEX
  5
379
  8
0
  6
CONTINUOUS
 62
     7
 10
369.507067752
 20
194.5506290486
 30
0.0
  0
VERTEX
  5
37A
  8
0
  6
CONTINUOUS
 62
     7
 10
361.9362467052
 20
194.5399717381
 30
0.0
  0
SEQEND
  5
5B6
  8
0
  6
CONTINUOUS
 62
     7
  0
POLYLINE
  5
11B
  8
0
  6
CONTINUOUS
 62
     7
 66
     1
 10
0.0
 20
0.0
 30
0.0
  0
VERTEX
  5
37B
  8
0
  6
CONTINUOUS
 62
     7
 10
361.9362467052
 20
194.5399598172
 30
0.0
  0
VERTEX
  5
37C
  8
0
  6
CONTINUOUS
 62
     7
 10
360.4140871288
 20
194.6110800793
 30
0.0
  0
VERTEX
  5
37D
  8
0
  6
CONTINUOUS
 62
     7
 10
358.6751275779
 20
194.6965710213
 30
0.0
  0
VERTEX
  5
37E
  8
0
  6
CONTINUOUS
 62
     7
 10
357.017513466
 20
194.749821811
 30
0.0
  0
VERTEX
  5
37F
  8
0
  6
CONTINUOUS
 62
     7
 10
355.425267768
 20
194.7454945138
 30
0.0
  0
VERTEX
  5
380
  8
0
  6
CONTINUOUS
 62
     7
 10
353.8214408876
 20
194.6565941861
 30
0.0
  0
SEQEND
  5
5B5
  8
0
  6
CONTINUOUS
 62
     7
  0
POLYLINE
  5
11C
  8
0
  6
CONTINUOUS
 62
     7
 66
     1
 10
0.0
 20
0.0
 30
0.0
  0
VERTEX
  5
381
  8
0
  6
CONTINUOUS
 62
     7
 10
338.7497478248
 20
195.7009092858
 30
0.0
  0
VERTEX
  5
382
  8
0
  6
CONTINUOUS
 62
     7
 10
341.4763205768
 20
195.7029120019
 30
0.0
  0
VERTEX
  5
383
  8
0
  6
CONTINUOUS
 62
     7
 10
344.1834443332
 20
195.7054809621
 30
0.0
  0
VERTEX
  5
384
  8
0
  6
CONTINUOUS
 62
     7
 10
346.9023414971
 20
195.7070545247
 30
0.0
  0
VERTEX
  5
385
  8
0
  6
CONTINUOUS
 62
     7
 10
349.6276103974
 20
195.7083896687
 30
0.0
  0
VERTEX
  5
386
  8
0
  6
CONTINUOUS
 62
     7
 10
352.3537778379
 20
195.7088307431
 30
0.0
  0
VERTEX
  5
387
  8
0
  6
CONTINUOUS
 62
     7
 10
356.9027029992
 20
195.7076565316
 30
0.0
  0
VERTEX
  5
388
  8
0
  6
CONTINUOUS
 62
     7
 10
361.4533805371
 20
195.7119301846
 30
0.0
  0
VERTEX
  5
389
  8
0
  6
CONTINUOUS
 62
     7
 10
365.9996234895
 20
195.72637239
 30
0.0
  0
VERTEX
  5
38A
  8
0
  6
CONTINUOUS
 62
     7
 10
370.5505841495
 20
195.7289711526
 30
0.0
  0
VERTEX
  5
38B
  8
0
  6
CONTINUOUS
 62
     7
 10
375.1108997585
 20
195.696766763
 30
0.0
  0
VERTEX
  5
38C
  8
0
  6
CONTINUOUS
 62
     7
 10
379.6437972308
 20
195.6890121987
 30
0.0
  0
VERTEX
  5
38D
  8
0
  6
CONTINUOUS
 62
     7
 10
381.8905287505
 20
195.7277850201
 30
0.0
  0
VERTEX
  5
38E
  8
0
  6
CONTINUOUS
 62
     7
 10
384.1386490585
 20
195.8028332284
 30
0.0
  0
VERTEX
  5
38F
  8
0
  6
CONTINUOUS
 62
     7
 10
386.4140384914
 20
195.875550895
 30
0.0
  0
VERTEX
  5
390
  8
0
  6
CONTINUOUS
 62
     7
 10
388.7273245574
 20
195.8941892674
 30
0.0
  0
VERTEX
  5
391
  8
0
  6
CONTINUOUS
 62
     7
 10
391.0883956672
 20
195.8056704095
 30
0.0
  0
VERTEX
  5
392
  8
0
  6
CONTINUOUS
 62
     7
 10
393.5105853797
 20
195.5498413136
 30
0.0
  0
SEQEND
  5
5B4
  8
0
  6
CONTINUOUS
 62
     7
  0
POLYLINE
  5
11D
  8
0
  6
CONTINUOUS
 62
     7
 66
     1
 10
0.0
 20
0.0
 30
0.0
  0
VERTEX
  5
393
  8
0
  6
CONTINUOUS
 62
     7
 10
353.8214408876
 20
194.6565941861
 30
0.0
  0
VERTEX
  5
394
  8
0
  6
CONTINUOUS
 62
     7
 10
352.9329442502
 20
194.5902244141
 30
0.0
  0
VERTEX
  5
395
  8
0
  6
CONTINUOUS
 62
     7
 10
351.970341158
 20
194.5398763707
 30
0.0
  0
SEQEND
  5
5B3
  8
0
  6
CONTINUOUS
 62
     7
  0
LINE
  5
11E
  8
0
  6
CONTINUOUS
 62
     7
 10
361.9362467052
 20
194.5399538567
 30
0.0
 11
353.8214408876
 21
194.5327059319
 31
0.0
  0
POLYLINE
  5
11F
  8
0
  6
CONTINUOUS
 62
     7
 66
     1
 10
0.0
 20
0.0
 30
0.0
  0
VERTEX
  5
396
  8
0
  6
CONTINUOUS
 62
     7
 10
381.9370322944
 20
194.5399717381
 30
0.0
  0
VERTEX
  5
397
  8
0
  6
CONTINUOUS
 62
     7
 10
376.9384794952
 20
194.4975749543
 30
0.0
  0
VERTEX
  5
398
  8
0
  6
CONTINUOUS
 62
     7
 10
371.9376646997
 20
194.5399419358
 30
0.0
  0
SEQEND
  5
5B2
  8
0
  6
CONTINUOUS
 62
     7
  0
ARC
  5
120
  8
0
  6
CONTINUOUS
 62
     7
 10
391.5590546309
 20
181.9652390827
 30
0.0
 40
12.5271268743118
 50
44.8211014007
 51
80.6316422878
  0
POLYLINE
  5
121
  8
0
  6
CONTINUOUS
 62
     7
 66
     1
 10
0.0
 20
0.0
 30
0.0
  0
VERTEX
  5
399
  8
0
  6
CONTINUOUS
 62
     7
 10
401.9237988712
 20
188.7583509972
 30
0.0
  0
VERTEX
  5
39A
  8
0
  6
CONTINUOUS
 62
     7
 10
401.9257121802
 20
188.7557879975
 30
0.0
  0
VERTEX
  5
39B
  8
0
  6
CONTINUOUS
 62
     7
 10
401.8300705672
 20
188.8947443059
 30
0.0
  0
VERTEX
  5
39C
  8
0
  6
CONTINUOUS
 62
     7
 10
401.6348891975
 20
189.1750709107
 30
0.0
  0
VERTEX
  5
39D
  8
0
  6
CONTINUOUS
 62
     7
 10
401.3378613712
 20
189.5956532052
 30
0.0
  0
VERTEX
  5
39E
  8
0
  6
CONTINUOUS
 62
     7
 10
400.9408348323
 20
190.1412502816
 30
0.0
  0
VERTEX
  5
39F
  8
0
  6
CONTINUOUS
 62
     7
 10
400.4446857692
 20
190.7955543091
 30
0.0
  0
SEQEND
  5
5B1
  8
0
  6
CONTINUOUS
 62
     7
  0
POLYLINE
  5
122
  8
0
  6
CONTINUOUS
 62
     7
 66
     1
 10
0.0
 20
0.0
 30
0.0
  0
VERTEX
  5
3A0
  8
0
  6
CONTINUOUS
 62
     7
 10
338.7497448445
 20
195.7008675626
 30
0.0
  0
VERTEX
  5
3A1
  8
0
  6
CONTINUOUS
 62
     7
 10
338.0028122188
 20
195.6885949662
 30
0.0
  0
VERTEX
  5
3A2
  8
0
  6
CONTINUOUS
 62
     7
 10
337.2864970089
 20
195.6514851144
 30
0.0
  0
VERTEX
  5
3A3
  8
0
  6
CONTINUOUS
 62
     7
 10
336.5903326393
 20
195.5866948655
 30
0.0
  0
VERTEX
  5
3A4
  8
0
  6
CONTINUOUS
 62
     7
 10
335.9904565931
 20
195.5034867814
 30
0.0
  0
VERTEX
  5
3A5
  8
0
  6
CONTINUOUS
 62
     7
 10
335.4252972723
 20
195.3960017255
 30
0.0
  0
VERTEX
  5
3A6
  8
0
  6
CONTINUOUS
 62
     7
 10
334.9159129978
 20
195.268477588
 30
0.0
  0
VERTEX
  5
3A7
  8
0
  6
CONTINUOUS
 62
     7
 10
334.4734960319
 20
195.1252357056
 30
0.0
  0
VERTEX
  5
3A8
  8
0
  6
CONTINUOUS
 62
     7
 10
334.1069006444
 20
194.9710086873
 30
0.0
  0
SEQEND
  5
5B0
  8
0
  6
CONTINUOUS
 62
     7
  0
LINE
  5
123
  8
0
  6
CONTINUOUS
 62
     7
 10
334.1069006444
 20
194.9710086873
 30
0.0
 11
333.7116160513
 21
194.7763756802
 31
0.0
  0
ARC
  5
124
  8
0
  6
CONTINUOUS
 62
     7
 10
372.5109593269
 20
169.5188986328
 30
0.0
 40
36.04883730387304
 50
35.3072853006
 51
39.1792790855
  0
ARC
  5
125
  8
0
  6
CONTINUOUS
 62
     7
 10
391.8895791385
 20
183.0620803204
 30
0.0
 40
12.59253095524408
 50
47.14056264
 51
82.6039288339
  0
LINE
  5
126
  8
0
  6
CONTINUOUS
 62
     7
 10
353.8214408876
 20
194.6565941861
 30
0.0
 11
353.8214408876
 21
194.6176008275
 31
0.0
  0
ARC
  5
127
  8
0
  6
CONTINUOUS
 62
     7
 10
368.9092723609
 20
192.2925308585
 30
0.0
 40
2.000000000000008
 50
285.7570898053
 51
0.0
  0
ARC
  5
128
  8
0
  6
CONTINUOUS
 62
     7
 10
326.0028646574
 20
344.3551501243
 30
0.0
 40
160.0000000000001
 50
270.6306446184
 51
285.7570898053
  0
LINE
  5
129
  8
0
  6
CONTINUOUS
 62
     7
 10
370.9092729808
 20
193.9862267068
 30
0.0
 11
328.2007751138
 21
193.9862267068
 31
0.0
  0
LINE
  5
12A
  8
0
  6
CONTINUOUS
 62
     7
 10
370.9092729808
 20
192.2925309231
 30
0.0
 11
370.9092729808
 21
193.9862267068
 31
0.0
  0
LINE
  5
12B
  8
0
  6
CONTINUOUS
 62
     7
 10
327.7092722328
 20
194.6194306901
 30
0.0
 11
327.7092722328
 21
194.7763756802
 31
0.0
  0
LINE
  5
12C
  8
0
  6
CONTINUOUS
 62
     7
 10
327.7092722328
 20
194.7763756802
 30
0.0
 11
353.9445423604
 21
194.7763756802
 31
0.0
  0
LINE
  5
12D
  8
0
  6
CONTINUOUS
 62
     7
 10
359.3898468734
 20
194.7763756802
 30
0.0
 11
370.9092729808
 21
194.7763756802
 31
0.0
  0
LINE
  5
12E
  8
0
  6
CONTINUOUS
 62
     7
 10
370.9092729808
 20
194.7763756802
 30
0.0
 11
370.9092729808
 21
193.9862267068
 31
0.0
  0
LINE
  5
12F
  8
0
  6
CONTINUOUS
 62
     7
 10
328.0092724682
 20
170.7862273743
 30
0.0
 11
328.0092724682
 21
178.5862282803
 31
0.0
  0
ARC
  5
130
  8
0
  6
CONTINUOUS
 62
     7
 10
327.6092723609
 20
178.5862257054
 30
0.0
 40
0.3999999999999773
 50
0.0
 51
90.0
  0
LINE
  5
131
  8
0
  6
CONTINUOUS
 62
     7
 10
327.6092724026
 20
178.9862231305
 30
0.0
 11
326.8092722715
 21
178.9862231305
 31
0.0
  0
LINE
  5
132
  8
0
  6
CONTINUOUS
 62
     7
 10
318.8092724503
 20
178.9862231305
 30
0.0
 11
318.209272352
 21
178.9862231305
 31
0.0
  0
ARC
  5
133
  8
0
  6
CONTINUOUS
 62
     7
 10
318.2092723609
 20
178.5862257054
 30
0.0
 40
0.4000000000000341
 50
90.0
 51
180.0
  0
LINE
  5
134
  8
0
  6
CONTINUOUS
 62
     7
 10
317.8092722864
 20
178.5862282803
 30
0.0
 11
317.8092722864
 21
177.9862240842
 31
0.0
  0
LINE
  5
135
  8
0
  6
CONTINUOUS
 62
     7
 10
317.0092725278
 20
175.7862285664
 30
0.0
 11
317.0092725278
 21
170.7862273743
 31
0.0
  0
LINE
  5
136
  8
0
  6
CONTINUOUS
 62
     7
 10
317.0092725278
 20
175.7862285664
 30
0.0
 11
315.0613703848
 21
175.7862285664
 31
0.0
  0
ARC
  5
137
  8
0
  6
CONTINUOUS
 62
     7
 10
322.9092723609
 20
190.3862257054
 30
0.0
 40
6.400000000000024
 50
334.4805415091
 51
151.3013359141
  0
ARC
  5
138
  8
0
  6
CONTINUOUS
 62
     7
 10
337.7092723609
 20
183.3208170123
 30
0.0
 40
10.0
 50
154.4805415091
 51
180.0
  0
LINE
  5
139
  8
0
  6
CONTINUOUS
 62
     7
 10
327.7092722328
 20
183.3208159497
 30
0.0
 11
327.7092722328
 21
179.7862247517
 31
0.0
  0
LINE
  5
13A
  8
0
  6
CONTINUOUS
 62
     7
 10
327.8092724354
 20
179.7862247517
 30
0.0
 11
327.7092722328
 21
179.7862247517
 31
0.0
  0
ARC
  5
13B
  8
0
  6
CONTINUOUS
 62
     7
 10
327.8092723609
 20
178.7862257054
 30
0.0
 40
1.0
 50
0.0
 51
90.0
  0
LINE
  5
13C
  8
0
  6
CONTINUOUS
 62
     7
 10
328.8092722268
 20
170.7862273743
 30
0.0
 11
328.8092722268
 21
178.7862257054
 31
0.0
  0
ARC
  5
13D
  8
0
  6
CONTINUOUS
 62
     7
 10
338.61836327
 20
181.7862257054
 30
0.0
 40
24.30909090909089
 50
151.3013359141
 51
194.2894890274
  0
LINE
  5
13E
  8
0
  6
CONTINUOUS
 62
     7
 10
317.8092722864
 20
169.9862257531
 30
0.0
 11
317.8092722864
 21
168.7862233212
 31
0.0
  0
LINE
  5
13F
  8
0
  6
CONTINUOUS
 62
     7
 10
317.8092722864
 20
168.7862233212
 30
0.0
 11
317.0092725278
 21
168.7862233212
 31
0.0
  0
LINE
  5
140
  8
0
  6
CONTINUOUS
 62
     7
 10
317.0092725278
 20
168.7862233212
 30
0.0
 11
317.0092725278
 21
170.7862273743
 31
0.0
  0
LINE
  5
141
  8
0
  6
CONTINUOUS
 62
     7
 10
328.8092722268
 20
170.7862273743
 30
0.0
 11
328.8092722268
 21
168.7862233212
 31
0.0
  0
LINE
  5
142
  8
0
  6
CONTINUOUS
 62
     7
 10
328.8092722268
 20
168.7862233212
 30
0.0
 11
328.0092724682
 21
168.7862233212
 31
0.0
  0
LINE
  5
143
  8
0
  6
CONTINUOUS
 62
     7
 10
328.0092724682
 20
168.7862233212
 30
0.0
 11
328.0092724682
 21
170.7862273743
 31
0.0
  0
LINE
  5
144
  8
0
  6
CONTINUOUS
 62
     7
 10
317.8092722864
 20
169.9862257531
 30
0.0
 11
317.8092722864
 21
177.9862240842
 31
0.0
  0
ARC
  5
145
  8
0
  6
CONTINUOUS
 62
     7
 10
318.8092723609
 20
177.9862257054
 30
0.0
 40
1.0
 50
90.0
 51
180.0
  0
LINE
  5
146
  8
0
  6
CONTINUOUS
 62
     7
 10
318.8092724503
 20
178.9862231305
 30
0.0
 11
326.8092722715
 21
178.9862231305
 31
0.0
  0
ARC
  5
147
  8
0
  6
CONTINUOUS
 62
     7
 10
318.8092723609
 20
169.9862257054
 30
0.0
 40
1.0
 50
180.0
 51
270.0
  0
LINE
  5
148
  8
0
  6
CONTINUOUS
 62
     7
 10
326.8092722715
 20
168.9862267068
 30
0.0
 11
318.8092724503
 21
168.9862267068
 31
0.0
  0
ARC
  5
149
  8
0
  6
CONTINUOUS
 62
     7
 10
326.8092723609
 20
177.9862257054
 30
0.0
 40
1.0
 50
0.0
 51
90.0
  0
LINE
  5
14A
  8
0
  6
CONTINUOUS
 62
     7
 10
327.8092724354
 20
177.9862240842
 30
0.0
 11
327.8092724354
 21
169.9862257531
 31
0.0
  0
ARC
  5
14B
  8
0
  6
CONTINUOUS
 62
     7
 10
326.8092723609
 20
169.9862257054
 30
0.0
 40
1.0
 50
270.0
 51
0.0
  0
LINE
  5
14C
  8
0
  6
CONTINUOUS
 62
     7
 10
310.8092726291
 20
103.7862257054
 30
0.0
 11
310.8092726291
 21
104.9862257158
 31
0.0
  0
LINE
  5
14D
  8
0
  6
CONTINUOUS
 62
     7
 10
314.8092725397
 20
103.7862257054
 30
0.0
 11
310.8092726291
 21
103.7862257054
 31
0.0
  0
LINE
  5
14E
  8
0
  6
CONTINUOUS
 62
     7
 10
310.8092726291
 20
104.9862257158
 30
0.0
 11
314.8092725397
 21
104.9862257158
 31
0.0
  0
LINE
  5
14F
  8
0
  6
CONTINUOUS
 62
     7
 10
314.8092725397
 20
103.7862257054
 30
0.0
 11
316.809272495
 21
103.7862257054
 31
0.0
  0
LINE
  5
150
  8
0
  6
CONTINUOUS
 62
     7
 10
314.8092725397
 20
104.9862257158
 30
0.0
 11
316.809272495
 21
104.9862257158
 31
0.0
  0
LINE
  5
151
  8
0
  6
CONTINUOUS
 62
     7
 10
316.809272495
 20
103.7862257054
 30
0.0
 11
344.1776939751
 21
103.7862257054
 31
0.0
  0
LINE
  5
152
  8
0
  6
CONTINUOUS
 62
     7
 10
344.1776939751
 20
104.9862257158
 30
0.0
 11
316.809272495
 21
104.9862257158
 31
0.0
  0
LINE
  5
153
  8
0
  6
CONTINUOUS
 62
     7
 10
346.8092718245
 20
104.9862257158
 30
0.0
 11
346.8092718245
 21
103.7862257054
 31
0.0
  0
LINE
  5
154
  8
0
  6
CONTINUOUS
 62
     7
 10
346.8092718245
 20
103.7862257054
 30
0.0
 11
344.1776939751
 21
103.7862257054
 31
0.0
  0
LINE
  5
155
  8
0
  6
CONTINUOUS
 62
     7
 10
344.1776939751
 20
104.9862257158
 30
0.0
 11
346.8092718245
 21
104.9862257158
 31
0.0
  0
LINE
  5
156
  8
0
  6
CONTINUOUS
 62
     7
 10
317.8092722864
 20
104.9862257158
 30
0.0
 11
317.8092722864
 21
168.7862233212
 31
0.0
  0
LINE
  5
157
  8
0
  6
CONTINUOUS
 62
     7
 10
327.8092724354
 20
169.1862241318
 30
0.0
 11
327.8092724354
 21
104.9862257158
 31
0.0
  0
LINE
  5
158
  8
0
  6
CONTINUOUS
 62
     7
 10
53.5967924502
 20
53.9550359829
 30
0.0
 11
54.2034485247
 21
52.9014542236
 31
0.0
  0
LINE
  5
159
  8
0
  6
CONTINUOUS
 62
     7
 10
123.7732984927
 20
52.9015015348
 30
0.0
 11
124.3799486068
 21
53.9550732358
 31
0.0
  0
POLYLINE
  5
15A
  8
0
  6
CONTINUOUS
 62
     7
 66
     1
 10
0.0
 20
0.0
 30
0.0
  0
VERTEX
  5
3A9
  8
0
  6
CONTINUOUS
 62
     7
 10
126.4266350177
 20
52.2439132913
 30
0.0
  0
VERTEX
  5
3AA
  8
0
  6
CONTINUOUS
 62
     7
 10
125.4390307572
 20
52.1120413675
 30
0.0
  0
VERTEX
  5
3AB
  8
0
  6
CONTINUOUS
 62
     7
 10
124.229515424
 20
51.9561271651
 30
0.0
  0
VERTEX
  5
3AC
  8
0
  6
CONTINUOUS
 62
     7
 10
123.2454039958
 20
51.8332354261
 30
0.0
  0
VERTEX
  5
3AD
  8
0
  6
CONTINUOUS
 62
     7
 10
122.4869915154
 20
51.7409469469
 30
0.0
  0
VERTEX
  5
3AE
  8
0
  6
CONTINUOUS
 62
     7
 10
121.8813069966
 20
51.6696508511
 30
0.0
  0
VERTEX
  5
3AF
  8
0
  6
CONTINUOUS
 62
     7
 10
121.2851294186
 20
51.6035224779
 30
0.0
  0
VERTEX
  5
3B0
  8
0
  6
CONTINUOUS
 62
     7
 10
120.4016425517
 20
51.513162954
 30
0.0
  0
VERTEX
  5
3B1
  8
0
  6
CONTINUOUS
 62
     7
 10
119.5311643985
 20
51.4327611311
 30
0.0
  0
VERTEX
  5
3B2
  8
0
  6
CONTINUOUS
 62
     7
 10
118.6738558915
 20
51.3608630283
 30
0.0
  0
VERTEX
  5
3B3
  8
0
  6
CONTINUOUS
 62
     7
 10
117.8299703505
 20
51.2950595005
 30
0.0
  0
VERTEX
  5
3B4
  8
0
  6
CONTINUOUS
 62
     7
 10
116.9946172145
 20
51.2308179869
 30
0.0
  0
VERTEX
  5
3B5
  8
0
  6
CONTINUOUS
 62
     7
 10
116.1404707339
 20
51.1623247995
 30
0.0
  0
VERTEX
  5
3B6
  8
0
  6
CONTINUOUS
 62
     7
 10
115.263233414
 20
51.0931401982
 30
0.0
  0
VERTEX
  5
3B7
  8
0
  6
CONTINUOUS
 62
     7
 10
114.362628093
 20
51.0265502616
 30
0.0
  0
VERTEX
  5
3B8
  8
0
  6
CONTINUOUS
 62
     7
 10
113.4384893682
 20
50.9630910589
 30
0.0
  0
VERTEX
  5
3B9
  8
0
  6
CONTINUOUS
 62
     7
 10
112.4908008483
 20
50.9025293871
 30
0.0
  0
VERTEX
  5
3BA
  8
0
  6
CONTINUOUS
 62
     7
 10
111.6098307875
 20
50.8499308957
 30
0.0
  0
VERTEX
  5
3BB
  8
0
  6
CONTINUOUS
 62
     7
 10
110.9462865498
 20
50.8122637405
 30
0.0
  0
VERTEX
  5
3BC
  8
0
  6
CONTINUOUS
 62
     7
 10
110.4464688208
 20
50.7849387361
 30
0.0
  0
VERTEX
  5
3BD
  8
0
  6
CONTINUOUS
 62
     7
 10
109.8303102758
 20
50.7523998155
 30
0.0
  0
VERTEX
  5
3BE
  8
0
  6
CONTINUOUS
 62
     7
 10
109.0576925185
 20
50.7132928355
 30
0.0
  0
VERTEX
  5
3BF
  8
0
  6
CONTINUOUS
 62
     7
 10
108.1285619047
 20
50.6686638578
 30
0.0
  0
VERTEX
  5
3C0
  8
0
  6
CONTINUOUS
 62
     7
 10
107.0428647902
 20
50.6197317972
 30
0.0
  0
VERTEX
  5
3C1
  8
0
  6
CONTINUOUS
 62
     7
 10
105.3842597511
 20
50.5514695777
 30
0.0
  0
VERTEX
  5
3C2
  8
0
  6
CONTINUOUS
 62
     7
 10
103.4650915172
 20
50.481939642
 30
0.0
  0
VERTEX
  5
3C3
  8
0
  6
CONTINUOUS
 62
     7
 10
101.4631525483
 20
50.4197027071
 30
0.0
  0
VERTEX
  5
3C4
  8
0
  6
CONTINUOUS
 62
     7
 10
96.0507013705
 20
50.3004811241
 30
0.0
  0
VERTEX
  5
3C5
  8
0
  6
CONTINUOUS
 62
     7
 10
90.5661783051
 20
50.2481139733
 30
0.0
  0
VERTEX
  5
3C6
  8
0
  6
CONTINUOUS
 62
     7
 10
87.0389704463
 20
50.2495627387
 30
0.0
  0
VERTEX
  5
3C7
  8
0
  6
CONTINUOUS
 62
     7
 10
83.4832590875
 20
50.2788405402
 30
0.0
  0
VERTEX
  5
3C8
  8
0
  6
CONTINUOUS
 62
     7
 10
80.0038889852
 20
50.3351371272
 30
0.0
  0
VERTEX
  5
3C9
  8
0
  6
CONTINUOUS
 62
     7
 10
76.7756850329
 20
50.4127680792
 30
0.0
  0
VERTEX
  5
3CA
  8
0
  6
CONTINUOUS
 62
     7
 10
75.1860805657
 20
50.4603351934
 30
0.0
  0
VERTEX
  5
3CB
  8
0
  6
CONTINUOUS
 62
     7
 10
73.6661725548
 20
50.5118235483
 30
0.0
  0
VERTEX
  5
3CC
  8
0
  6
CONTINUOUS
 62
     7
 10
72.2159691956
 20
50.5666341169
 30
0.0
  0
VERTEX
  5
3CD
  8
0
  6
CONTINUOUS
 62
     7
 10
70.8354704883
 20
50.6241902246
 30
0.0
  0
VERTEX
  5
3CE
  8
0
  6
CONTINUOUS
 62
     7
 10
69.524677923
 20
50.6839297249
 30
0.0
  0
VERTEX
  5
3CF
  8
0
  6
CONTINUOUS
 62
     7
 10
68.3340781238
 20
50.742704375
 30
0.0
  0
VERTEX
  5
3D0
  8
0
  6
CONTINUOUS
 62
     7
 10
67.5137975123
 20
50.7858167871
 30
0.0
  0
VERTEX
  5
3D1
  8
0
  6
CONTINUOUS
 62
     7
 10
66.8771379497
 20
50.8208188696
 30
0.0
  0
VERTEX
  5
3D2
  8
0
  6
CONTINUOUS
 62
     7
 10
66.6276478079
 20
50.8349209561
 30
0.0
  0
VERTEX
  5
3D3
  8
0
  6
CONTINUOUS
 62
     7
 10
66.3984709289
 20
50.8481204047
 30
0.0
  0
VERTEX
  5
3D4
  8
0
  6
CONTINUOUS
 62
     7
 10
66.1315613296
 20
50.8637956812
 30
0.0
  0
VERTEX
  5
3D5
  8
0
  6
CONTINUOUS
 62
     7
 10
65.8247076776
 20
50.8818525358
 30
0.0
  0
VERTEX
  5
3D6
  8
0
  6
CONTINUOUS
 62
     7
 10
65.2506955769
 20
50.9150400295
 30
0.0
  0
VERTEX
  5
3D7
  8
0
  6
CONTINUOUS
 62
     7
 10
64.5744674709
 20
50.9545642419
 30
0.0
  0
VERTEX
  5
3D8
  8
0
  6
CONTINUOUS
 62
     7
 10
63.8053693679
 20
51.0018363132
 30
0.0
  0
VERTEX
  5
3D9
  8
0
  6
CONTINUOUS
 62
     7
 10
62.9956462291
 20
51.0555572345
 30
0.0
  0
VERTEX
  5
3DA
  8
0
  6
CONTINUOUS
 62
     7
 10
62.1534117368
 20
51.1158894284
 30
0.0
  0
VERTEX
  5
3DB
  8
0
  6
CONTINUOUS
 62
     7
 10
60.6777169612
 20
51.2324515267
 30
0.0
  0
VERTEX
  5
3DC
  8
0
  6
CONTINUOUS
 62
     7
 10
59.1124215033
 20
51.3711753769
 30
0.0
  0
VERTEX
  5
3DD
  8
0
  6
CONTINUOUS
 62
     7
 10
57.4498691466
 20
51.5353731348
 30
0.0
  0
VERTEX
  5
3DE
  8
0
  6
CONTINUOUS
 62
     7
 10
56.0691722539
 20
51.6845672859
 30
0.0
  0
VERTEX
  5
3DF
  8
0
  6
CONTINUOUS
 62
     7
 10
54.5509436038
 20
51.8609020396
 30
0.0
  0
VERTEX
  5
3E0
  8
0
  6
CONTINUOUS
 62
     7
 10
52.8954901603
 20
52.0666218831
 30
0.0
  0
VERTEX
  5
3E1
  8
0
  6
CONTINUOUS
 62
     7
 10
51.5499212649
 20
52.2445208861
 30
0.0
  0
SEQEND
  5
5AF
  8
0
  6
CONTINUOUS
 62
     7
  0
LINE
  5
15B
  8
0
  6
CONTINUOUS
 62
     7
 10
51.4022805598
 20
51.1829353406
 30
0.0
 11
51.3879188207
 21
51.1196337177
 31
0.0
  0
LINE
  5
15C
  8
0
  6
CONTINUOUS
 62
     7
 10
51.5360006001
 20
52.247413574
 30
0.0
 11
51.5326776412
 21
52.2204182579
 31
0.0
  0
POLYLINE
  5
15D
  8
0
  6
CONTINUOUS
 62
     7
 66
     1
 10
0.0
 20
0.0
 30
0.0
  0
VERTEX
  5
3E2
  8
0
  6
CONTINUOUS
 62
     7
 10
51.5003272202
 20
51.9577450587
 30
0.0
  0
VERTEX
  5
3E3
  8
0
  6
CONTINUOUS
 62
     7
 10
51.464829674
 20
51.6695264264
 30
0.0
  0
VERTEX
  5
3E4
  8
0
  6
CONTINUOUS
 62
     7
 10
51.3881244567
 20
51.0728075637
 30
0.0
  0
SEQEND
  5
5AE
  8
0
  6
CONTINUOUS
 62
     7
  0
POLYLINE
  5
15E
  8
0
  6
CONTINUOUS
 62
     7
 66
     1
 10
0.0
 20
0.0
 30
0.0
  0
VERTEX
  5
3E5
  8
0
  6
CONTINUOUS
 62
     7
 10
126.5887715724
 20
51.0711989834
 30
0.0
  0
VERTEX
  5
3E6
  8
0
  6
CONTINUOUS
 62
     7
 10
126.5119590667
 20
51.6687310769
 30
0.0
  0
VERTEX
  5
3E7
  8
0
  6
CONTINUOUS
 62
     7
 10
126.4769771006
 20
51.9527546598
 30
0.0
  0
SEQEND
  5
5AD
  8
0
  6
CONTINUOUS
 62
     7
  0
LINE
  5
15F
  8
0
  6
CONTINUOUS
 62
     7
 10
126.4428921845
 20
52.2295079662
 30
0.0
 11
126.4406868127
 21
52.247412829
 31
0.0
  0
LINE
  5
160
  8
0
  6
CONTINUOUS
 62
     7
 10
126.5887685922
 20
51.1196318551
 30
0.0
 11
126.5744157937
 21
51.1828951074
 31
0.0
  0
LINE
  5
161
  8
0
  6
CONTINUOUS
 62
     7
 10
51.2883433011
 20
40.7290845646
 30
0.0
 11
52.0883449223
 21
40.7290845646
 31
0.0
  0
LINE
  5
162
  8
0
  6
CONTINUOUS
 62
     7
 10
51.2883433011
 20
40.6601603611
 30
0.0
 11
67.6883437541
 21
40.6601603611
 31
0.0
  0
LINE
  5
163
  8
0
  6
CONTINUOUS
 62
     7
 10
67.6883437541
 20
52.8601601257
 30
0.0
 11
59.2822947409
 21
52.8601601257
 31
0.0
  0
LINE
  5
164
  8
0
  6
CONTINUOUS
 62
     7
 10
54.2359509375
 20
52.8601601257
 30
0.0
 11
51.2883433011
 21
52.8601601257
 31
0.0
  0
LINE
  5
165
  8
0
  6
CONTINUOUS
 62
     7
 10
125.8883424905
 20
40.7290845646
 30
0.0
 11
126.6883441117
 21
40.7290845646
 31
0.0
  0
LINE
  5
166
  8
0
  6
CONTINUOUS
 62
     7
 10
126.6883441117
 20
52.8601601257
 30
0.0
 11
123.7407632974
 21
52.8601601257
 31
0.0
  0
LINE
  5
167
  8
0
  6
CONTINUOUS
 62
     7
 10
118.6932214406
 20
52.8601601257
 30
0.0
 11
110.2883436587
 21
52.8601601257
 31
0.0
  0
LINE
  5
168
  8
0
  6
CONTINUOUS
 62
     7
 10
110.2883436587
 20
40.6601603611
 30
0.0
 11
126.6883441117
 21
40.6601603611
 31
0.0
  0
LINE
  5
169
  8
0
  6
CONTINUOUS
 62
     7
 10
126.9883432296
 20
40.3601604982
 30
0.0
 11
130.3883441594
 21
40.3601604982
 31
0.0
  0
LINE
  5
16A
  8
0
  6
CONTINUOUS
 62
     7
 10
126.9883432296
 20
52.7601602955
 30
0.0
 11
126.6883441117
 21
52.7601602955
 31
0.0
  0
LINE
  5
16B
  8
0
  6
CONTINUOUS
 62
     7
 10
110.2883436587
 20
52.7601602955
 30
0.0
 11
109.5883437302
 21
52.7601602955
 31
0.0
  0
LINE
  5
16C
  8
0
  6
CONTINUOUS
 62
     7
 10
109.5883437302
 20
40.7601601912
 30
0.0
 11
110.2883436587
 21
40.7601601912
 31
0.0
  0
LINE
  5
16D
  8
0
  6
CONTINUOUS
 62
     7
 10
126.6883441117
 20
40.7601601912
 30
0.0
 11
126.9883432296
 21
40.7601601912
 31
0.0
  0
LINE
  5
16E
  8
0
  6
CONTINUOUS
 62
     7
 10
130.3883441594
 20
55.3601603492
 30
0.0
 11
126.9883432296
 21
55.3601603492
 31
0.0
  0
LINE
  5
16F
  8
0
  6
CONTINUOUS
 62
     7
 10
47.5883432534
 20
40.3601604982
 30
0.0
 11
50.9883441832
 21
40.3601604982
 31
0.0
  0
LINE
  5
170
  8
0
  6
CONTINUOUS
 62
     7
 10
50.9883441832
 20
40.7601601912
 30
0.0
 11
51.2883433011
 21
40.7601601912
 31
0.0
  0
LINE
  5
171
  8
0
  6
CONTINUOUS
 62
     7
 10
67.6883437541
 20
40.7601601912
 30
0.0
 11
68.3883436826
 21
40.7601601912
 31
0.0
  0
LINE
  5
172
  8
0
  6
CONTINUOUS
 62
     7
 10
68.3883436826
 20
52.7601602955
 30
0.0
 11
67.6883437541
 21
52.7601602955
 31
0.0
  0
LINE
  5
173
  8
0
  6
CONTINUOUS
 62
     7
 10
51.2883433011
 20
52.7601602955
 30
0.0
 11
50.9883441832
 21
52.7601602955
 31
0.0
  0
LINE
  5
174
  8
0
  6
CONTINUOUS
 62
     7
 10
50.9883441832
 20
55.3601603492
 30
0.0
 11
47.5883432534
 21
55.3601603492
 31
0.0
  0
POLYLINE
  5
175
  8
0
  6
CONTINUOUS
 62
     7
 66
     1
 10
0.0
 20
0.0
 30
0.0
  0
VERTEX
  5
3E8
  8
0
  6
CONTINUOUS
 62
     7
 10
124.0136691239
 20
53.3396292015
 30
0.0
  0
VERTEX
  5
3E9
  8
0
  6
CONTINUOUS
 62
     7
 10
124.0410783198
 20
53.6441895648
 30
0.0
  0
VERTEX
  5
3EA
  8
0
  6
CONTINUOUS
 62
     7
 10
123.8792397883
 20
54.0638055189
 30
0.0
  0
VERTEX
  5
3EB
  8
0
  6
CONTINUOUS
 62
     7
 10
123.5271015075
 20
54.5829344078
 30
0.0
  0
VERTEX
  5
3EC
  8
0
  6
CONTINUOUS
 62
     7
 10
122.9923912194
 20
55.1773111804
 30
0.0
  0
VERTEX
  5
3ED
  8
0
  6
CONTINUOUS
 62
     7
 10
122.2820528653
 20
55.8229136749
 30
0.0
  0
VERTEX
  5
3EE
  8
0
  6
CONTINUOUS
 62
     7
 10
121.4148529675
 20
56.492598681
 30
0.0
  0
VERTEX
  5
3EF
  8
0
  6
CONTINUOUS
 62
     7
 10
120.4139449504
 20
57.1583557411
 30
0.0
  0
VERTEX
  5
3F0
  8
0
  6
CONTINUOUS
 62
     7
 10
119.3049051669
 20
57.7996316834
 30
0.0
  0
VERTEX
  5
3F1
  8
0
  6
CONTINUOUS
 62
     7
 10
118.2765164283
 20
58.3199422343
 30
0.0
  0
VERTEX
  5
3F2
  8
0
  6
CONTINUOUS
 62
     7
 10
117.2110088971
 20
58.7946597024
 30
0.0
  0
SEQEND
  5
5AC
  8
0
  6
CONTINUOUS
 62
     7
  0
ARC
  5
176
  8
0
  6
CONTINUOUS
 62
     7
 10
119.7398003421
 20
55.4172091984
 30
0.0
 40
4.752083017818424
 50
310.0317818459
 51
334.0750454161
  0
POLYLINE
  5
177
  8
0
  6
CONTINUOUS
 62
     7
 66
     1
 10
0.0
 20
0.0
 30
0.0
  0
VERTEX
  5
3F3
  8
0
  6
CONTINUOUS
 62
     7
 10
114.5482607987
 20
54.4854405804
 30
0.0
  0
VERTEX
  5
3F4
  8
0
  6
CONTINUOUS
 62
     7
 10
115.9495689776
 20
53.940639226
 30
0.0
  0
VERTEX
  5
3F5
  8
0
  6
CONTINUOUS
 62
     7
 10
117.2989376691
 20
53.4099194689
 30
0.0
  0
VERTEX
  5
3F6
  8
0
  6
CONTINUOUS
 62
     7
 10
118.5586669352
 20
52.9126077427
 30
0.0
  0
VERTEX
  5
3F7
  8
0
  6
CONTINUOUS
 62
     7
 10
119.6964480784
 20
52.4691193833
 30
0.0
  0
VERTEX
  5
3F8
  8
0
  6
CONTINUOUS
 62
     7
 10
120.6777163651
 20
52.101871325
 30
0.0
  0
VERTEX
  5
3F9
  8
0
  6
CONTINUOUS
 62
     7
 10
121.4855619576
 20
51.8267027571
 30
0.0
  0
VERTEX
  5
3FA
  8
0
  6
CONTINUOUS
 62
     7
 10
122.0108725932
 20
51.6849021895
 30
0.0
  0
SEQEND
  5
5AB
  8
0
  6
CONTINUOUS
 62
     7
  0
ARC
  5
178
  8
0
  6
CONTINUOUS
 62
     7
 10
88.9883437064
 20
-11.8072317189
 30
0.0
 40
71.04947404698504
 50
68.915269925
 51
111.084730075
  0
POLYLINE
  5
179
  8
0
  6
CONTINUOUS
 62
     7
 66
     1
 10
0.0
 20
0.0
 30
0.0
  0
VERTEX
  5
3FB
  8
0
  6
CONTINUOUS
 62
     7
 10
56.0111203101
 20
51.6913096889
 30
0.0
  0
VERTEX
  5
3FC
  8
0
  6
CONTINUOUS
 62
     7
 10
56.0143985656
 20
51.6918520911
 30
0.0
  0
VERTEX
  5
3FD
  8
0
  6
CONTINUOUS
 62
     7
 10
56.6827305463
 20
51.8883570566
 30
0.0
  0
VERTEX
  5
3FE
  8
0
  6
CONTINUOUS
 62
     7
 10
57.5401433614
 20
52.1898060574
 30
0.0
  0
VERTEX
  5
3FF
  8
0
  6
CONTINUOUS
 62
     7
 10
58.5683592465
 20
52.5803375526
 30
0.0
  0
VERTEX
  5
400
  8
0
  6
CONTINUOUS
 62
     7
 10
59.7401388791
 20
53.0396081044
 30
0.0
  0
VERTEX
  5
401
  8
0
  6
CONTINUOUS
 62
     7
 10
61.0233255532
 20
53.5461682363
 30
0.0
  0
VERTEX
  5
402
  8
0
  6
CONTINUOUS
 62
     7
 10
62.3853036073
 20
54.0807511194
 30
0.0
  0
VERTEX
  5
403
  8
0
  6
CONTINUOUS
 62
     7
 10
63.4284266141
 20
54.4854405804
 30
0.0
  0
SEQEND
  5
5AA
  8
0
  6
CONTINUOUS
 62
     7
  0
ARC
  5
17A
  8
0
  6
CONTINUOUS
 62
     7
 10
58.2170843713
 20
55.4034915406
 30
0.0
 40
4.728233856815073
 50
205.8791163366
 51
229.8550411524
  0
POLYLINE
  5
17B
  8
0
  6
CONTINUOUS
 62
     7
 66
     1
 10
0.0
 20
0.0
 30
0.0
  0
VERTEX
  5
404
  8
0
  6
CONTINUOUS
 62
     7
 10
60.7657261994
 20
58.794680564
 30
0.0
  0
VERTEX
  5
405
  8
0
  6
CONTINUOUS
 62
     7
 10
59.5383533147
 20
58.2421127244
 30
0.0
  0
VERTEX
  5
406
  8
0
  6
CONTINUOUS
 62
     7
 10
58.3648898509
 20
57.6311762913
 30
0.0
  0
VERTEX
  5
407
  8
0
  6
CONTINUOUS
 62
     7
 10
57.2791376021
 20
56.9790686949
 30
0.0
  0
VERTEX
  5
408
  8
0
  6
CONTINUOUS
 62
     7
 10
56.309811106
 20
56.3084553464
 30
0.0
  0
VERTEX
  5
409
  8
0
  6
CONTINUOUS
 62
     7
 10
55.4881342557
 20
55.6464846714
 30
0.0
  0
VERTEX
  5
40A
  8
0
  6
CONTINUOUS
 62
     7
 10
54.8263319638
 20
55.0152178391
 30
0.0
  0
VERTEX
  5
40B
  8
0
  6
CONTINUOUS
 62
     7
 10
54.3400474694
 20
54.4396604879
 30
0.0
  0
VERTEX
  5
40C
  8
0
  6
CONTINUOUS
 62
     7
 10
54.0373065379
 20
53.9452004715
 30
0.0
  0
VERTEX
  5
40D
  8
0
  6
CONTINUOUS
 62
     7
 10
53.9282777217
 20
53.5980183168
 30
0.0
  0
VERTEX
  5
40E
  8
0
  6
CONTINUOUS
 62
     7
 10
53.9630123284
 20
53.3397409602
 30
0.0
  0
SEQEND
  5
5A9
  8
0
  6
CONTINUOUS
 62
     7
  0
ARC
  5
17C
  8
0
  6
CONTINUOUS
 62
     7
 10
88.9883424791
 20
-9.0348589601
 30
0.0
 40
73.46674418894804
 50
67.4086667073
 51
112.5912909408
  0
POLYLINE
  5
17D
  8
0
  6
CONTINUOUS
 62
     7
 66
     1
 10
0.0
 20
0.0
 30
0.0
  0
VERTEX
  5
40F
  8
0
  6
CONTINUOUS
 62
     7
 10
53.3757665065
 20
54.3471078857
 30
0.0
  0
VERTEX
  5
410
  8
0
  6
CONTINUOUS
 62
     7
 10
53.345731726
 20
54.6496886297
 30
0.0
  0
VERTEX
  5
411
  8
0
  6
CONTINUOUS
 62
     7
 10
53.5048493054
 20
55.0676438494
 30
0.0
  0
VERTEX
  5
412
  8
0
  6
CONTINUOUS
 62
     7
 10
53.8542338517
 20
55.5855135902
 30
0.0
  0
VERTEX
  5
413
  8
0
  6
CONTINUOUS
 62
     7
 10
54.3862023261
 20
56.1791192277
 30
0.0
  0
VERTEX
  5
414
  8
0
  6
CONTINUOUS
 62
     7
 10
55.0938912537
 20
56.8245682402
 30
0.0
  0
VERTEX
  5
415
  8
0
  6
CONTINUOUS
 62
     7
 10
55.9585639146
 20
57.4947606309
 30
0.0
  0
VERTEX
  5
416
  8
0
  6
CONTINUOUS
 62
     7
 10
56.9573291448
 20
58.1618684812
 30
0.0
  0
VERTEX
  5
417
  8
0
  6
CONTINUOUS
 62
     7
 10
58.0645152238
 20
58.8052015288
 30
0.0
  0
VERTEX
  5
418
  8
0
  6
CONTINUOUS
 62
     7
 10
59.0915092137
 20
59.327812074
 30
0.0
  0
VERTEX
  5
419
  8
0
  6
CONTINUOUS
 62
     7
 10
60.1559051183
 20
59.8052683755
 30
0.0
  0
SEQEND
  5
5A8
  8
0
  6
CONTINUOUS
 62
     7
  0
POLYLINE
  5
17E
  8
0
  6
CONTINUOUS
 62
     7
 66
     1
 10
0.0
 20
0.0
 30
0.0
  0
VERTEX
  5
41A
  8
0
  6
CONTINUOUS
 62
     7
 10
117.8208299783
 20
59.8052490039
 30
0.0
  0
VERTEX
  5
41B
  8
0
  6
CONTINUOUS
 62
     7
 10
119.0467336085
 20
59.249635367
 30
0.0
  0
VERTEX
  5
41C
  8
0
  6
CONTINUOUS
 62
     7
 10
120.2183672097
 20
58.636262594
 30
0.0
  0
VERTEX
  5
41D
  8
0
  6
CONTINUOUS
 62
     7
 10
121.3019766715
 20
57.9824242278
 30
0.0
  0
VERTEX
  5
41E
  8
0
  6
CONTINUOUS
 62
     7
 10
122.2689428237
 20
57.3107819541
 30
0.0
  0
VERTEX
  5
41F
  8
0
  6
CONTINUOUS
 62
     7
 10
123.0882921126
 20
56.648322521
 30
0.0
  0
VERTEX
  5
420
  8
0
  6
CONTINUOUS
 62
     7
 10
123.7476059106
 20
56.0171935244
 30
0.0
  0
VERTEX
  5
421
  8
0
  6
CONTINUOUS
 62
     7
 10
124.2312588599
 20
55.4423626049
 30
0.0
  0
VERTEX
  5
422
  8
0
  6
CONTINUOUS
 62
     7
 10
124.5312967208
 20
54.94914162
 30
0.0
  0
VERTEX
  5
423
  8
0
  6
CONTINUOUS
 62
     7
 10
124.637938371
 20
54.6034935399
 30
0.0
  0
VERTEX
  5
424
  8
0
  6
CONTINUOUS
 62
     7
 10
124.6009149459
 20
54.3469961269
 30
0.0
  0
SEQEND
  5
5A7
  8
0
  6
CONTINUOUS
 62
     7
  0
ARC
  5
17F
  8
0
  6
CONTINUOUS
 62
     7
 10
88.9883444413
 20
-8.9794045367
 30
0.0
 40
74.5831132693227
 50
67.2580150351
 51
112.7419464699
  0
ARC
  5
180
  8
0
  6
CONTINUOUS
 62
     7
 10
104.5596439929
 20
63.9600376125
 30
0.0
 40
1.00132557788969
 50
30.2903213797
 51
90.0801256805
  0
LINE
  5
181
  8
0
  6
CONTINUOUS
 62
     7
 10
73.4184437302
 20
64.9613622113
 30
0.0
 11
79.4087507632
 21
64.9613622113
 31
0.0
  0
LINE
  5
182
  8
0
  6
CONTINUOUS
 62
     7
 10
98.5679366496
 20
64.9613622113
 30
0.0
 11
104.5582436827
 21
64.9613622113
 31
0.0
  0
ARC
  5
183
  8
0
  6
CONTINUOUS
 62
     7
 10
73.4170434199
 20
63.9600376125
 30
0.0
 40
1.001325577889717
 50
89.9198743195
 51
149.7096786203
  0
LINE
  5
184
  8
0
  6
CONTINUOUS
 62
     7
 10
72.0694863108
 20
63.6348623319
 30
0.0
 11
72.5524180439
 21
64.4650879784
 31
0.0
  0
LINE
  5
185
  8
0
  6
CONTINUOUS
 62
     7
 10
71.2677248624
 20
63.4475755973
 30
0.0
 11
72.2060077694
 21
65.0606158658
 31
0.0
  0
ARC
  5
186
  8
0
  6
CONTINUOUS
 62
     7
 10
73.0706331454
 20
64.5555654999
 30
0.0
 40
1.001325577889754
 50
89.9198743195
 51
149.7096786203
  0
LINE
  5
187
  8
0
  6
CONTINUOUS
 62
     7
 10
73.0720334556
 20
65.5568900986
 30
0.0
 11
86.1905884799
 21
65.5568900986
 31
0.0
  0
ARC
  5
188
  8
0
  6
CONTINUOUS
 62
     7
 10
86.9760978995
 20
66.1557501034
 30
0.0
 40
0.9877541969108983
 50
180.0217080282
 51
217.3213262934
  0
LINE
  5
189
  8
0
  6
CONTINUOUS
 62
     7
 10
85.9883437735
 20
66.1553758665
 30
0.0
 11
85.9883437735
 21
70.1255607887
 31
0.0
  0
ARC
  5
18A
  8
0
  6
CONTINUOUS
 62
     7
 10
86.9846320081
 20
70.1218194188
 30
0.0
 40
0.9962952596054939
 50
89.7865414901
 51
179.7848376744
  0
LINE
  5
18B
  8
0
  6
CONTINUOUS
 62
     7
 10
90.9883436617
 20
71.1181077643
 30
0.0
 11
86.9883437511
 21
71.1181077643
 31
0.0
  0
ARC
  5
18C
  8
0
  6
CONTINUOUS
 62
     7
 10
90.9920554047
 20
70.1218194188
 30
0.0
 40
0.9962952596055081
 50
0.2151623256
 51
90.2134585099
  0
LINE
  5
18D
  8
0
  6
CONTINUOUS
 62
     7
 10
91.9883436393
 20
66.1553758665
 30
0.0
 11
91.9883436393
 21
70.1255607887
 31
0.0
  0
ARC
  5
18E
  8
0
  6
CONTINUOUS
 62
     7
 10
91.0005895133
 20
66.1557501034
 30
0.0
 40
0.98775419691087
 50
322.6786737066
 51
359.9782919718
  0
LINE
  5
18F
  8
0
  6
CONTINUOUS
 62
     7
 10
91.7860989329
 20
65.5568900986
 30
0.0
 11
104.9046539572
 21
65.5568900986
 31
0.0
  0
ARC
  5
190
  8
0
  6
CONTINUOUS
 62
     7
 10
104.9060542674
 20
64.5555654999
 30
0.0
 40
1.0013255778898
 50
30.2903213797
 51
90.0801256805
  0
LINE
  5
191
  8
0
  6
CONTINUOUS
 62
     7
 10
105.7706796434
 20
65.0606158658
 30
0.0
 11
106.7089625504
 21
63.4475755973
 31
0.0
  0
LINE
  5
192
  8
0
  6
CONTINUOUS
 62
     7
 10
105.4242693689
 20
64.4650879784
 30
0.0
 11
105.9072011021
 21
63.6348623319
 31
0.0
  0
ARC
  5
193
  8
0
  6
CONTINUOUS
 62
     7
 10
73.4170403183
 20
63.2288251375
 30
0.0
 40
1.001321686253559
 50
89.9196965346
 51
149.7097079762
  0
ARC
  5
194
  8
0
  6
CONTINUOUS
 62
     7
 10
104.5596470945
 20
63.2288251375
 30
0.0
 40
1.001321686253519
 50
30.2902920238
 51
90.0803034654
  0
LINE
  5
195
  8
0
  6
CONTINUOUS
 62
     7
 10
73.4184437302
 20
64.2301458402
 30
0.0
 11
74.836985102
 21
64.2301458402
 31
0.0
  0
LINE
  5
196
  8
0
  6
CONTINUOUS
 62
     7
 10
103.1397023108
 20
64.2301458402
 30
0.0
 11
104.5582436827
 21
64.2301458402
 31
0.0
  0
LINE
  5
197
  8
0
  6
CONTINUOUS
 62
     7
 10
85.9883437735
 20
65.5568900986
 30
0.0
 11
85.9883437735
 21
66.1553758665
 31
0.0
  0
LINE
  5
198
  8
0
  6
CONTINUOUS
 62
     7
 10
91.9883436393
 20
66.1553758665
 30
0.0
 11
91.9883436393
 21
65.5568900986
 31
0.0
  0
LINE
  5
199
  8
0
  6
CONTINUOUS
 62
     7
 10
85.9883437735
 20
53.9471286817
 30
0.0
 11
85.9883437735
 21
59.1510969682
 31
0.0
  0
LINE
  5
19A
  8
0
  6
CONTINUOUS
 62
     7
 10
91.9883436393
 20
59.1510969682
 30
0.0
 11
91.9883436393
 21
53.9471286817
 31
0.0
  0
ARC
  5
19B
  8
0
  6
CONTINUOUS
 62
     7
 10
86.9883437064
 20
53.4601602598
 30
0.0
 40
1.000000000000014
 50
180.0
 51
270.0
  0
LINE
  5
19C
  8
0
  6
CONTINUOUS
 62
     7
 10
85.9883437735
 20
53.460160224
 30
0.0
 11
85.9883437735
 21
53.9471286817
 31
0.0
  0
LINE
  5
19D
  8
0
  6
CONTINUOUS
 62
     7
 10
90.9883436617
 20
52.4601604326
 30
0.0
 11
86.9883437511
 21
52.4601604326
 31
0.0
  0
ARC
  5
19E
  8
0
  6
CONTINUOUS
 62
     7
 10
90.9883437064
 20
53.4601602598
 30
0.0
 40
1.000000000000007
 50
270.0
 51
0.0
  0
LINE
  5
19F
  8
0
  6
CONTINUOUS
 62
     7
 10
91.9883436393
 20
53.9471286817
 30
0.0
 11
91.9883436393
 21
53.460160224
 31
0.0
  0
LINE
  5
1A0
  8
0
  6
CONTINUOUS
 62
     7
 10
91.9883436393
 20
52.4601604326
 30
0.0
 11
106.9883444217
 21
52.4601604326
 31
0.0
  0
LINE
  5
1A1
  8
0
  6
CONTINUOUS
 62
     7
 10
106.9883444217
 20
52.4601604326
 30
0.0
 11
106.9883444217
 21
51.4601602687
 31
0.0
  0
LINE
  5
1A2
  8
0
  6
CONTINUOUS
 62
     7
 10
106.9883444217
 20
42.2601602508
 30
0.0
 11
106.9883444217
 21
45.8184471822
 31
0.0
  0
LINE
  5
1A3
  8
0
  6
CONTINUOUS
 62
     7
 10
106.9883444217
 20
50.6174880548
 30
0.0
 11
106.9883444217
 21
51.4601602687
 31
0.0
  0
LINE
  5
1A4
  8
0
  6
CONTINUOUS
 62
     7
 10
70.9883429911
 20
42.2601602508
 30
0.0
 11
70.9883429911
 21
45.826450689
 31
0.0
  0
LINE
  5
1A5
  8
0
  6
CONTINUOUS
 62
     7
 10
70.9883429911
 20
50.6178166254
 30
0.0
 11
70.9883429911
 21
51.4601602687
 31
0.0
  0
LINE
  5
1A6
  8
0
  6
CONTINUOUS
 62
     7
 10
91.9883436393
 20
53.460160224
 30
0.0
 11
91.9883436393
 21
51.4601602687
 31
0.0
  0
LINE
  5
1A7
  8
0
  6
CONTINUOUS
 62
     7
 10
85.9883437735
 20
51.4601602687
 30
0.0
 11
85.9883437735
 21
53.460160224
 31
0.0
  0
LINE
  5
1A8
  8
0
  6
CONTINUOUS
 62
     7
 10
70.9883429911
 20
52.4601604326
 30
0.0
 11
85.9883437735
 21
52.4601604326
 31
0.0
  0
LINE
  5
1A9
  8
0
  6
CONTINUOUS
 62
     7
 10
70.9883429911
 20
51.4601602687
 30
0.0
 11
70.9883429911
 21
52.4601604326
 31
0.0
  0
LINE
  5
1AA
  8
0
  6
CONTINUOUS
 62
     7
 10
106.9883444217
 20
41.2601600869
 30
0.0
 11
70.9883429911
 21
41.2601600869
 31
0.0
  0
LINE
  5
1AB
  8
0
  6
CONTINUOUS
 62
     7
 10
106.9883444217
 20
42.2601602508
 30
0.0
 11
106.9883444217
 21
41.2601600869
 31
0.0
  0
LINE
  5
1AC
  8
0
  6
CONTINUOUS
 62
     7
 10
70.9883429911
 20
41.2601600869
 30
0.0
 11
70.9883429911
 21
42.2601602508
 31
0.0
  0
POLYLINE
  5
1AD
  8
0
  6
CONTINUOUS
 62
     7
 66
     1
 10
0.0
 20
0.0
 30
0.0
  0
VERTEX
  5
425
  8
0
  6
CONTINUOUS
 62
     7
 10
51.3882734683
 20
50.6992119833
 30
0.0
  0
VERTEX
  5
426
  8
0
  6
CONTINUOUS
 62
     7
 10
51.3883062508
 20
50.866148202
 30
0.0
  0
VERTEX
  5
427
  8
0
  6
CONTINUOUS
 62
     7
 10
51.3884403613
 20
50.9779285176
 30
0.0
  0
VERTEX
  5
428
  8
0
  6
CONTINUOUS
 62
     7
 10
51.3888873961
 20
51.0754964783
 30
0.0
  0
VERTEX
  5
429
  8
0
  6
CONTINUOUS
 62
     7
 10
51.3890751508
 20
51.0695997162
 30
0.0
  0
SEQEND
  5
5A6
  8
0
  6
CONTINUOUS
 62
     7
  0
POLYLINE
  5
1AE
  8
0
  6
CONTINUOUS
 62
     7
 66
     1
 10
0.0
 20
0.0
 30
0.0
  0
VERTEX
  5
42A
  8
0
  6
CONTINUOUS
 62
     7
 10
57.4758418706
 20
47.1694876442
 30
0.0
  0
VERTEX
  5
42B
  8
0
  6
CONTINUOUS
 62
     7
 10
56.3731291201
 20
47.3755685615
 30
0.0
  0
VERTEX
  5
42C
  8
0
  6
CONTINUOUS
 62
     7
 10
55.3045638707
 20
47.7169341876
 30
0.0
  0
VERTEX
  5
42D
  8
0
  6
CONTINUOUS
 62
     7
 10
54.4970461038
 20
48.0752919337
 30
0.0
  0
VERTEX
  5
42E
  8
0
  6
CONTINUOUS
 62
     7
 10
53.7593313363
 20
48.4860378786
 30
0.0
  0
VERTEX
  5
42F
  8
0
  6
CONTINUOUS
 62
     7
 10
53.0013927129
 20
49.0010616838
 30
0.0
  0
VERTEX
  5
430
  8
0
  6
CONTINUOUS
 62
     7
 10
52.3632802871
 20
49.520079559
 30
0.0
  0
VERTEX
  5
431
  8
0
  6
CONTINUOUS
 62
     7
 10
51.8322833684
 20
50.0307272656
 30
0.0
  0
VERTEX
  5
432
  8
0
  6
CONTINUOUS
 62
     7
 10
51.6327538398
 20
50.2534038855
 30
0.0
  0
VERTEX
  5
433
  8
0
  6
CONTINUOUS
 62
     7
 10
51.4900036958
 20
50.4428017421
 30
0.0
  0
VERTEX
  5
434
  8
0
  6
CONTINUOUS
 62
     7
 10
51.3882466462
 20
50.699214591
 30
0.0
  0
SEQEND
  5
5A5
  8
0
  6
CONTINUOUS
 62
     7
  0
POLYLINE
  5
1AF
  8
0
  6
CONTINUOUS
 62
     7
 66
     1
 10
0.0
 20
0.0
 30
0.0
  0
VERTEX
  5
435
  8
0
  6
CONTINUOUS
 62
     7
 10
120.5008455422
 20
47.1694876442
 30
0.0
  0
VERTEX
  5
436
  8
0
  6
CONTINUOUS
 62
     7
 10
113.4576105383
 20
46.3834665253
 30
0.0
  0
VERTEX
  5
437
  8
0
  6
CONTINUOUS
 62
     7
 10
106.3869648483
 20
45.765923383
 30
0.0
  0
VERTEX
  5
438
  8
0
  6
CONTINUOUS
 62
     7
 10
99.2613718715
 20
45.3438024505
 30
0.0
  0
VERTEX
  5
439
  8
0
  6
CONTINUOUS
 62
     7
 10
92.1217639801
 20
45.1353294312
 30
0.0
  0
VERTEX
  5
43A
  8
0
  6
CONTINUOUS
 62
     7
 10
86.3479054403
 20
45.1297210066
 30
0.0
  0
VERTEX
  5
43B
  8
0
  6
CONTINUOUS
 62
     7
 10
80.575142881
 20
45.268680109
 30
0.0
  0
VERTEX
  5
43C
  8
0
  6
CONTINUOUS
 62
     7
 10
74.8113014605
 20
45.5490027091
 30
0.0
  0
VERTEX
  5
43D
  8
0
  6
CONTINUOUS
 62
     7
 10
69.0160759595
 20
45.9695863074
 30
0.0
  0
VERTEX
  5
43E
  8
0
  6
CONTINUOUS
 62
     7
 10
63.2360466626
 20
46.515183151
 30
0.0
  0
VERTEX
  5
43F
  8
0
  6
CONTINUOUS
 62
     7
 10
57.4758418706
 20
47.1694876442
 30
0.0
  0
SEQEND
  5
5A4
  8
0
  6
CONTINUOUS
 62
     7
  0
POLYLINE
  5
1B0
  8
0
  6
CONTINUOUS
 62
     7
 66
     1
 10
0.0
 20
0.0
 30
0.0
  0
VERTEX
  5
440
  8
0
  6
CONTINUOUS
 62
     7
 10
126.5884407666
 20
50.6990536584
 30
0.0
  0
VERTEX
  5
441
  8
0
  6
CONTINUOUS
 62
     7
 10
126.502583256
 20
50.467785029
 30
0.0
  0
VERTEX
  5
442
  8
0
  6
CONTINUOUS
 62
     7
 10
126.2434639838
 20
50.137871085
 30
0.0
  0
VERTEX
  5
443
  8
0
  6
CONTINUOUS
 62
     7
 10
125.8491613772
 20
49.73593778
 30
0.0
  0
VERTEX
  5
444
  8
0
  6
CONTINUOUS
 62
     7
 10
125.3124424126
 20
49.2644385903
 30
0.0
  0
VERTEX
  5
445
  8
0
  6
CONTINUOUS
 62
     7
 10
124.589354625
 20
48.7262345387
 30
0.0
  0
VERTEX
  5
446
  8
0
  6
CONTINUOUS
 62
     7
 10
123.7015225795
 20
48.1900783724
 30
0.0
  0
VERTEX
  5
447
  8
0
  6
CONTINUOUS
 62
     7
 10
122.8362061885
 20
47.7824617645
 30
0.0
  0
VERTEX
  5
448
  8
0
  6
CONTINUOUS
 62
     7
 10
121.8509473708
 20
47.4418090659
 30
0.0
  0
VERTEX
  5
449
  8
0
  6
CONTINUOUS
 62
     7
 10
121.1924590972
 20
47.2819198857
 30
0.0
  0
VERTEX
  5
44A
  8
0
  6
CONTINUOUS
 62
     7
 10
120.5008455422
 20
47.1694876442
 30
0.0
  0
SEQEND
  5
5A3
  8
0
  6
CONTINUOUS
 62
     7
  0
POLYLINE
  5
1B1
  8
0
  6
CONTINUOUS
 62
     7
 66
     1
 10
0.0
 20
0.0
 30
0.0
  0
VERTEX
  5
44B
  8
0
  6
CONTINUOUS
 62
     7
 10
126.5875943807
 20
51.0755657687
 30
0.0
  0
VERTEX
  5
44C
  8
0
  6
CONTINUOUS
 62
     7
 10
126.5876659062
 20
51.0812807365
 30
0.0
  0
VERTEX
  5
44D
  8
0
  6
CONTINUOUS
 62
     7
 10
126.5880384353
 20
51.0447259529
 30
0.0
  0
VERTEX
  5
44E
  8
0
  6
CONTINUOUS
 62
     7
 10
126.5883185771
 20
50.9283363356
 30
0.0
  0
VERTEX
  5
44F
  8
0
  6
CONTINUOUS
 62
     7
 10
126.5884139445
 20
50.6990514232
 30
0.0
  0
SEQEND
  5
5A2
  8
0
  6
CONTINUOUS
 62
     7
  0
POLYLINE
  5
1B2
  8
0
  6
CONTINUOUS
 62
     7
 66
     1
 10
0.0
 20
0.0
 30
0.0
  0
VERTEX
  5
450
  8
0
  6
CONTINUOUS
 62
     7
 10
53.7819960025
 20
52.0748421087
 30
0.0
  0
VERTEX
  5
451
  8
0
  6
CONTINUOUS
 62
     7
 10
53.0076094773
 20
52.0768444522
 30
0.0
  0
VERTEX
  5
452
  8
0
  6
CONTINUOUS
 62
     7
 10
52.8115221169
 20
52.0777232482
 30
0.0
  0
SEQEND
  5
5A1
  8
0
  6
CONTINUOUS
 62
     7
  0
POLYLINE
  5
1B3
  8
0
  6
CONTINUOUS
 62
     7
 66
     1
 10
0.0
 20
0.0
 30
0.0
  0
VERTEX
  5
453
  8
0
  6
CONTINUOUS
 62
     7
 10
51.5349277165
 20
52.2324684544
 30
0.0
  0
VERTEX
  5
454
  8
0
  6
CONTINUOUS
 62
     7
 10
51.5250482467
 20
52.1796054675
 30
0.0
  0
VERTEX
  5
455
  8
0
  6
CONTINUOUS
 62
     7
 10
51.4965393451
 20
51.9237752541
 30
0.0
  0
SEQEND
  5
5A0
  8
0
  6
CONTINUOUS
 62
     7
  0
ARC
  5
1B4
  8
0
  6
CONTINUOUS
 62
     7
 10
53.4280205232
 20
44.3754385323
 30
0.0
 40
7.707498562684094
 50
77.996495776
 51
87.367767973
  0
LINE
  5
1B5
  8
0
  6
CONTINUOUS
 62
     7
 10
56.0554125216
 20
51.7039108558
 30
0.0
 11
56.2175997403
 21
51.6685287936
 31
0.0
  0
LINE
  5
1B6
  8
0
  6
CONTINUOUS
 62
     7
 10
121.6430761721
 20
51.6432262494
 30
0.0
 11
121.9318904784
 21
51.706222771
 31
0.0
  0
ARC
  5
1B7
  8
0
  6
CONTINUOUS
 62
     7
 10
124.5553105394
 20
44.2700042928
 30
0.0
 40
7.813126873116714
 50
92.6453921481
 51
101.8765589521
  0
POLYLINE
  5
1B8
  8
0
  6
CONTINUOUS
 62
     7
 66
     1
 10
0.0
 20
0.0
 30
0.0
  0
VERTEX
  5
456
  8
0
  6
CONTINUOUS
 62
     7
 10
124.1946973708
 20
52.0748037382
 30
0.0
  0
VERTEX
  5
457
  8
0
  6
CONTINUOUS
 62
     7
 10
125.052470794
 20
52.0771741404
 30
0.0
  0
VERTEX
  5
458
  8
0
  6
CONTINUOUS
 62
     7
 10
125.172699323
 20
52.0777098371
 30
0.0
  0
SEQEND
  5
59F
  8
0
  6
CONTINUOUS
 62
     7
  0
POLYLINE
  5
1B9
  8
0
  6
CONTINUOUS
 62
     7
 66
     1
 10
0.0
 20
0.0
 30
0.0
  0
VERTEX
  5
459
  8
0
  6
CONTINUOUS
 62
     7
 10
126.3646163848
 20
52.081814362
 30
0.0
  0
VERTEX
  5
45A
  8
0
  6
CONTINUOUS
 62
     7
 10
126.3673939612
 20
52.0817275627
 30
0.0
  0
VERTEX
  5
45B
  8
0
  6
CONTINUOUS
 62
     7
 10
126.3356366065
 20
52.0871966614
 30
0.0
  0
VERTEX
  5
45C
  8
0
  6
CONTINUOUS
 62
     7
 10
126.3364174273
 20
52.0905702843
 30
0.0
  0
SEQEND
  5
59E
  8
0
  6
CONTINUOUS
 62
     7
  0
POLYLINE
  5
1BA
  8
0
  6
CONTINUOUS
 62
     7
 66
     1
 10
0.0
 20
0.0
 30
0.0
  0
VERTEX
  5
45D
  8
0
  6
CONTINUOUS
 62
     7
 10
126.4005937484
 20
52.0742255731
 30
0.0
  0
VERTEX
  5
45E
  8
0
  6
CONTINUOUS
 62
     7
 10
126.4101185706
 20
52.0625736101
 30
0.0
  0
VERTEX
  5
45F
  8
0
  6
CONTINUOUS
 62
     7
 10
126.4225997832
 20
52.0867436661
 30
0.0
  0
VERTEX
  5
460
  8
0
  6
CONTINUOUS
 62
     7
 10
126.4241167214
 20
52.1442185624
 30
0.0
  0
VERTEX
  5
461
  8
0
  6
CONTINUOUS
 62
     7
 10
126.425574055
 20
52.2151030137
 30
0.0
  0
SEQEND
  5
59D
  8
0
  6
CONTINUOUS
 62
     7
  0
POLYLINE
  5
1BB
  8
0
  6
CONTINUOUS
 62
     7
 66
     1
 10
0.0
 20
0.0
 30
0.0
  0
VERTEX
  5
462
  8
0
  6
CONTINUOUS
 62
     7
 10
126.4273562339
 20
52.238526894
 30
0.0
  0
VERTEX
  5
463
  8
0
  6
CONTINUOUS
 62
     7
 10
126.4293827918
 20
52.2651638372
 30
0.0
  0
VERTEX
  5
464
  8
0
  6
CONTINUOUS
 62
     7
 10
126.438111892
 20
52.2587023212
 30
0.0
  0
VERTEX
  5
465
  8
0
  6
CONTINUOUS
 62
     7
 10
126.4544048217
 20
52.1591912492
 30
0.0
  0
VERTEX
  5
466
  8
0
  6
CONTINUOUS
 62
     7
 10
126.4801480677
 20
51.9237748815
 30
0.0
  0
SEQEND
  5
59C
  8
0
  6
CONTINUOUS
 62
     7
  0
POLYLINE
  5
1BC
  8
0
  6
CONTINUOUS
 62
     7
 66
     1
 10
0.0
 20
0.0
 30
0.0
  0
VERTEX
  5
467
  8
0
  6
CONTINUOUS
 62
     7
 10
126.4801480677
 20
51.9237752541
 30
0.0
  0
VERTEX
  5
468
  8
0
  6
CONTINUOUS
 62
     7
 10
126.4087357428
 20
51.7135191246
 30
0.0
  0
VERTEX
  5
469
  8
0
  6
CONTINUOUS
 62
     7
 10
126.1611499694
 20
51.4158498033
 30
0.0
  0
VERTEX
  5
46A
  8
0
  6
CONTINUOUS
 62
     7
 10
125.7648386863
 20
51.0493237062
 30
0.0
  0
VERTEX
  5
46B
  8
0
  6
CONTINUOUS
 62
     7
 10
125.2153285649
 20
50.6122335328
 30
0.0
  0
VERTEX
  5
46C
  8
0
  6
CONTINUOUS
 62
     7
 10
124.4948395398
 20
50.1231621488
 30
0.0
  0
VERTEX
  5
46D
  8
0
  6
CONTINUOUS
 62
     7
 10
123.6118324902
 20
49.6307767464
 30
0.0
  0
VERTEX
  5
46E
  8
0
  6
CONTINUOUS
 62
     7
 10
122.7331974414
 20
49.2447690575
 30
0.0
  0
VERTEX
  5
46F
  8
0
  6
CONTINUOUS
 62
     7
 10
121.7344232705
 20
48.9213529511
 30
0.0
  0
VERTEX
  5
470
  8
0
  6
CONTINUOUS
 62
     7
 10
121.0785993245
 20
48.7718902065
 30
0.0
  0
VERTEX
  5
471
  8
0
  6
CONTINUOUS
 62
     7
 10
120.3915067819
 20
48.666650383
 30
0.0
  0
SEQEND
  5
59B
  8
0
  6
CONTINUOUS
 62
     7
  0
POLYLINE
  5
1BD
  8
0
  6
CONTINUOUS
 62
     7
 66
     1
 10
0.0
 20
0.0
 30
0.0
  0
VERTEX
  5
472
  8
0
  6
CONTINUOUS
 62
     7
 10
120.3915067819
 20
48.6666472166
 30
0.0
  0
VERTEX
  5
473
  8
0
  6
CONTINUOUS
 62
     7
 10
115.3268971351
 20
48.1168671979
 30
0.0
  0
VERTEX
  5
474
  8
0
  6
CONTINUOUS
 62
     7
 10
110.3487961796
 20
47.6530132352
 30
0.0
  0
VERTEX
  5
475
  8
0
  6
CONTINUOUS
 62
     7
 10
105.356475046
 20
47.2737920007
 30
0.0
  0
VERTEX
  5
476
  8
0
  6
CONTINUOUS
 62
     7
 10
100.3100023475
 20
46.9861691238
 30
0.0
  0
VERTEX
  5
477
  8
0
  6
CONTINUOUS
 62
     7
 10
95.2906251755
 20
46.8013059758
 30
0.0
  0
VERTEX
  5
478
  8
0
  6
CONTINUOUS
 62
     7
 10
90.2482766528
 20
46.7209920755
 30
0.0
  0
VERTEX
  5
479
  8
0
  6
CONTINUOUS
 62
     7
 10
85.218691906
 20
46.7476443041
 30
0.0
  0
VERTEX
  5
47A
  8
0
  6
CONTINUOUS
 62
     7
 10
80.5966370609
 20
46.8656802585
 30
0.0
  0
VERTEX
  5
47B
  8
0
  6
CONTINUOUS
 62
     7
 10
75.9950675872
 20
47.0703850503
 30
0.0
  0
VERTEX
  5
47C
  8
0
  6
CONTINUOUS
 62
     7
 10
71.3954978493
 20
47.3584008871
 30
0.0
  0
VERTEX
  5
47D
  8
0
  6
CONTINUOUS
 62
     7
 10
66.7851411608
 20
47.7257491558
 30
0.0
  0
VERTEX
  5
47E
  8
0
  6
CONTINUOUS
 62
     7
 10
62.239111295
 20
48.158668401
 30
0.0
  0
VERTEX
  5
47F
  8
0
  6
CONTINUOUS
 62
     7
 10
57.585180631
 20
48.6666472166
 30
0.0
  0
SEQEND
  5
59A
  8
0
  6
CONTINUOUS
 62
     7
  0
POLYLINE
  5
1BE
  8
0
  6
CONTINUOUS
 62
     7
 66
     1
 10
0.0
 20
0.0
 30
0.0
  0
VERTEX
  5
480
  8
0
  6
CONTINUOUS
 62
     7
 10
57.585180631
 20
48.6666472166
 30
0.0
  0
VERTEX
  5
481
  8
0
  6
CONTINUOUS
 62
     7
 10
57.1535804179
 20
48.7267661377
 30
0.0
  0
VERTEX
  5
482
  8
0
  6
CONTINUOUS
 62
     7
 10
56.7200907376
 20
48.8077340184
 30
0.0
  0
VERTEX
  5
483
  8
0
  6
CONTINUOUS
 62
     7
 10
56.2872418073
 20
48.9095434083
 30
0.0
  0
VERTEX
  5
484
  8
0
  6
CONTINUOUS
 62
     7
 10
55.8953889516
 20
49.0203769414
 30
0.0
  0
VERTEX
  5
485
  8
0
  6
CONTINUOUS
 62
     7
 10
55.4999240544
 20
49.1504476874
 30
0.0
  0
VERTEX
  5
486
  8
0
  6
CONTINUOUS
 62
     7
 10
55.1035591271
 20
49.2996820717
 30
0.0
  0
VERTEX
  5
487
  8
0
  6
CONTINUOUS
 62
     7
 10
54.7961869147
 20
49.4289321362
 30
0.0
  0
VERTEX
  5
488
  8
0
  6
CONTINUOUS
 62
     7
 10
54.4924595263
 20
49.5685215576
 30
0.0
  0
VERTEX
  5
489
  8
0
  6
CONTINUOUS
 62
     7
 10
54.2048790362
 20
49.7119191571
 30
0.0
  0
VERTEX
  5
48A
  8
0
  6
CONTINUOUS
 62
     7
 10
53.9319583085
 20
49.8584171294
 30
0.0
  0
VERTEX
  5
48B
  8
0
  6
CONTINUOUS
 62
     7
 10
53.6658235696
 20
50.011367677
 30
0.0
  0
VERTEX
  5
48C
  8
0
  6
CONTINUOUS
 62
     7
 10
53.4396597054
 20
50.1495603009
 30
0.0
  0
VERTEX
  5
48D
  8
0
  6
CONTINUOUS
 62
     7
 10
53.1766005662
 20
50.3200243695
 30
0.0
  0
VERTEX
  5
48E
  8
0
  6
CONTINUOUS
 62
     7
 10
52.8808661607
 20
50.525024487
 30
0.0
  0
VERTEX
  5
48F
  8
0
  6
CONTINUOUS
 62
     7
 10
52.6695200112
 20
50.6809580608
 30
0.0
  0
VERTEX
  5
490
  8
0
  6
CONTINUOUS
 62
     7
 10
52.4592467454
 20
50.8445545568
 30
0.0
  0
VERTEX
  5
491
  8
0
  6
CONTINUOUS
 62
     7
 10
52.2480287459
 20
51.0182499422
 30
0.0
  0
VERTEX
  5
492
  8
0
  6
CONTINUOUS
 62
     7
 10
52.0719357636
 20
51.1718734636
 30
0.0
  0
VERTEX
  5
493
  8
0
  6
CONTINUOUS
 62
     7
 10
51.9274511245
 20
51.3056177183
 30
0.0
  0
VERTEX
  5
494
  8
0
  6
CONTINUOUS
 62
     7
 10
51.5978344586
 20
51.668841718
 30
0.0
  0
VERTEX
  5
495
  8
0
  6
CONTINUOUS
 62
     7
 10
51.4965393451
 20
51.9237748815
 30
0.0
  0
SEQEND
  5
599
  8
0
  6
CONTINUOUS
 62
     7
  0
LINE
  5
1BF
  8
0
  6
CONTINUOUS
 62
     7
 10
52.0883449223
 20
49.7844798027
 30
0.0
 11
52.0883449223
 21
48.6664654224
 31
0.0
  0
LINE
  5
1C0
  8
0
  6
CONTINUOUS
 62
     7
 10
51.2883433011
 20
48.6664654224
 30
0.0
 11
51.2883433011
 21
50.3601602747
 31
0.0
  0
LINE
  5
1C1
  8
0
  6
CONTINUOUS
 62
     7
 10
51.372883549
 20
50.8939258291
 30
0.0
 11
51.2883433011
 21
50.3601602747
 31
0.0
  0
LINE
  5
1C2
  8
0
  6
CONTINUOUS
 62
     7
 10
51.2883433011
 20
46.7416221278
 30
0.0
 11
51.2883433011
 21
48.6664654224
 31
0.0
  0
LINE
  5
1C3
  8
0
  6
CONTINUOUS
 62
     7
 10
52.0883449223
 20
46.7416221278
 30
0.0
 11
52.0883449223
 21
48.6664654224
 31
0.0
  0
LINE
  5
1C4
  8
0
  6
CONTINUOUS
 62
     7
 10
51.2883433011
 20
40.7290845646
 30
0.0
 11
51.2883433011
 21
46.7416221278
 31
0.0
  0
LINE
  5
1C5
  8
0
  6
CONTINUOUS
 62
     7
 10
52.0883449223
 20
40.7290845646
 30
0.0
 11
52.0883449223
 21
46.7416221278
 31
0.0
  0
LINE
  5
1C6
  8
0
  6
CONTINUOUS
 62
     7
 10
67.6883437541
 20
50.7988173051
 30
0.0
 11
67.6883437541
 21
52.8601601257
 31
0.0
  0
LINE
  5
1C7
  8
0
  6
CONTINUOUS
 62
     7
 10
67.6883437541
 20
40.6601603611
 30
0.0
 11
67.6883437541
 21
46.0915128703
 31
0.0
  0
LINE
  5
1C8
  8
0
  6
CONTINUOUS
 62
     7
 10
51.2883433011
 20
50.3601602747
 30
0.0
 11
51.2883433011
 21
52.8601601257
 31
0.0
  0
LINE
  5
1C9
  8
0
  6
CONTINUOUS
 62
     7
 10
51.2883433011
 20
40.6601603611
 30
0.0
 11
51.2883433011
 21
40.7290845646
 31
0.0
  0
LINE
  5
1CA
  8
0
  6
CONTINUOUS
 62
     7
 10
126.6309716609
 20
50.7223955824
 30
0.0
 11
126.6883441117
 21
50.3601602747
 31
0.0
  0
LINE
  5
1CB
  8
0
  6
CONTINUOUS
 62
     7
 10
126.6883441117
 20
50.3601602747
 30
0.0
 11
126.6883441117
 21
48.6664654224
 31
0.0
  0
LINE
  5
1CC
  8
0
  6
CONTINUOUS
 62
     7
 10
125.8883424905
 20
48.6664654224
 30
0.0
 11
125.8883424905
 21
49.7758790387
 31
0.0
  0
LINE
  5
1CD
  8
0
  6
CONTINUOUS
 62
     7
 10
126.6883441117
 20
48.6664654224
 30
0.0
 11
126.6883441117
 21
46.7416221278
 31
0.0
  0
LINE
  5
1CE
  8
0
  6
CONTINUOUS
 62
     7
 10
125.8883424905
 20
48.6664654224
 30
0.0
 11
125.8883424905
 21
46.7416221278
 31
0.0
  0
LINE
  5
1CF
  8
0
  6
CONTINUOUS
 62
     7
 10
126.6883441117
 20
46.7416221278
 30
0.0
 11
126.6883441117
 21
40.7290845646
 31
0.0
  0
LINE
  5
1D0
  8
0
  6
CONTINUOUS
 62
     7
 10
125.8883424905
 20
46.7416221278
 30
0.0
 11
125.8883424905
 21
40.7290845646
 31
0.0
  0
LINE
  5
1D1
  8
0
  6
CONTINUOUS
 62
     7
 10
110.2883436587
 20
52.8601601257
 30
0.0
 11
110.2883436587
 21
50.7947824432
 31
0.0
  0
LINE
  5
1D2
  8
0
  6
CONTINUOUS
 62
     7
 10
110.2883436587
 20
46.1037426258
 30
0.0
 11
110.2883436587
 21
40.6601603611
 31
0.0
  0
LINE
  5
1D3
  8
0
  6
CONTINUOUS
 62
     7
 10
126.6883441117
 20
40.7290845646
 30
0.0
 11
126.6883441117
 21
40.6601603611
 31
0.0
  0
LINE
  5
1D4
  8
0
  6
CONTINUOUS
 62
     7
 10
126.6883441117
 20
52.8601601257
 30
0.0
 11
126.6883441117
 21
50.3601602747
 31
0.0
  0
LINE
  5
1D5
  8
0
  6
CONTINUOUS
 62
     7
 10
126.9883432296
 20
52.3739672734
 30
0.0
 11
126.9883432296
 21
40.3601604982
 31
0.0
  0
LINE
  5
1D6
  8
0
  6
CONTINUOUS
 62
     7
 10
130.3883441594
 20
52.3739672734
 30
0.0
 11
130.3883441594
 21
40.3601604982
 31
0.0
  0
LINE
  5
1D7
  8
0
  6
CONTINUOUS
 62
     7
 10
109.5883437302
 20
52.7601602955
 30
0.0
 11
109.5883437302
 21
50.7488015576
 31
0.0
  0
LINE
  5
1D8
  8
0
  6
CONTINUOUS
 62
     7
 10
109.5883437302
 20
46.0440238475
 30
0.0
 11
109.5883437302
 21
40.7601601912
 31
0.0
  0
LINE
  5
1D9
  8
0
  6
CONTINUOUS
 62
     7
 10
126.9883432296
 20
55.3601603492
 30
0.0
 11
126.9883432296
 21
52.3739672734
 31
0.0
  0
LINE
  5
1DA
  8
0
  6
CONTINUOUS
 62
     7
 10
130.3883441594
 20
55.3601603492
 30
0.0
 11
130.3883441594
 21
52.3739672734
 31
0.0
  0
LINE
  5
1DB
  8
0
  6
CONTINUOUS
 62
     7
 10
47.5883432534
 20
52.3739672734
 30
0.0
 11
47.5883432534
 21
40.3601604982
 31
0.0
  0
LINE
  5
1DC
  8
0
  6
CONTINUOUS
 62
     7
 10
50.9883441832
 20
52.3739672734
 30
0.0
 11
50.9883441832
 21
40.3601604982
 31
0.0
  0
LINE
  5
1DD
  8
0
  6
CONTINUOUS
 62
     7
 10
68.3883436826
 20
52.7601602955
 30
0.0
 11
68.3883436826
 21
50.7486637219
 31
0.0
  0
LINE
  5
1DE
  8
0
  6
CONTINUOUS
 62
     7
 10
68.3883436826
 20
46.027404303
 30
0.0
 11
68.3883436826
 21
40.7601601912
 31
0.0
  0
LINE
  5
1DF
  8
0
  6
CONTINUOUS
 62
     7
 10
47.5883432534
 20
55.3601603492
 30
0.0
 11
47.5883432534
 21
52.3739672734
 31
0.0
  0
LINE
  5
1E0
  8
0
  6
CONTINUOUS
 62
     7
 10
50.9883441832
 20
55.3601603492
 30
0.0
 11
50.9883441832
 21
52.3739672734
 31
0.0
  0
LINE
  5
1E1
  8
0
  6
CONTINUOUS
 62
     7
 10
45.7883425858
 20
51.8601603343
 30
0.0
 11
47.5883432534
 21
51.8601603343
 31
0.0
  0
LINE
  5
1E2
  8
0
  6
CONTINUOUS
 62
     7
 10
68.3883436826
 20
51.8601603343
 30
0.0
 11
70.9883429911
 21
51.8601603343
 31
0.0
  0
LINE
  5
1E3
  8
0
  6
CONTINUOUS
 62
     7
 10
106.9883444217
 20
51.8601603343
 30
0.0
 11
109.5883437302
 21
51.8601603343
 31
0.0
  0
LINE
  5
1E4
  8
0
  6
CONTINUOUS
 62
     7
 10
130.3883441594
 20
51.8601603343
 30
0.0
 11
132.188344827
 21
51.8601603343
 31
0.0
  0
LINE
  5
1E5
  8
0
  6
CONTINUOUS
 62
     7
 10
132.5883426574
 20
51.4601602687
 30
0.0
 11
132.5883426574
 21
50.8601601704
 31
0.0
  0
ARC
  5
1E6
  8
0
  6
CONTINUOUS
 62
     7
 10
132.1883437064
 20
51.4601602598
 30
0.0
 40
0.4000000000000057
 50
0.0
 51
90.0
  0
LINE
  5
1E7
  8
0
  6
CONTINUOUS
 62
     7
 10
132.5883426574
 20
50.8601601704
 30
0.0
 11
132.5883426574
 21
42.8601603492
 31
0.0
  0
LINE
  5
1E8
  8
0
  6
CONTINUOUS
 62
     7
 10
45.3883447554
 20
50.8601601704
 30
0.0
 11
45.3883447554
 21
51.4601602687
 31
0.0
  0
ARC
  5
1E9
  8
0
  6
CONTINUOUS
 62
     7
 10
45.7883437064
 20
51.4601602598
 30
0.0
 40
0.3999999999999986
 50
90.0
 51
180.0
  0
LINE
  5
1EA
  8
0
  6
CONTINUOUS
 62
     7
 10
45.3883447554
 20
42.8601603492
 30
0.0
 11
45.3883447554
 21
50.8601601704
 31
0.0
  0
LINE
  5
1EB
  8
0
  6
CONTINUOUS
 62
     7
 10
132.188344827
 20
41.8601601853
 30
0.0
 11
130.3883441594
 21
41.8601601853
 31
0.0
  0
LINE
  5
1EC
  8
0
  6
CONTINUOUS
 62
     7
 10
109.5883437302
 20
41.8601601853
 30
0.0
 11
106.9883444217
 21
41.8601601853
 31
0.0
  0
LINE
  5
1ED
  8
0
  6
CONTINUOUS
 62
     7
 10
70.9883429911
 20
41.8601601853
 30
0.0
 11
68.3883436826
 21
41.8601601853
 31
0.0
  0
LINE
  5
1EE
  8
0
  6
CONTINUOUS
 62
     7
 10
47.5883432534
 20
41.8601601853
 30
0.0
 11
45.7883425858
 21
41.8601601853
 31
0.0
  0
LINE
  5
1EF
  8
0
  6
CONTINUOUS
 62
     7
 10
45.3883447554
 20
42.2601602508
 30
0.0
 11
45.3883447554
 21
42.8601603492
 31
0.0
  0
ARC
  5
1F0
  8
0
  6
CONTINUOUS
 62
     7
 10
45.7883437064
 20
42.2601602598
 30
0.0
 40
0.4000000000000057
 50
180.0
 51
270.0
  0
LINE
  5
1F1
  8
0
  6
CONTINUOUS
 62
     7
 10
132.5883426574
 20
42.8601603492
 30
0.0
 11
132.5883426574
 21
42.2601602508
 31
0.0
  0
ARC
  5
1F2
  8
0
  6
CONTINUOUS
 62
     7
 10
132.1883437064
 20
42.2601602598
 30
0.0
 40
0.4000000000000057
 50
270.0
 51
0.0
  0
CIRCLE
  5
1F3
  8
0
  6
CONTINUOUS
 62
     7
 10
88.9883437064
 20
26.8601602598
 30
0.0
 40
1.500000000000004
  0
CIRCLE
  5
1F4
  8
0
  6
CONTINUOUS
 62
     7
 10
96.9883437064
 20
54.8601602598
 30
0.0
 40
1.5
  0
CIRCLE
  5
1F5
  8
0
  6
CONTINUOUS
 62
     7
 10
80.9883437064
 20
54.8601602598
 30
0.0
 40
1.5
  0
ARC
  5
1F6
  8
0
  6
CONTINUOUS
 62
     7
 10
85.574059421
 20
26.8601602598
 30
0.0
 40
4.0
 50
200.0051900882
 51
270.0
  0
ARC
  5
1F7
  8
0
  6
CONTINUOUS
 62
     7
 10
156.9883437064
 20
52.8601602598
 30
0.0
 40
80.0
 50
188.3372791889
 51
200.0051900882
  0
LINE
  5
1F8
  8
0
  6
CONTINUOUS
 62
     7
 10
76.9893438425
 20
52.4601604326
 30
0.0
 11
76.9883439746
 21
52.8601601257
 31
0.0
  0
LINE
  5
1F9
  8
0
  6
CONTINUOUS
 62
     7
 10
76.9883439746
 20
54.860160081
 30
0.0
 11
76.9883439746
 21
52.8601601257
 31
0.0
  0
ARC
  5
1FA
  8
0
  6
CONTINUOUS
 62
     7
 10
80.9883437064
 20
54.8601602598
 30
0.0
 40
4.0
 50
109.2880580441
 51
180.0
  0
LINE
  5
1FB
  8
0
  6
CONTINUOUS
 62
     7
 10
96.0538872388
 20
58.8601599916
 30
0.0
 11
91.9883436393
 21
58.8601599916
 31
0.0
  0
LINE
  5
1FC
  8
0
  6
CONTINUOUS
 62
     7
 10
85.9883437735
 20
58.8601599916
 30
0.0
 11
81.922800174
 21
58.8601599916
 31
0.0
  0
ARC
  5
1FD
  8
0
  6
CONTINUOUS
 62
     7
 10
96.9883437064
 20
54.8601602598
 30
0.0
 40
4.000000000000009
 50
0.0
 51
70.9439465439
  0
LINE
  5
1FE
  8
0
  6
CONTINUOUS
 62
     7
 10
100.9883434382
 20
52.8601601257
 30
0.0
 11
100.9883434382
 21
54.860160081
 31
0.0
  0
LINE
  5
1FF
  8
0
  6
CONTINUOUS
 62
     7
 10
100.9883434382
 20
52.8601601257
 30
0.0
 11
100.9873435703
 21
52.4601604326
 31
0.0
  0
ARC
  5
200
  8
0
  6
CONTINUOUS
 62
     7
 10
20.9883437064
 20
52.8601602598
 30
0.0
 40
80.00000000000003
 50
339.9948099118
 51
351.6627208111
  0
ARC
  5
201
  8
0
  6
CONTINUOUS
 62
     7
 10
92.4026279918
 20
26.8601602598
 30
0.0
 40
4.000000000000011
 50
270.0
 51
339.9948099118
  0
LINE
  5
202
  8
0
  6
CONTINUOUS
 62
     7
 10
85.5740592685
 20
22.8601607962
 30
0.0
 11
92.4026281443
 21
22.8601607962
 31
0.0
  0
POLYLINE
  5
203
  8
0
  6
CONTINUOUS
 62
     7
 66
     1
 10
0.0
 20
0.0
 30
0.0
  0
VERTEX
  5
496
  8
0
  6
CONTINUOUS
 62
     7
 10
206.1618665046
 20
270.5252961209
 30
0.0
  0
VERTEX
  5
497
  8
0
  6
CONTINUOUS
 62
     7
 10
206.7471438832
 20
267.8857997945
 30
0.0
  0
VERTEX
  5
498
  8
0
  6
CONTINUOUS
 62
     7
 10
207.3065066523
 20
265.4240325978
 30
0.0
  0
VERTEX
  5
499
  8
0
  6
CONTINUOUS
 62
     7
 10
207.8450763411
 20
263.140995889
 30
0.0
  0
VERTEX
  5
49A
  8
0
  6
CONTINUOUS
 62
     7
 10
208.3370188064
 20
261.0317067197
 30
0.0
  0
VERTEX
  5
49B
  8
0
  6
CONTINUOUS
 62
     7
 10
208.7472149915
 20
259.109564214
 30
0.0
  0
VERTEX
  5
49C
  8
0
  6
CONTINUOUS
 62
     7
 10
209.0594852156
 20
257.4090079358
 30
0.0
  0
VERTEX
  5
49D
  8
0
  6
CONTINUOUS
 62
     7
 10
209.1912159509
 20
256.5906123212
 30
0.0
  0
SEQEND
  5
598
  8
0
  6
CONTINUOUS
 62
     7
  0
ARC
  5
204
  8
0
  6
CONTINUOUS
 62
     7
 10
-4.1396267664
 20
219.916930399
 30
0.0
 40
216.3961531961158
 50
5.3056924443
 51
8.16556371
  0
LINE
  5
205
  8
0
  6
CONTINUOUS
 62
     7
 10
207.3336580581
 20
270.7839564374
 30
0.0
 11
206.1618665046
 21
270.5252961209
 31
0.0
  0
LINE
  5
206
  8
0
  6
CONTINUOUS
 62
     7
 10
211.3293805904
 20
239.9269775441
 30
0.0
 11
212.5234635359
 21
240.0460080197
 31
0.0
  0
POLYLINE
  5
207
  8
0
  6
CONTINUOUS
 62
     7
 66
     1
 10
0.0
 20
0.0
 30
0.0
  0
VERTEX
  5
49E
  8
0
  6
CONTINUOUS
 62
     7
 10
224.1603602002
 20
238.0746320775
 30
0.0
  0
VERTEX
  5
49F
  8
0
  6
CONTINUOUS
 62
     7
 10
224.1211921721
 20
238.5343746236
 30
0.0
  0
VERTEX
  5
4A0
  8
0
  6
CONTINUOUS
 62
     7
 10
223.9181398227
 20
241.2226156285
 30
0.0
  0
VERTEX
  5
4A1
  8
0
  6
CONTINUOUS
 62
     7
 10
223.7598771042
 20
243.6656669667
 30
0.0
  0
VERTEX
  5
4A2
  8
0
  6
CONTINUOUS
 62
     7
 10
223.6340024321
 20
245.8592609456
 30
0.0
  0
VERTEX
  5
4A3
  8
0
  6
CONTINUOUS
 62
     7
 10
223.5456028766
 20
247.5303010037
 30
0.0
  0
VERTEX
  5
4A4
  8
0
  6
CONTINUOUS
 62
     7
 10
223.4706028177
 20
249.0183548024
 30
0.0
  0
VERTEX
  5
4A5
  8
0
  6
CONTINUOUS
 62
     7
 10
223.4056617877
 20
250.3410414746
 30
0.0
  0
VERTEX
  5
4A6
  8
0
  6
CONTINUOUS
 62
     7
 10
223.3427589572
 20
251.6206816724
 30
0.0
  0
VERTEX
  5
4A7
  8
0
  6
CONTINUOUS
 62
     7
 10
223.2788018695
 20
252.8827504208
 30
0.0
  0
VERTEX
  5
4A8
  8
0
  6
CONTINUOUS
 62
     7
 10
223.2120131886
 20
254.1291073849
 30
0.0
  0
VERTEX
  5
4A9
  8
0
  6
CONTINUOUS
 62
     7
 10
223.1407705507
 20
255.3614930203
 30
0.0
  0
VERTEX
  5
4AA
  8
0
  6
CONTINUOUS
 62
     7
 10
223.0636004171
 20
256.5814808896
 30
0.0
  0
VERTEX
  5
4AB
  8
0
  6
CONTINUOUS
 62
     7
 10
222.9492073691
 20
258.1912592938
 30
0.0
  0
VERTEX
  5
4AC
  8
0
  6
CONTINUOUS
 62
     7
 10
222.8180860913
 20
259.800715833
 30
0.0
  0
VERTEX
  5
4AD
  8
0
  6
CONTINUOUS
 62
     7
 10
222.7138738892
 20
261.4294604352
 30
0.0
  0
VERTEX
  5
4AE
  8
0
  6
CONTINUOUS
 62
     7
 10
222.7094750664
 20
261.9150356343
 30
0.0
  0
VERTEX
  5
4AF
  8
0
  6
CONTINUOUS
 62
     7
 10
222.7260278351
 20
262.4061779072
 30
0.0
  0
VERTEX
  5
4B0
  8
0
  6
CONTINUOUS
 62
     7
 10
222.7821647934
 20
262.9978136113
 30
0.0
  0
VERTEX
  5
4B1
  8
0
  6
CONTINUOUS
 62
     7
 10
222.9167254454
 20
263.704939275
 30
0.0
  0
VERTEX
  5
4B2
  8
0
  6
CONTINUOUS
 62
     7
 10
223.1749264336
 20
264.5140008023
 30
0.0
  0
VERTEX
  5
4B3
  8
0
  6
CONTINUOUS
 62
     7
 10
223.5906691103
 20
265.4149250081
 30
0.0
  0
VERTEX
  5
4B4
  8
0
  6
CONTINUOUS
 62
     7
 10
224.1884294244
 20
266.4004878094
 30
0.0
  0
VERTEX
  5
4B5
  8
0
  6
CONTINUOUS
 62
     7
 10
224.9780624801
 20
267.4677566579
 30
0.0
  0
VERTEX
  5
4B6
  8
0
  6
CONTINUOUS
 62
     7
 10
225.947987642
 20
268.6201647809
 30
0.0
  0
VERTEX
  5
4B7
  8
0
  6
CONTINUOUS
 62
     7
 10
226.6376917994
 20
269.3963245442
 30
0.0
  0
SEQEND
  5
597
  8
0
  6
CONTINUOUS
 62
     7
  0
LINE
  5
208
  8
0
  6
CONTINUOUS
 62
     7
 10
226.6327092237
 20
269.4131926587
 30
0.0
 11
225.0373264704
 21
269.4131926587
 31
0.0
  0
POLYLINE
  5
209
  8
0
  6
CONTINUOUS
 62
     7
 66
     1
 10
0.0
 20
0.0
 30
0.0
  0
VERTEX
  5
4B8
  8
0
  6
CONTINUOUS
 62
     7
 10
216.2210823781
 20
240.5276016286
 30
0.0
  0
VERTEX
  5
4B9
  8
0
  6
CONTINUOUS
 62
     7
 10
216.7686352319
 20
240.7224253705
 30
0.0
  0
VERTEX
  5
4BA
  8
0
  6
CONTINUOUS
 62
     7
 10
217.3015611059
 20
241.1646918347
 30
0.0
  0
VERTEX
  5
4BB
  8
0
  6
CONTINUOUS
 62
     7
 10
217.8005384094
 20
241.8465451291
 30
0.0
  0
VERTEX
  5
4BC
  8
0
  6
CONTINUOUS
 62
     7
 10
218.2452330178
 20
242.7453235676
 30
0.0
  0
VERTEX
  5
4BD
  8
0
  6
CONTINUOUS
 62
     7
 10
218.6133475787
 20
243.8336090138
 30
0.0
  0
VERTEX
  5
4BE
  8
0
  6
CONTINUOUS
 62
     7
 10
218.8890898413
 20
245.0801924756
 30
0.0
  0
VERTEX
  5
4BF
  8
0
  6
CONTINUOUS
 62
     7
 10
219.0552884526
 20
246.4539245656
 30
0.0
  0
VERTEX
  5
4C0
  8
0
  6
CONTINUOUS
 62
     7
 10
219.1009452379
 20
247.9111746838
 30
0.0
  0
VERTEX
  5
4C1
  8
0
  6
CONTINUOUS
 62
     7
 10
219.0524888969
 20
249.0097121289
 30
0.0
  0
SEQEND
  5
596
  8
0
  6
CONTINUOUS
 62
     7
  0
POLYLINE
  5
20A
  8
0
  6
CONTINUOUS
 62
     7
 66
     1
 10
0.0
 20
0.0
 30
0.0
  0
VERTEX
  5
4C2
  8
0
  6
CONTINUOUS
 62
     7
 10
216.2210823781
 20
240.5276016286
 30
0.0
  0
VERTEX
  5
4C3
  8
0
  6
CONTINUOUS
 62
     7
 10
215.1603216118
 20
240.3973535588
 30
0.0
  0
VERTEX
  5
4C4
  8
0
  6
CONTINUOUS
 62
     7
 10
214.2259092814
 20
240.2826265385
 30
0.0
  0
VERTEX
  5
4C5
  8
0
  6
CONTINUOUS
 62
     7
 10
213.4195694513
 20
240.1836232236
 30
0.0
  0
VERTEX
  5
4C6
  8
0
  6
CONTINUOUS
 62
     7
 10
212.5076712853
 20
240.0716499379
 30
0.0
  0
VERTEX
  5
4C7
  8
0
  6
CONTINUOUS
 62
     7
 10
211.8538373894
 20
239.9913744023
 30
0.0
  0
VERTEX
  5
4C8
  8
0
  6
CONTINUOUS
 62
     7
 10
211.4606523699
 20
239.94309464
 30
0.0
  0
VERTEX
  5
4C9
  8
0
  6
CONTINUOUS
 62
     7
 10
211.3293805904
 20
239.9269775441
 30
0.0
  0
SEQEND
  5
595
  8
0
  6
CONTINUOUS
 62
     7
  0
POLYLINE
  5
20B
  8
0
  6
CONTINUOUS
 62
     7
 66
     1
 10
0.0
 20
0.0
 30
0.0
  0
VERTEX
  5
4CA
  8
0
  6
CONTINUOUS
 62
     7
 10
206.1618665046
 20
270.5252961209
 30
0.0
  0
VERTEX
  5
4CB
  8
0
  6
CONTINUOUS
 62
     7
 10
206.2588834948
 20
270.5372051289
 30
0.0
  0
VERTEX
  5
4CC
  8
0
  6
CONTINUOUS
 62
     7
 10
206.5495231933
 20
270.5728844693
 30
0.0
  0
VERTEX
  5
4CD
  8
0
  6
CONTINUOUS
 62
     7
 10
207.0331388897
 20
270.6322745373
 30
0.0
  0
VERTEX
  5
4CE
  8
0
  6
CONTINUOUS
 62
     7
 10
207.708459515
 20
270.7151845982
 30
0.0
  0
VERTEX
  5
4CF
  8
0
  6
CONTINUOUS
 62
     7
 10
208.573583681
 20
270.8214119961
 30
0.0
  0
VERTEX
  5
4D0
  8
0
  6
CONTINUOUS
 62
     7
 10
209.543960709
 20
270.9405616811
 30
0.0
  0
VERTEX
  5
4D1
  8
0
  6
CONTINUOUS
 62
     7
 10
210.6735089606
 20
271.0792497685
 30
0.0
  0
VERTEX
  5
4D2
  8
0
  6
CONTINUOUS
 62
     7
 10
211.959726531
 20
271.2371782353
 30
0.0
  0
SEQEND
  5
594
  8
0
  6
CONTINUOUS
 62
     7
  0
POLYLINE
  5
20C
  8
0
  6
CONTINUOUS
 62
     7
 66
     1
 10
0.0
 20
0.0
 30
0.0
  0
VERTEX
  5
4D3
  8
0
  6
CONTINUOUS
 62
     7
 10
217.4178870208
 20
263.4268716862
 30
0.0
  0
VERTEX
  5
4D4
  8
0
  6
CONTINUOUS
 62
     7
 10
217.1153062767
 20
264.7386864712
 30
0.0
  0
VERTEX
  5
4D5
  8
0
  6
CONTINUOUS
 62
     7
 10
216.697351057
 20
266.0088614514
 30
0.0
  0
VERTEX
  5
4D6
  8
0
  6
CONTINUOUS
 62
     7
 10
216.1794813163
 20
267.2016815236
 30
0.0
  0
VERTEX
  5
4D7
  8
0
  6
CONTINUOUS
 62
     7
 10
215.5858756787
 20
268.2869152119
 30
0.0
  0
VERTEX
  5
4D8
  8
0
  6
CONTINUOUS
 62
     7
 10
214.9404266662
 20
269.2351297429
 30
0.0
  0
VERTEX
  5
4D9
  8
0
  6
CONTINUOUS
 62
     7
 10
214.2702342755
 20
270.0223163655
 30
0.0
  0
VERTEX
  5
4DA
  8
0
  6
CONTINUOUS
 62
     7
 10
213.6031264252
 20
270.6235961011
 30
0.0
  0
VERTEX
  5
4DB
  8
0
  6
CONTINUOUS
 62
     7
 10
212.9597933776
 20
271.0290984204
 30
0.0
  0
VERTEX
  5
4DC
  8
0
  6
CONTINUOUS
 62
     7
 10
212.4371828324
 20
271.2123588612
 30
0.0
  0
VERTEX
  5
4DD
  8
0
  6
CONTINUOUS
 62
     7
 10
211.959726531
 20
271.2371782353
 30
0.0
  0
SEQEND
  5
593
  8
0
  6
CONTINUOUS
 62
     7
  0
POLYLINE
  5
20D
  8
0
  6
CONTINUOUS
 62
     7
 66
     1
 10
0.0
 20
0.0
 30
0.0
  0
VERTEX
  5
4DE
  8
0
  6
CONTINUOUS
 62
     7
 10
217.4178870208
 20
263.4268716862
 30
0.0
  0
VERTEX
  5
4DF
  8
0
  6
CONTINUOUS
 62
     7
 10
217.9909923858
 20
259.8539904645
 30
0.0
  0
VERTEX
  5
4E0
  8
0
  6
CONTINUOUS
 62
     7
 10
218.4152500517
 20
256.2504724553
 30
0.0
  0
VERTEX
  5
4E1
  8
0
  6
CONTINUOUS
 62
     7
 10
218.7554972059
 20
252.6320771268
 30
0.0
  0
VERTEX
  5
4E2
  8
0
  6
CONTINUOUS
 62
     7
 10
219.0524888969
 20
249.0097121289
 30
0.0
  0
SEQEND
  5
592
  8
0
  6
CONTINUOUS
 62
     7
  0
POLYLINE
  5
20E
  8
0
  6
CONTINUOUS
 62
     7
 66
     1
 10
0.0
 20
0.0
 30
0.0
  0
VERTEX
  5
4E3
  8
0
  6
CONTINUOUS
 62
     7
 10
212.9703143424
 20
271.50620976
 30
0.0
  0
VERTEX
  5
4E4
  8
0
  6
CONTINUOUS
 62
     7
 10
213.522882182
 20
271.4654997876
 30
0.0
  0
VERTEX
  5
4E5
  8
0
  6
CONTINUOUS
 62
     7
 10
214.1338186151
 20
271.2145523122
 30
0.0
  0
VERTEX
  5
4E6
  8
0
  6
CONTINUOUS
 62
     7
 10
214.7859262115
 20
270.7558707287
 30
0.0
  0
VERTEX
  5
4E7
  8
0
  6
CONTINUOUS
 62
     7
 10
215.45653956
 20
270.1038435986
 30
0.0
  0
VERTEX
  5
4E8
  8
0
  6
CONTINUOUS
 62
     7
 10
216.118510235
 20
269.2774728825
 30
0.0
  0
VERTEX
  5
4E9
  8
0
  6
CONTINUOUS
 62
     7
 10
216.7497770673
 20
268.2977513364
 30
0.0
  0
VERTEX
  5
4EA
  8
0
  6
CONTINUOUS
 62
     7
 10
217.3253344185
 20
267.1854690602
 30
0.0
  0
VERTEX
  5
4EB
  8
0
  6
CONTINUOUS
 62
     7
 10
217.8197944349
 20
265.9735516598
 30
0.0
  0
VERTEX
  5
4EC
  8
0
  6
CONTINUOUS
 62
     7
 10
218.1669765896
 20
264.8582057049
 30
0.0
  0
VERTEX
  5
4ED
  8
0
  6
CONTINUOUS
 62
     7
 10
218.4252539462
 20
263.7143210461
 30
0.0
  0
SEQEND
  5
591
  8
0
  6
CONTINUOUS
 62
     7
  0
ARC
  5
20F
  8
0
  6
CONTINUOUS
 62
     7
 10
132.4065130968
 20
247.9035017507
 30
0.0
 40
87.45973807476597
 50
5.2506186278
 51
10.4150945389
  0
POLYLINE
  5
210
  8
0
  6
CONTINUOUS
 62
     7
 66
     1
 10
0.0
 20
0.0
 30
0.0
  0
VERTEX
  5
4EE
  8
0
  6
CONTINUOUS
 62
     7
 10
217.279554326
 20
240.6366662076
 30
0.0
  0
VERTEX
  5
4EF
  8
0
  6
CONTINUOUS
 62
     7
 10
216.2583397514
 20
240.5098394444
 30
0.0
  0
VERTEX
  5
4F0
  8
0
  6
CONTINUOUS
 62
     7
 10
215.3574125654
 20
240.3979496052
 30
0.0
  0
VERTEX
  5
4F1
  8
0
  6
CONTINUOUS
 62
     7
 10
214.578415621
 20
240.3012112668
 30
0.0
  0
VERTEX
  5
4F2
  8
0
  6
CONTINUOUS
 62
     7
 10
213.6818932182
 20
240.1898697903
 30
0.0
  0
VERTEX
  5
4F3
  8
0
  6
CONTINUOUS
 62
     7
 10
213.039079476
 20
240.1100353291
 30
0.0
  0
VERTEX
  5
4F4
  8
0
  6
CONTINUOUS
 62
     7
 10
212.6525239832
 20
240.0620297482
 30
0.0
  0
VERTEX
  5
4F5
  8
0
  6
CONTINUOUS
 62
     7
 10
212.5234635359
 20
240.0460080197
 30
0.0
  0
SEQEND
  5
590
  8
0
  6
CONTINUOUS
 62
     7
  0
POLYLINE
  5
211
  8
0
  6
CONTINUOUS
 62
     7
 66
     1
 10
0.0
 20
0.0
 30
0.0
  0
VERTEX
  5
4F6
  8
0
  6
CONTINUOUS
 62
     7
 10
219.6969350613
 20
244.1315011075
 30
0.0
  0
VERTEX
  5
4F7
  8
0
  6
CONTINUOUS
 62
     7
 10
219.575188849
 20
243.641109853
 30
0.0
  0
VERTEX
  5
4F8
  8
0
  6
CONTINUOUS
 62
     7
 10
219.1846573538
 20
242.5981358578
 30
0.0
  0
VERTEX
  5
4F9
  8
0
  6
CONTINUOUS
 62
     7
 10
218.725386802
 20
241.7534545949
 30
0.0
  0
VERTEX
  5
4FA
  8
0
  6
CONTINUOUS
 62
     7
 10
218.2188266701
 20
241.1359385541
 30
0.0
  0
VERTEX
  5
4FB
  8
0
  6
CONTINUOUS
 62
     7
 10
217.684243787
 20
240.7566265156
 30
0.0
  0
VERTEX
  5
4FC
  8
0
  6
CONTINUOUS
 62
     7
 10
217.279554326
 20
240.6366662076
 30
0.0
  0
SEQEND
  5
58F
  8
0
  6
CONTINUOUS
 62
     7
  0
LINE
  5
212
  8
0
  6
CONTINUOUS
 62
     7
 10
212.970335204
 20
271.50620976
 30
0.0
 11
212.122316081
 21
271.3975624135
 31
0.0
  0
POLYLINE
  5
213
  8
0
  6
CONTINUOUS
 62
     7
 66
     1
 10
0.0
 20
0.0
 30
0.0
  0
VERTEX
  5
4FD
  8
0
  6
CONTINUOUS
 62
     7
 10
207.3336580581
 20
270.7839564374
 30
0.0
  0
VERTEX
  5
4FE
  8
0
  6
CONTINUOUS
 62
     7
 10
207.429003138
 20
270.7961634686
 30
0.0
  0
VERTEX
  5
4FF
  8
0
  6
CONTINUOUS
 62
     7
 10
207.7146271056
 20
270.8327726414
 30
0.0
  0
VERTEX
  5
500
  8
0
  6
CONTINUOUS
 62
     7
 10
208.1898862309
 20
270.8936766675
 30
0.0
  0
VERTEX
  5
501
  8
0
  6
CONTINUOUS
 62
     7
 10
208.8535496778
 20
270.9787205746
 30
0.0
  0
VERTEX
  5
502
  8
0
  6
CONTINUOUS
 62
     7
 10
209.703726489
 20
271.0876659444
 30
0.0
  0
VERTEX
  5
503
  8
0
  6
CONTINUOUS
 62
     7
 10
210.6416458077
 20
271.2078527501
 30
0.0
  0
VERTEX
  5
504
  8
0
  6
CONTINUOUS
 62
     7
 10
211.7313036508
 20
271.34747067
 30
0.0
  0
VERTEX
  5
505
  8
0
  6
CONTINUOUS
 62
     7
 10
212.9703143424
 20
271.50620976
 30
0.0
  0
SEQEND
  5
58E
  8
0
  6
CONTINUOUS
 62
     7
  0
LINE
  5
214
  8
0
  6
CONTINUOUS
 62
     7
 10
213.9370241946
 20
251.12826386
 30
0.0
 11
213.2058085686
 21
257.0835427334
 31
0.0
  0
LINE
  5
215
  8
0
  6
CONTINUOUS
 62
     7
 10
213.9370241946
 20
251.12826386
 30
0.0
 11
212.2144782728
 21
250.9167627385
 31
0.0
  0
LINE
  5
216
  8
0
  6
CONTINUOUS
 62
     7
 10
213.2058085686
 20
257.0835427334
 30
0.0
 11
211.4832633919
 21
256.8720416119
 31
0.0
  0
LINE
  5
217
  8
0
  6
CONTINUOUS
 62
     7
 10
214.5034046656
 20
251.1977986386
 30
0.0
 11
214.3468292243
 21
252.4730042508
 31
0.0
  0
LINE
  5
218
  8
0
  6
CONTINUOUS
 62
     7
 10
214.5034046656
 20
251.1977986386
 30
0.0
 11
213.9370241946
 21
251.12826386
 31
0.0
  0
LINE
  5
219
  8
0
  6
CONTINUOUS
 62
     7
 10
213.6649938113
 20
257.1399168065
 30
0.0
 11
213.2058085686
 21
257.0835427334
 31
0.0
  0
POLYLINE
  5
21A
  8
0
  6
CONTINUOUS
 62
     7
 66
     1
 10
0.0
 20
0.0
 30
0.0
  0
VERTEX
  5
506
  8
0
  6
CONTINUOUS
 62
     7
 10
212.2144782728
 20
250.9167627385
 30
0.0
  0
VERTEX
  5
507
  8
0
  6
CONTINUOUS
 62
     7
 10
212.1824541873
 20
250.9128288319
 30
0.0
  0
VERTEX
  5
508
  8
0
  6
CONTINUOUS
 62
     7
 10
212.1427783555
 20
250.907953172
 30
0.0
  0
VERTEX
  5
509
  8
0
  6
CONTINUOUS
 62
     7
 10
212.0957830734
 20
250.9021834424
 30
0.0
  0
VERTEX
  5
50A
  8
0
  6
CONTINUOUS
 62
     7
 10
212.0418647117
 20
250.8955673268
 30
0.0
  0
VERTEX
  5
50B
  8
0
  6
CONTINUOUS
 62
     7
 10
211.9814747757
 20
250.888152509
 30
0.0
  0
VERTEX
  5
50C
  8
0
  6
CONTINUOUS
 62
     7
 10
211.9151184148
 20
250.8799985936
 30
0.0
  0
VERTEX
  5
50D
  8
0
  6
CONTINUOUS
 62
     7
 10
211.8433544225
 20
250.8711890271
 30
0.0
  0
VERTEX
  5
50E
  8
0
  6
CONTINUOUS
 62
     7
 10
211.7667848057
 20
250.8617834141
 30
0.0
  0
SEQEND
  5
58D
  8
0
  6
CONTINUOUS
 62
     7
  0
POLYLINE
  5
21B
  8
0
  6
CONTINUOUS
 62
     7
 66
     1
 10
0.0
 20
0.0
 30
0.0
  0
VERTEX
  5
50F
  8
0
  6
CONTINUOUS
 62
     7
 10
211.0355684346
 20
256.8170622876
 30
0.0
  0
VERTEX
  5
510
  8
0
  6
CONTINUOUS
 62
     7
 10
211.1121380514
 20
256.8264679005
 30
0.0
  0
VERTEX
  5
511
  8
0
  6
CONTINUOUS
 62
     7
 10
211.1839020437
 20
256.835277467
 30
0.0
  0
VERTEX
  5
512
  8
0
  6
CONTINUOUS
 62
     7
 10
211.2502584047
 20
256.8434313824
 30
0.0
  0
VERTEX
  5
513
  8
0
  6
CONTINUOUS
 62
     7
 10
211.3106483406
 20
256.8508462002
 30
0.0
  0
VERTEX
  5
514
  8
0
  6
CONTINUOUS
 62
     7
 10
211.3645667023
 20
256.8574623158
 30
0.0
  0
VERTEX
  5
515
  8
0
  6
CONTINUOUS
 62
     7
 10
211.4115619845
 20
256.8632320454
 30
0.0
  0
VERTEX
  5
516
  8
0
  6
CONTINUOUS
 62
     7
 10
211.4512378163
 20
256.8681077054
 30
0.0
  0
VERTEX
  5
517
  8
0
  6
CONTINUOUS
 62
     7
 10
211.4832633919
 20
256.8720416119
 30
0.0
  0
SEQEND
  5
58C
  8
0
  6
CONTINUOUS
 62
     7
  0
LINE
  5
21C
  8
0
  6
CONTINUOUS
 62
     7
 10
211.7667848057
 20
250.8617834141
 30
0.0
 11
207.4355939216
 21
250.3299907735
 31
0.0
  0
LINE
  5
21D
  8
0
  6
CONTINUOUS
 62
     7
 10
211.0355684346
 20
256.8170622876
 30
0.0
 11
206.7043790406
 21
256.285257726
 31
0.0
  0
LINE
  5
21E
  8
0
  6
CONTINUOUS
 62
     7
 10
229.9048347211
 20
177.9862240842
 30
0.0
 11
229.9048347211
 21
178.9326385548
 31
0.0
  0
LINE
  5
21F
  8
0
  6
CONTINUOUS
 62
     7
 10
230.1048347539
 20
169.1862241318
 30
0.0
 11
229.9048347211
 21
169.1862241318
 31
0.0
  0
LINE
  5
220
  8
0
  6
CONTINUOUS
 62
     7
 10
229.9048347211
 20
169.1862241318
 30
0.0
 11
229.9048347211
 21
169.9862257531
 31
0.0
  0
LINE
  5
221
  8
0
  6
CONTINUOUS
 62
     7
 10
206.9393211788
 20
250.2690509846
 30
0.0
 11
206.2081048078
 21
256.2243298581
 31
0.0
  0
POLYLINE
  5
222
  8
0
  6
CONTINUOUS
 62
     7
 66
     1
 10
0.0
 20
0.0
 30
0.0
  0
VERTEX
  5
518
  8
0
  6
CONTINUOUS
 62
     7
 10
207.4355939216
 20
250.3299907735
 30
0.0
  0
VERTEX
  5
519
  8
0
  6
CONTINUOUS
 62
     7
 10
207.3276439494
 20
250.3167347005
 30
0.0
  0
VERTEX
  5
51A
  8
0
  6
CONTINUOUS
 62
     7
 10
207.2300309128
 20
250.3047422459
 30
0.0
  0
VERTEX
  5
51B
  8
0
  6
CONTINUOUS
 62
     7
 10
207.1444282121
 20
250.2942399075
 30
0.0
  0
VERTEX
  5
51C
  8
0
  6
CONTINUOUS
 62
     7
 10
207.0722976512
 20
250.2853826573
 30
0.0
  0
VERTEX
  5
51D
  8
0
  6
CONTINUOUS
 62
     7
 10
207.0148745364
 20
250.2783254674
 30
0.0
  0
VERTEX
  5
51E
  8
0
  6
CONTINUOUS
 62
     7
 10
206.9731423444
 20
250.2731994679
 30
0.0
  0
VERTEX
  5
51F
  8
0
  6
CONTINUOUS
 62
     7
 10
206.9478133506
 20
250.2700881055
 30
0.0
  0
VERTEX
  5
520
  8
0
  6
CONTINUOUS
 62
     7
 10
206.9393211788
 20
250.2690509846
 30
0.0
  0
SEQEND
  5
58B
  8
0
  6
CONTINUOUS
 62
     7
  0
POLYLINE
  5
223
  8
0
  6
CONTINUOUS
 62
     7
 66
     1
 10
0.0
 20
0.0
 30
0.0
  0
VERTEX
  5
521
  8
0
  6
CONTINUOUS
 62
     7
 10
206.2081048078
 20
256.2243298581
 30
0.0
  0
VERTEX
  5
522
  8
0
  6
CONTINUOUS
 62
     7
 10
206.2165969795
 20
256.2253669789
 30
0.0
  0
VERTEX
  5
523
  8
0
  6
CONTINUOUS
 62
     7
 10
206.2419259733
 20
256.2284783414
 30
0.0
  0
VERTEX
  5
524
  8
0
  6
CONTINUOUS
 62
     7
 10
206.2836581654
 20
256.2336043408
 30
0.0
  0
VERTEX
  5
525
  8
0
  6
CONTINUOUS
 62
     7
 10
206.3410812802
 20
256.2406615308
 30
0.0
  0
VERTEX
  5
526
  8
0
  6
CONTINUOUS
 62
     7
 10
206.413211841
 20
256.24950686
 30
0.0
  0
VERTEX
  5
527
  8
0
  6
CONTINUOUS
 62
     7
 10
206.4988160319
 20
256.2600211194
 30
0.0
  0
VERTEX
  5
528
  8
0
  6
CONTINUOUS
 62
     7
 10
206.5964275784
 20
256.2720135739
 30
0.0
  0
VERTEX
  5
529
  8
0
  6
CONTINUOUS
 62
     7
 10
206.7043790406
 20
256.285257726
 30
0.0
  0
SEQEND
  5
58A
  8
0
  6
CONTINUOUS
 62
     7
  0
LINE
  5
224
  8
0
  6
CONTINUOUS
 62
     7
 10
214.3048347718
 20
169.1862241318
 30
0.0
 11
219.1048348135
 21
169.1862241318
 31
0.0
  0
LINE
  5
225
  8
0
  6
CONTINUOUS
 62
     7
 10
205.6096190399
 20
256.1508373311
 30
0.0
 11
201.6394341177
 21
255.6633667042
 31
0.0
  0
LINE
  5
226
  8
0
  6
CONTINUOUS
 62
     7
 10
203.0923539585
 20
235.6247738888
 30
0.0
 11
200.6468871421
 21
255.5414990475
 31
0.0
  0
POLYLINE
  5
227
  8
0
  6
CONTINUOUS
 62
     7
 66
     1
 10
0.0
 20
0.0
 30
0.0
  0
VERTEX
  5
52A
  8
0
  6
CONTINUOUS
 62
     7
 10
200.6468871421
 20
255.5414990475
 30
0.0
  0
VERTEX
  5
52B
  8
0
  6
CONTINUOUS
 62
     7
 10
200.6659591383
 20
255.5438355496
 30
0.0
  0
VERTEX
  5
52C
  8
0
  6
CONTINUOUS
 62
     7
 10
200.7224404997
 20
255.5507735303
 30
0.0
  0
VERTEX
  5
52D
  8
0
  6
CONTINUOUS
 62
     7
 10
200.8141616172
 20
255.5620388081
 30
0.0
  0
VERTEX
  5
52E
  8
0
  6
CONTINUOUS
 62
     7
 10
200.9375983662
 20
255.5771903088
 30
0.0
  0
VERTEX
  5
52F
  8
0
  6
CONTINUOUS
 62
     7
 10
201.0880047268
 20
255.5956558278
 30
0.0
  0
VERTEX
  5
530
  8
0
  6
CONTINUOUS
 62
     7
 10
201.2596035189
 20
255.6167320302
 30
0.0
  0
VERTEX
  5
531
  8
0
  6
CONTINUOUS
 62
     7
 10
201.4457979984
 20
255.639584451
 30
0.0
  0
VERTEX
  5
532
  8
0
  6
CONTINUOUS
 62
     7
 10
201.6394341177
 20
255.6633667042
 30
0.0
  0
SEQEND
  5
589
  8
0
  6
CONTINUOUS
 62
     7
  0
ARC
  5
228
  8
0
  6
CONTINUOUS
 62
     7
 10
222.9432764902
 20
238.0621633964
 30
0.0
 40
20.00000000000001
 50
187.0
 51
193.0
  0
LINE
  5
229
  8
0
  6
CONTINUOUS
 62
     7
 10
212.9460157639
 20
192.4568311265
 30
0.0
 11
203.4558752364
 21
233.5631445935
 31
0.0
  0
LINE
  5
22A
  8
0
  6
CONTINUOUS
 62
     7
 10
207.3333808965
 20
250.3174380353
 30
0.0
 11
209.0476298517
 21
236.35599175
 31
0.0
  0
POLYLINE
  5
22B
  8
0
  6
CONTINUOUS
 62
     7
 66
     1
 10
0.0
 20
0.0
 30
0.0
  0
VERTEX
  5
533
  8
0
  6
CONTINUOUS
 62
     7
 10
205.6096190399
 20
256.1508373311
 30
0.0
  0
VERTEX
  5
534
  8
0
  6
CONTINUOUS
 62
     7
 10
205.6898319906
 20
256.1606959393
 30
0.0
  0
VERTEX
  5
535
  8
0
  6
CONTINUOUS
 62
     7
 10
205.7695204205
 20
256.1704711011
 30
0.0
  0
VERTEX
  5
536
  8
0
  6
CONTINUOUS
 62
     7
 10
205.8481642789
 20
256.1801270535
 30
0.0
  0
VERTEX
  5
537
  8
0
  6
CONTINUOUS
 62
     7
 10
205.9252450055
 20
256.1895922711
 30
0.0
  0
VERTEX
  5
538
  8
0
  6
CONTINUOUS
 62
     7
 10
206.0002634114
 20
256.1988071492
 30
0.0
  0
VERTEX
  5
539
  8
0
  6
CONTINUOUS
 62
     7
 10
206.0727247781
 20
256.2077001622
 30
0.0
  0
VERTEX
  5
53A
  8
0
  6
CONTINUOUS
 62
     7
 10
206.1421567387
 20
256.2162355473
 30
0.0
  0
VERTEX
  5
53B
  8
0
  6
CONTINUOUS
 62
     7
 10
206.2081048078
 20
256.2243298581
 30
0.0
  0
SEQEND
  5
588
  8
0
  6
CONTINUOUS
 62
     7
  0
ARC
  5
22C
  8
0
  6
CONTINUOUS
 62
     7
 10
222.9432764902
 20
238.0621633964
 30
0.0
 40
14.00000000000001
 50
187.0
 51
193.0
  0
LINE
  5
22D
  8
0
  6
CONTINUOUS
 62
     7
 10
209.3020954913
 20
234.9128440907
 30
0.0
 11
218.7922360188
 21
193.8065365842
 31
0.0
  0
ARC
  5
22E
  8
0
  6
CONTINUOUS
 62
     7
 10
199.3048346466
 20
189.3075135394
 30
0.0
 40
14.00000000000001
 50
0.0
 51
13.0
  0
LINE
  5
22F
  8
0
  6
CONTINUOUS
 62
     7
 10
213.3048349804
 20
169.1862241318
 30
0.0
 11
213.3048349804
 21
189.3075124314
 31
0.0
  0
LINE
  5
230
  8
0
  6
CONTINUOUS
 62
     7
 10
214.3048347718
 20
169.1862241318
 30
0.0
 11
213.3048349804
 21
169.1862241318
 31
0.0
  0
POLYLINE
  5
231
  8
0
  6
CONTINUOUS
 62
     7
 66
     1
 10
0.0
 20
0.0
 30
0.0
  0
VERTEX
  5
53C
  8
0
  6
CONTINUOUS
 62
     7
 10
218.7922360188
 20
193.8065365842
 30
0.0
  0
VERTEX
  5
53D
  8
0
  6
CONTINUOUS
 62
     7
 10
218.9119810051
 20
193.2521060994
 30
0.0
  0
VERTEX
  5
53E
  8
0
  6
CONTINUOUS
 62
     7
 10
219.0092468447
 20
192.7333191922
 30
0.0
  0
SEQEND
  5
587
  8
0
  6
CONTINUOUS
 62
     7
  0
POLYLINE
  5
232
  8
0
  6
CONTINUOUS
 62
     7
 66
     1
 10
0.0
 20
0.0
 30
0.0
  0
VERTEX
  5
53F
  8
0
  6
CONTINUOUS
 62
     7
 10
221.0657829231
 20
261.0751942685
 30
0.0
  0
VERTEX
  5
540
  8
0
  6
CONTINUOUS
 62
     7
 10
220.8988467044
 20
259.8708824208
 30
0.0
  0
VERTEX
  5
541
  8
0
  6
CONTINUOUS
 62
     7
 10
220.7870663888
 20
258.6573080113
 30
0.0
  0
VERTEX
  5
542
  8
0
  6
CONTINUOUS
 62
     7
 10
220.6894984282
 20
256.3521699002
 30
0.0
  0
VERTEX
  5
543
  8
0
  6
CONTINUOUS
 62
     7
 10
220.7016883231
 20
254.0442422917
 30
0.0
  0
VERTEX
  5
544
  8
0
  6
CONTINUOUS
 62
     7
 10
220.8510862476
 20
249.4139865925
 30
0.0
  0
SEQEND
  5
586
  8
0
  6
CONTINUOUS
 62
     7
  0
POLYLINE
  5
233
  8
0
  6
CONTINUOUS
 62
     7
 66
     1
 10
0.0
 20
0.0
 30
0.0
  0
VERTEX
  5
545
  8
0
  6
CONTINUOUS
 62
     7
 10
220.8510817773
 20
249.4139865925
 30
0.0
  0
VERTEX
  5
546
  8
0
  6
CONTINUOUS
 62
     7
 10
220.8719538337
 20
248.0510667851
 30
0.0
  0
VERTEX
  5
547
  8
0
  6
CONTINUOUS
 62
     7
 10
220.8779835886
 20
246.5784863522
 30
0.0
  0
VERTEX
  5
548
  8
0
  6
CONTINUOUS
 62
     7
 10
220.8732513524
 20
245.1796368649
 30
0.0
  0
VERTEX
  5
549
  8
0
  6
CONTINUOUS
 62
     7
 10
220.8630209601
 20
243.700178056
 30
0.0
  0
VERTEX
  5
54A
  8
0
  6
CONTINUOUS
 62
     7
 10
220.8529030717
 20
242.2716931393
 30
0.0
  0
VERTEX
  5
54B
  8
0
  6
CONTINUOUS
 62
     7
 10
220.8474809117
 20
240.7594636967
 30
0.0
  0
VERTEX
  5
54C
  8
0
  6
CONTINUOUS
 62
     7
 10
220.8511197752
 20
239.4146160176
 30
0.0
  0
SEQEND
  5
585
  8
0
  6
CONTINUOUS
 62
     7
  0
POLYLINE
  5
234
  8
0
  6
CONTINUOUS
 62
     7
 66
     1
 10
0.0
 20
0.0
 30
0.0
  0
VERTEX
  5
54D
  8
0
  6
CONTINUOUS
 62
     7
 10
220.8511182851
 20
239.4146160176
 30
0.0
  0
VERTEX
  5
54E
  8
0
  6
CONTINUOUS
 62
     7
 10
220.8404307998
 20
236.9840220502
 30
0.0
  0
VERTEX
  5
54F
  8
0
  6
CONTINUOUS
 62
     7
 10
220.8510858751
 20
229.4131950429
 30
0.0
  0
SEQEND
  5
584
  8
0
  6
CONTINUOUS
 62
     7
  0
POLYLINE
  5
235
  8
0
  6
CONTINUOUS
 62
     7
 66
     1
 10
0.0
 20
0.0
 30
0.0
  0
VERTEX
  5
550
  8
0
  6
CONTINUOUS
 62
     7
 10
220.8511026389
 20
229.4131950429
 30
0.0
  0
VERTEX
  5
551
  8
0
  6
CONTINUOUS
 62
     7
 10
220.7799793965
 20
227.8910473874
 30
0.0
  0
VERTEX
  5
552
  8
0
  6
CONTINUOUS
 62
     7
 10
220.6944914347
 20
226.1520818761
 30
0.0
  0
VERTEX
  5
553
  8
0
  6
CONTINUOUS
 62
     7
 10
220.6412399
 20
224.4944647839
 30
0.0
  0
VERTEX
  5
554
  8
0
  6
CONTINUOUS
 62
     7
 10
220.6455653346
 20
222.9022220662
 30
0.0
  0
VERTEX
  5
555
  8
0
  6
CONTINUOUS
 62
     7
 10
220.734469015
 20
221.2983922055
 30
0.0
  0
SEQEND
  5
583
  8
0
  6
CONTINUOUS
 62
     7
  0
POLYLINE
  5
236
  8
0
  6
CONTINUOUS
 62
     7
 66
     1
 10
0.0
 20
0.0
 30
0.0
  0
VERTEX
  5
556
  8
0
  6
CONTINUOUS
 62
     7
 10
219.6901527977
 20
206.2267021229
 30
0.0
  0
VERTEX
  5
557
  8
0
  6
CONTINUOUS
 62
     7
 10
219.6881504542
 20
208.9532689145
 30
0.0
  0
VERTEX
  5
558
  8
0
  6
CONTINUOUS
 62
     7
 10
219.6855788863
 20
211.6603926709
 30
0.0
  0
VERTEX
  5
559
  8
0
  6
CONTINUOUS
 62
     7
 10
219.6840056962
 20
214.3792943051
 30
0.0
  0
VERTEX
  5
55A
  8
0
  6
CONTINUOUS
 62
     7
 10
219.6826686895
 20
217.1045617154
 30
0.0
  0
VERTEX
  5
55B
  8
0
  6
CONTINUOUS
 62
     7
 10
219.682231713
 20
219.8307351163
 30
0.0
  0
VERTEX
  5
55C
  8
0
  6
CONTINUOUS
 62
     7
 10
219.6834040618
 20
224.3796543172
 30
0.0
  0
VERTEX
  5
55D
  8
0
  6
CONTINUOUS
 62
     7
 10
219.6791318989
 20
228.9303378155
 30
0.0
  0
VERTEX
  5
55E
  8
0
  6
CONTINUOUS
 62
     7
 10
219.6646896935
 20
233.4765748074
 30
0.0
  0
VERTEX
  5
55F
  8
0
  6
CONTINUOUS
 62
     7
 10
219.662090931
 20
238.0275324872
 30
0.0
  0
VERTEX
  5
560
  8
0
  6
CONTINUOUS
 62
     7
 10
219.6942953206
 20
242.5878480962
 30
0.0
  0
VERTEX
  5
561
  8
0
  6
CONTINUOUS
 62
     7
 10
219.7020469046
 20
247.1207455685
 30
0.0
  0
VERTEX
  5
562
  8
0
  6
CONTINUOUS
 62
     7
 10
219.6632725931
 20
249.3674830487
 30
0.0
  0
VERTEX
  5
563
  8
0
  6
CONTINUOUS
 62
     7
 10
219.5882281101
 20
251.6156033566
 30
0.0
  0
VERTEX
  5
564
  8
0
  6
CONTINUOUS
 62
     7
 10
219.5155089534
 20
253.89099875
 30
0.0
  0
VERTEX
  5
565
  8
0
  6
CONTINUOUS
 62
     7
 10
219.4968709535
 20
256.2042788556
 30
0.0
  0
VERTEX
  5
566
  8
0
  6
CONTINUOUS
 62
     7
 10
219.5853894389
 20
258.5653499654
 30
0.0
  0
VERTEX
  5
567
  8
0
  6
CONTINUOUS
 62
     7
 10
219.8412196523
 20
260.9875396779
 30
0.0
  0
SEQEND
  5
582
  8
0
  6
CONTINUOUS
 62
     7
  0
POLYLINE
  5
237
  8
0
  6
CONTINUOUS
 62
     7
 66
     1
 10
0.0
 20
0.0
 30
0.0
  0
VERTEX
  5
568
  8
0
  6
CONTINUOUS
 62
     7
 10
220.734469015
 20
221.2983922055
 30
0.0
  0
VERTEX
  5
569
  8
0
  6
CONTINUOUS
 62
     7
 10
220.8008365518
 20
220.4099015286
 30
0.0
  0
VERTEX
  5
56A
  8
0
  6
CONTINUOUS
 62
     7
 10
220.8511849678
 20
219.4472984364
 30
0.0
  0
SEQEND
  5
581
  8
0
  6
CONTINUOUS
 62
     7
  0
LINE
  5
238
  8
0
  6
CONTINUOUS
 62
     7
 10
220.8511078543
 20
229.4131950429
 30
0.0
 11
220.8583546615
 21
221.2983922055
 31
0.0
  0
POLYLINE
  5
239
  8
0
  6
CONTINUOUS
 62
     7
 66
     1
 10
0.0
 20
0.0
 30
0.0
  0
VERTEX
  5
56B
  8
0
  6
CONTINUOUS
 62
     7
 10
220.8510866201
 20
249.4139865925
 30
0.0
  0
VERTEX
  5
56C
  8
0
  6
CONTINUOUS
 62
     7
 10
220.8934852666
 20
244.4154337933
 30
0.0
  0
VERTEX
  5
56D
  8
0
  6
CONTINUOUS
 62
     7
 10
220.8511182851
 20
239.4146160176
 30
0.0
  0
SEQEND
  5
580
  8
0
  6
CONTINUOUS
 62
     7
  0
ARC
  5
23A
  8
0
  6
CONTINUOUS
 62
     7
 10
233.4259428377
 20
259.0359537676
 30
0.0
 40
12.52725506230263
 50
134.821294778
 51
170.6314556836
  0
POLYLINE
  5
23B
  8
0
  6
CONTINUOUS
 62
     7
 66
     1
 10
0.0
 20
0.0
 30
0.0
  0
VERTEX
  5
56E
  8
0
  6
CONTINUOUS
 62
     7
 10
226.6327092237
 20
269.4007472089
 30
0.0
  0
VERTEX
  5
56F
  8
0
  6
CONTINUOUS
 62
     7
 10
226.6352738998
 20
269.4026664784
 30
0.0
  0
VERTEX
  5
570
  8
0
  6
CONTINUOUS
 62
     7
 10
226.4963147974
 20
269.3070248654
 30
0.0
  0
VERTEX
  5
571
  8
0
  6
CONTINUOUS
 62
     7
 10
226.2159921973
 20
269.1118434956
 30
0.0
  0
VERTEX
  5
572
  8
0
  6
CONTINUOUS
 62
     7
 10
225.795408599
 20
268.8148216298
 30
0.0
  0
VERTEX
  5
573
  8
0
  6
CONTINUOUS
 62
     7
 10
225.2498117554
 20
268.4177950909
 30
0.0
  0
VERTEX
  5
574
  8
0
  6
CONTINUOUS
 62
     7
 10
224.5955072622
 20
267.9216460278
 30
0.0
  0
SEQEND
  5
57F
  8
0
  6
CONTINUOUS
 62
     7
  0
POLYLINE
  5
23C
  8
0
  6
CONTINUOUS
 62
     7
 66
     1
 10
0.0
 20
0.0
 30
0.0
  0
VERTEX
  5
575
  8
0
  6
CONTINUOUS
 62
     7
 10
219.6901900506
 20
206.2267021229
 30
0.0
  0
VERTEX
  5
576
  8
0
  6
CONTINUOUS
 62
     7
 10
219.7024682349
 20
205.4797605565
 30
0.0
  0
VERTEX
  5
577
  8
0
  6
CONTINUOUS
 62
     7
 10
219.7395769692
 20
204.7634557774
 30
0.0
  0
VERTEX
  5
578
  8
0
  6
CONTINUOUS
 62
     7
 10
219.8043634928
 20
204.0672854474
 30
0.0
  0
VERTEX
  5
579
  8
0
  6
CONTINUOUS
 62
     7
 10
219.8875726945
 20
203.4674123814
 30
0.0
  0
VERTEX
  5
57A
  8
0
  6
CONTINUOUS
 62
     7
 10
219.9950614757
 20
202.9022530606
 30
0.0
  0
VERTEX
  5
57B
  8
0
  6
CONTINUOUS
 62
     7
 10
220.122583378
 20
202.3928658059
 30
0.0
  0
VERTEX
  5
57C
  8
0
  6
CONTINUOUS
 62
     7
 10
220.2658230252
 20
201.95045033
 30
0.0
  0
VERTEX
  5
57D
  8
0
  6
CONTINUOUS
 62
     7
 10
220.4200533963
 20
201.5838519623
 30
0.0
  0
SEQEND
  5
57E
  8
0
  6
CONTINUOUS
 62
     7
  0
LINE
  5
23D
  8
0
  6
CONTINUOUS
 62
     7
 10
220.4200533963
 20
201.5838519623
 30
0.0
 11
220.6146837956
 21
201.1885718396
 31
0.0
  0
ARC
  5
23E
  8
0
  6
CONTINUOUS
 62
     7
 10
245.8749840074
 20
239.984348175
 30
0.0
 40
36.05337758435716
 50
125.3076694524
 51
129.179178497
  0
ARC
  5
23F
  8
0
  6
CONTINUOUS
 62
     7
 10
232.3288531956
 20
259.3665833134
 30
0.0
 40
12.59239777576016
 50
137.1403469291
 51
172.6040790193
  0
LINE
  5
240
  8
0
  6
CONTINUOUS
 62
     7
 10
220.734469015
 20
221.2983922055
 30
0.0
 11
220.7734593934
 21
221.2983922055
 31
0.0
  0
ARC
  5
241
  8
0
  6
CONTINUOUS
 62
     7
 10
223.0985294936
 20
236.3862257054
 30
0.0
 40
2.000000000000004
 50
15.7570898053
 51
90.0
  0
ARC
  5
242
  8
0
  6
CONTINUOUS
 62
     7
 10
71.0359102278
 20
193.4798180019
 30
0.0
 40
160.0000000000001
 50
359.6618680049
 51
15.7570898053
  0
LINE
  5
243
  8
0
  6
CONTINUOUS
 62
     7
 10
221.4048346317
 20
238.3862213185
 30
0.0
 11
221.4048346317
 21
195.6777290394
 31
0.0
  0
LINE
  5
244
  8
0
  6
CONTINUOUS
 62
     7
 10
223.098529484
 20
238.3862213185
 30
0.0
 11
221.4048346317
 21
238.3862213185
 31
0.0
  0
LINE
  5
245
  8
0
  6
CONTINUOUS
 62
     7
 10
220.7716325111
 20
195.1862231782
 30
0.0
 11
220.6146837956
 21
195.1862231782
 31
0.0
  0
LINE
  5
246
  8
0
  6
CONTINUOUS
 62
     7
 10
220.6146837956
 20
195.1862231782
 30
0.0
 11
220.6146837956
 21
221.4214996388
 31
0.0
  0
LINE
  5
247
  8
0
  6
CONTINUOUS
 62
     7
 10
220.6146837956
 20
226.8668011716
 30
0.0
 11
220.6146837956
 21
238.3862213185
 31
0.0
  0
LINE
  5
248
  8
0
  6
CONTINUOUS
 62
     7
 10
220.6146837956
 20
238.3862213185
 30
0.0
 11
221.4048346317
 21
238.3862213185
 31
0.0
  0
LINE
  5
249
  8
0
  6
CONTINUOUS
 62
     7
 10
230.1048347539
 20
170.7862273743
 30
0.0
 11
230.1048347539
 21
178.5862282803
 31
0.0
  0
ARC
  5
24A
  8
0
  6
CONTINUOUS
 62
     7
 10
229.7048346466
 20
178.5862257054
 30
0.0
 40
0.4000000000000057
 50
0.0
 51
90.0
  0
LINE
  5
24B
  8
0
  6
CONTINUOUS
 62
     7
 10
229.7048346884
 20
178.9862231305
 30
0.0
 11
228.9048345572
 21
178.9862231305
 31
0.0
  0
LINE
  5
24C
  8
0
  6
CONTINUOUS
 62
     7
 10
220.904834736
 20
178.9862231305
 30
0.0
 11
220.3048346377
 21
178.9862231305
 31
0.0
  0
ARC
  5
24D
  8
0
  6
CONTINUOUS
 62
     7
 10
220.3048346466
 20
178.5862257054
 30
0.0
 40
0.4000000000000057
 50
90.0
 51
180.0
  0
LINE
  5
24E
  8
0
  6
CONTINUOUS
 62
     7
 10
219.9048345721
 20
178.5862282803
 30
0.0
 11
219.9048345721
 21
177.9862240842
 31
0.0
  0
LINE
  5
24F
  8
0
  6
CONTINUOUS
 62
     7
 10
219.1048348135
 20
175.7862285664
 30
0.0
 11
219.1048348135
 21
170.7862273743
 31
0.0
  0
LINE
  5
250
  8
0
  6
CONTINUOUS
 62
     7
 10
219.1048348135
 20
175.7862285664
 30
0.0
 11
217.1569326705
 21
175.7862285664
 31
0.0
  0
ARC
  5
251
  8
0
  6
CONTINUOUS
 62
     7
 10
225.0048346466
 20
190.3862257054
 30
0.0
 40
6.400000000000023
 50
334.4805415091
 51
151.3013359141
  0
ARC
  5
252
  8
0
  6
CONTINUOUS
 62
     7
 10
239.8048346466
 20
183.3208170123
 30
0.0
 40
9.999999999999982
 50
154.4805415091
 51
180.0
  0
LINE
  5
253
  8
0
  6
CONTINUOUS
 62
     7
 10
229.8048345185
 20
183.3208159497
 30
0.0
 11
229.8048345185
 21
179.7862247517
 31
0.0
  0
LINE
  5
254
  8
0
  6
CONTINUOUS
 62
     7
 10
229.9048347211
 20
179.7862247517
 30
0.0
 11
229.8048345185
 21
179.7862247517
 31
0.0
  0
ARC
  5
255
  8
0
  6
CONTINUOUS
 62
     7
 10
229.9048346466
 20
178.7862257054
 30
0.0
 40
1.0
 50
0.0
 51
90.0
  0
LINE
  5
256
  8
0
  6
CONTINUOUS
 62
     7
 10
230.9048345125
 20
170.7862273743
 30
0.0
 11
230.9048345125
 21
178.7862257054
 31
0.0
  0
ARC
  5
257
  8
0
  6
CONTINUOUS
 62
     7
 10
240.7139255557
 20
181.7862257054
 30
0.0
 40
24.30909090909089
 50
151.3013359141
 51
194.2894890274
  0
LINE
  5
258
  8
0
  6
CONTINUOUS
 62
     7
 10
219.9048345721
 20
169.9862257531
 30
0.0
 11
219.9048345721
 21
168.7862233212
 31
0.0
  0
LINE
  5
259
  8
0
  6
CONTINUOUS
 62
     7
 10
219.9048345721
 20
168.7862233212
 30
0.0
 11
219.1048348135
 21
168.7862233212
 31
0.0
  0
LINE
  5
25A
  8
0
  6
CONTINUOUS
 62
     7
 10
219.1048348135
 20
168.7862233212
 30
0.0
 11
219.1048348135
 21
170.7862273743
 31
0.0
  0
LINE
  5
25B
  8
0
  6
CONTINUOUS
 62
     7
 10
230.9048345125
 20
170.7862273743
 30
0.0
 11
230.9048345125
 21
168.7862233212
 31
0.0
  0
LINE
  5
25C
  8
0
  6
CONTINUOUS
 62
     7
 10
230.9048345125
 20
168.7862233212
 30
0.0
 11
230.1048347539
 21
168.7862233212
 31
0.0
  0
LINE
  5
25D
  8
0
  6
CONTINUOUS
 62
     7
 10
230.1048347539
 20
168.7862233212
 30
0.0
 11
230.1048347539
 21
170.7862273743
 31
0.0
  0
LINE
  5
25E
  8
0
  6
CONTINUOUS
 62
     7
 10
219.9048345721
 20
169.9862257531
 30
0.0
 11
219.9048345721
 21
177.9862240842
 31
0.0
  0
ARC
  5
25F
  8
0
  6
CONTINUOUS
 62
     7
 10
220.9048346466
 20
177.9862257054
 30
0.0
 40
1.0
 50
90.0
 51
180.0
  0
LINE
  5
260
  8
0
  6
CONTINUOUS
 62
     7
 10
220.904834736
 20
178.9862231305
 30
0.0
 11
228.9048345572
 21
178.9862231305
 31
0.0
  0
ARC
  5
261
  8
0
  6
CONTINUOUS
 62
     7
 10
220.9048346466
 20
169.9862257054
 30
0.0
 40
1.0
 50
180.0
 51
270.0
  0
LINE
  5
262
  8
0
  6
CONTINUOUS
 62
     7
 10
228.9048345572
 20
168.9862267068
 30
0.0
 11
220.904834736
 21
168.9862267068
 31
0.0
  0
ARC
  5
263
  8
0
  6
CONTINUOUS
 62
     7
 10
228.9048346466
 20
177.9862257054
 30
0.0
 40
1.0
 50
0.0
 51
90.0
  0
LINE
  5
264
  8
0
  6
CONTINUOUS
 62
     7
 10
229.9048347211
 20
177.9862240842
 30
0.0
 11
229.9048347211
 21
169.9862257531
 31
0.0
  0
ARC
  5
265
  8
0
  6
CONTINUOUS
 62
     7
 10
228.9048346466
 20
169.9862257054
 30
0.0
 40
1.0
 50
270.0
 51
0.0
  0
LINE
  5
266
  8
0
  6
CONTINUOUS
 62
     7
 10
212.9048349148
 20
103.7862257054
 30
0.0
 11
212.9048349148
 21
104.9862257158
 31
0.0
  0
LINE
  5
267
  8
0
  6
CONTINUOUS
 62
     7
 10
216.9048348254
 20
103.7862257054
 30
0.0
 11
212.9048349148
 21
103.7862257054
 31
0.0
  0
LINE
  5
268
  8
0
  6
CONTINUOUS
 62
     7
 10
212.9048349148
 20
104.9862257158
 30
0.0
 11
216.9048348254
 21
104.9862257158
 31
0.0
  0
LINE
  5
269
  8
0
  6
CONTINUOUS
 62
     7
 10
216.9048348254
 20
103.7862257054
 30
0.0
 11
218.9048347807
 21
103.7862257054
 31
0.0
  0
LINE
  5
26A
  8
0
  6
CONTINUOUS
 62
     7
 10
216.9048348254
 20
104.9862257158
 30
0.0
 11
218.9048347807
 21
104.9862257158
 31
0.0
  0
LINE
  5
26B
  8
0
  6
CONTINUOUS
 62
     7
 10
218.9048347807
 20
103.7862257054
 30
0.0
 11
246.2732562608
 21
103.7862257054
 31
0.0
  0
LINE
  5
26C
  8
0
  6
CONTINUOUS
 62
     7
 10
246.2732562608
 20
104.9862257158
 30
0.0
 11
218.9048347807
 21
104.9862257158
 31
0.0
  0
LINE
  5
26D
  8
0
  6
CONTINUOUS
 62
     7
 10
248.9048341102
 20
104.9862257158
 30
0.0
 11
248.9048341102
 21
103.7862257054
 31
0.0
  0
LINE
  5
26E
  8
0
  6
CONTINUOUS
 62
     7
 10
248.9048341102
 20
103.7862257054
 30
0.0
 11
246.2732562608
 21
103.7862257054
 31
0.0
  0
LINE
  5
26F
  8
0
  6
CONTINUOUS
 62
     7
 10
246.2732562608
 20
104.9862257158
 30
0.0
 11
248.9048341102
 21
104.9862257158
 31
0.0
  0
LINE
  5
270
  8
0
  6
CONTINUOUS
 62
     7
 10
219.9048345721
 20
104.9862257158
 30
0.0
 11
219.9048345721
 21
168.7862233212
 31
0.0
  0
LINE
  5
271
  8
0
  6
CONTINUOUS
 62
     7
 10
229.9048347211
 20
169.1862241318
 30
0.0
 11
229.9048347211
 21
104.9862257158
 31
0.0
  0
ENDSEC
  0
EOF
