  0
SECTION
  2
HEADER
  9
$ACADVER
  1
AC1009
  9
$DWGCODEPAGE
  3
ansi_1252
  9
$INSBASE
 10
0.0
 20
0.0
 30
0.0
  9
$EXTMIN
 10
0.0
 20
0.0
 30
0.0
  9
$EXTMAX
 10
420.0
 20
297.0
 30
0.0
  9
$LIMMIN
 10
0.0
 20
0.0
  9
$LIMMAX
 10
420.0
 20
297.0
  9
$ORTHOMODE
 70
     0
  9
$REGENMODE
 70
     1
  9
$FILLMODE
 70
     1
  9
$QTEXTMODE
 70
     0
  9
$MIRRTEXT
 70
     1
  9
$DRAGMODE
 70
     2
  9
$LTSCALE
 40
1.0
  9
$OSMODE
 70
    37
  9
$ATTMODE
 70
     1
  9
$TEXTSIZE
 40
3.5
  9
$TRACEWID
 40
1.0
  9
$TEXTSTYLE
  7
STANDARD
  9
$CLAYER
  8
0
  9
$CELTYPE
  6
BYLAYER
  9
$CECOLOR
 62
   256
  9
$DIMSCALE
 40
1.0
  9
$DIMASZ
 40
4.0
  9
$DIMEXO
 40
0.0
  9
$DIMDLI
 40
3.75
  9
$DIMRND
 40
0.0
  9
$DIMDLE
 40
0.0
  9
$DIMEXE
 40
2.0
  9
$DIMTP
 40
0.0
  9
$DIMTM
 40
0.0
  9
$DIMTXT
 40
3.5
  9
$DIMCEN
 40
2.5
  9
$DIMTSZ
 40
0.0
  9
$DIMTOL
 70
     0
  9
$DIMLIM
 70
     0
  9
$DIMTIH
 70
     1
  9
$DIMTOH
 70
     1
  9
$DIMSE1
 70
     0
  9
$DIMSE2
 70
     0
  9
$DIMTAD
 70
     1
  9
$DIMZIN
 70
     0
  9
$DIMBLK
  1

  9
$DIMASO
 70
     1
  9
$DIMSHO
 70
     1
  9
$DIMPOST
  1

  9
$DIMAPOST
  1

  9
$DIMALT
 70
     0
  9
$DIMALTD
 70
     3
  9
$DIMALTF
 40
0.0393700787
  9
$DIMLFAC
 40
5.0
  9
$DIMTOFL
 70
     1
  9
$DIMTVP
 40
0.0
  9
$DIMTIX
 70
     0
  9
$DIMSOXD
 70
     0
  9
$DIMSAH
 70
     0
  9
$DIMBLK1
  1

  9
$DIMBLK2
  1

  9
$DIMSTYLE
  2
ISO-25
  9
$DIMCLRD
 70
     0
  9
$DIMCLRE
 70
     0
  9
$DIMCLRT
 70
     0
  9
$DIMTFAC
 40
1.0
  9
$DIMGAP
 40
1.524
  9
$LUNITS
 70
     2
  9
$LUPREC
 70
     2
  9
$SKETCHINC
 40
1.0
  9
$FILLETRAD
 40
10.0
  9
$AUNITS
 70
     0
  9
$AUPREC
 70
     2
  9
$MENU
  1
.
  9
$ELEVATION
 40
0.0
  9
$PELEVATION
 40
0.0
  9
$THICKNESS
 40
0.0
  9
$LIMCHECK
 70
     0
  9
$CHAMFERA
 40
10.0
  9
$CHAMFERB
 40
10.0
  9
$SKPOLY
 70
     0
  9
$TDCREATE
 40
2457801.622630891
  9
$TDUPDATE
 40
2457801.622631053
  9
$TDINDWG
 40
0.0000000116
  9
$TDUSRTIMER
 40
0.0000000116
  9
$USRTIMER
 70
     1
  9
$ANGBASE
 50
0.0
  9
$ANGDIR
 70
     0
  9
$PDMODE
 70
     0
  9
$PDSIZE
 40
-1.0
  9
$PLINEWID
 40
0.0
  9
$COORDS
 70
     1
  9
$SPLFRAME
 70
     0
  9
$SPLINETYPE
 70
     6
  9
$SPLINESEGS
 70
     8
  9
$ATTDIA
 70
     0
  9
$ATTREQ
 70
     1
  9
$HANDLING
 70
     1
  9
$HANDSEED
  5
328
  9
$SURFTAB1
 70
     6
  9
$SURFTAB2
 70
     6
  9
$SURFTYPE
 70
     6
  9
$SURFU
 70
     6
  9
$SURFV
 70
     6
  9
$UCSNAME
  2

  9
$UCSORG
 10
0.0
 20
0.0
 30
0.0
  9
$UCSXDIR
 10
1.0
 20
0.0
 30
0.0
  9
$UCSYDIR
 10
0.0
 20
1.0
 30
0.0
  9
$PUCSNAME
  2

  9
$PUCSORG
 10
0.0
 20
0.0
 30
0.0
  9
$PUCSXDIR
 10
1.0
 20
0.0
 30
0.0
  9
$PUCSYDIR
 10
0.0
 20
1.0
 30
0.0
  9
$USERI1
 70
     0
  9
$USERI2
 70
     0
  9
$USERI3
 70
     0
  9
$USERI4
 70
     0
  9
$USERI5
 70
     0
  9
$USERR1
 40
0.0
  9
$USERR2
 40
0.0
  9
$USERR3
 40
0.0
  9
$USERR4
 40
0.0
  9
$USERR5
 40
0.0
  9
$WORLDVIEW
 70
     1
  9
$SHADEDGE
 70
     3
  9
$SHADEDIF
 70
    70
  9
$TILEMODE
 70
     1
  9
$MAXACTVP
 70
    64
  9
$PLIMCHECK
 70
     0
  9
$PEXTMIN
 10
1.0000000000E+20
 20
1.0000000000E+20
 30
1.0000000000E+20
  9
$PEXTMAX
 10
-1.0000000000E+20
 20
-1.0000000000E+20
 30
-1.0000000000E+20
  9
$PLIMMIN
 10
0.0
 20
0.0
  9
$PLIMMAX
 10
420.0
 20
297.0
  9
$UNITMODE
 70
     0
  9
$VISRETAIN
 70
     1
  9
$PLINEGEN
 70
     0
  9
$PSLTSCALE
 70
     1
  0
ENDSEC
  0
SECTION
  2
TABLES
  0
TABLE
  2
VPORT
 70
     1
  0
VPORT
  2
*ACTIVE
 70
     0
 10
0.0
 20
0.0
 11
1.0
 21
1.0
 12
210.0
 22
148.5
 13
0.0
 23
0.0
 14
10.0
 24
10.0
 15
10.0
 25
10.0
 16
0.0
 26
0.0
 36
1.0
 17
0.0
 27
0.0
 37
0.0
 40
297.0
 41
1.4141414141
 42
50.0
 43
0.0
 44
0.0
 50
0.0
 51
0.0
 71
     0
 72
  2000
 73
     1
 74
     3
 75
     0
 76
     0
 77
     0
 78
     0
  0
ENDTAB
  0
TABLE
  2
LTYPE
 70
     6
  0
LTYPE
  2
CONTINUOUS
 70
     0
  3
Solid line
 72
    65
 73
     0
 40
0.0
  0
LTYPE
  2
HIDDEN
 70
     0
  3
Hidden __ __ __ __ __ __ __ __ __ __ __ __ __ __
 72
    65
 73
     2
 40
1.905
 49
1.27
 49
-0.635
  0
LTYPE
  2
PHANTOM
 70
     0
  3
Phantom ______  __  __  ______  __  __  ______
 72
    65
 73
     6
 40
12.7
 49
6.35
 49
-1.27
 49
1.27
 49
-1.27
 49
1.27
 49
-1.27
  0
LTYPE
  2
CENTER
 70
     0
  3
Center ____ _ ____ _ ____ _ ____ _ ____ _ ____
 72
    65
 73
     4
 40
10.16
 49
6.35
 49
-1.27
 49
1.27
 49
-1.27
  0
LTYPE
  2
CENTERX2
 70
     0
  3
Center (2x) ________  __  ________  __  _____
 72
    65
 73
     4
 40
20.32
 49
12.7
 49
-2.54
 49
2.54
 49
-2.54
  0
LTYPE
  2
DOT2
 70
     0
  3
Dot (.5x) ........................................
 72
    65
 73
     2
 40
0.635
 49
0.0
 49
-0.635
  0
ENDTAB
  0
TABLE
  2
LAYER
 70
     2
  0
LAYER
  2
0
 70
     0
 62
     7
  6
CONTINUOUS
  0
LAYER
  2
FORMAT
 70
     0
 62
     7
  6
CONTINUOUS
  0
ENDTAB
  0
TABLE
  2
STYLE
 70
     1
  0
STYLE
  2
STANDARD
 70
     0
 40
0.0
 41
1.0
 50
0.0
 71
     0
 42
3.5
  3
txt
  4

  0
ENDTAB
  0
TABLE
  2
VIEW
 70
     0
  0
ENDTAB
  0
TABLE
  2
UCS
 70
     0
  0
ENDTAB
  0
TABLE
  2
APPID
 70
     1
  0
APPID
  2
ACAD
 70
     0
  0
ENDTAB
  0
TABLE
  2
DIMSTYLE
 70
     1
  0
DIMSTYLE
  2
ISO-25
 70
     0
  3

  4

  5

  6

  7

 40
1.0
 41
2.5
 42
0.625
 43
3.75
 44
1.25
 45
0.0
 46
0.0
 47
0.0
 48
0.0
140
2.5
141
2.5
142
0.0
143
0.0393700787
144
1.0
145
0.0
146
1.0
147
0.625
 71
     0
 72
     0
 73
     0
 74
     0
 75
     0
 76
     0
 77
     1
 78
     8
170
     0
171
     3
172
     1
173
     0
174
     0
175
     0
176
     0
177
     0
178
     0
  0
ENDTAB
  0
ENDSEC
  0
SECTION
  2
BLOCKS
  0
BLOCK
  8
0
  2
$MODEL_SPACE
 70
     0
 10
0.0
 20
0.0
 30
0.0
  3
$MODEL_SPACE
  1

  0
ENDBLK
  5
21
  8
0
  0
BLOCK
 67
     1
  8
0
  2
$PAPER_SPACE
 70
     0
 10
0.0
 20
0.0
 30
0.0
  3
$PAPER_SPACE
  1

  0
ENDBLK
  5
1D
 67
     1
  8
0
  0
ENDSEC
  0
SECTION
  2
ENTITIES
  0
POLYLINE
  5
45
  8
0
  6
CONTINUOUS
 62
     7
 66
     1
 10
0.0
 20
0.0
 30
0.0
  0
VERTEX
  5
17D
  8
0
  6
CONTINUOUS
 62
     7
 10
50.7567684598
 20
270.3979911706
 30
0.0
  0
VERTEX
  5
17E
  8
0
  6
CONTINUOUS
 62
     7
 10
52.5476550447
 20
270.3774000203
 30
0.0
  0
VERTEX
  5
17F
  8
0
  6
CONTINUOUS
 62
     7
 10
55.9564866855
 20
270.342449881
 30
0.0
  0
VERTEX
  5
180
  8
0
  6
CONTINUOUS
 62
     7
 10
59.3721214494
 20
270.3129809846
 30
0.0
  0
VERTEX
  5
181
  8
0
  6
CONTINUOUS
 62
     7
 10
62.7933694485
 20
270.2890035238
 30
0.0
  0
VERTEX
  5
182
  8
0
  6
CONTINUOUS
 62
     7
 10
66.2190760623
 20
270.2705254562
 30
0.0
  0
VERTEX
  5
183
  8
0
  6
CONTINUOUS
 62
     7
 10
69.6480850974
 20
270.2575529134
 30
0.0
  0
VERTEX
  5
184
  8
0
  6
CONTINUOUS
 62
     7
 10
73.0792391928
 20
270.2500901974
 30
0.0
  0
VERTEX
  5
185
  8
0
  6
CONTINUOUS
 62
     7
 10
76.5113802264
 20
270.2481397788
 30
0.0
  0
VERTEX
  5
186
  8
0
  6
CONTINUOUS
 62
     7
 10
79.9433497228
 20
270.2517022958
 30
0.0
  0
VERTEX
  5
187
  8
0
  6
CONTINUOUS
 62
     7
 10
83.3739883285
 20
270.2607765503
 30
0.0
  0
VERTEX
  5
188
  8
0
  6
CONTINUOUS
 62
     7
 10
86.8021375711
 20
270.275359508
 30
0.0
  0
VERTEX
  5
189
  8
0
  6
CONTINUOUS
 62
     7
 10
90.2266403523
 20
270.2954463035
 30
0.0
  0
VERTEX
  5
18A
  8
0
  6
CONTINUOUS
 62
     7
 10
93.6463408447
 20
270.3210302421
 30
0.0
  0
VERTEX
  5
18B
  8
0
  6
CONTINUOUS
 62
     7
 10
97.0600848982
 20
270.3521028031
 30
0.0
  0
VERTEX
  5
18C
  8
0
  6
CONTINUOUS
 62
     7
 10
100.2876612254
 20
270.3865940028
 30
0.0
  0
VERTEX
  5
18D
  8
0
  6
CONTINUOUS
 62
     7
 10
101.2623004434
 20
270.3979911706
 30
0.0
  0
SEQEND
  5
327
  8
0
  6
CONTINUOUS
 62
     7
  0
ARC
  5
46
  8
0
  6
CONTINUOUS
 62
     7
 10
50.6440698204
 20
261.0977734398
 30
0.0
 40
14.68923015997736
 50
117.9336552078
 51
180.3581072219
  0
ARC
  5
47
  8
0
  6
CONTINUOUS
 62
     7
 10
101.4041778469
 20
261.1161558995
 30
0.0
 40
14.65735181969823
 50
359.5662472718
 51
61.8682723411
  0
ARC
  5
48
  8
0
  6
CONTINUOUS
 62
     7
 10
50.4755122554
 20
261.881828521
 30
0.0
 40
8.514571143512532
 50
88.1095977625
 51
112.758028128
  0
ARC
  5
49
  8
0
  6
CONTINUOUS
 62
     7
 10
101.5467852142
 20
261.9926728431
 30
0.0
 40
8.405914801977168
 50
67.8883309966
 51
91.9331036161
  0
POLYLINE
  5
4A
  8
0
  6
CONTINUOUS
 62
     7
 66
     1
 10
0.0
 20
0.0
 30
0.0
  0
VERTEX
  5
18E
  8
0
  6
CONTINUOUS
 62
     7
 10
101.1981320889
 20
275.7776084824
 30
0.0
  0
VERTEX
  5
18F
  8
0
  6
CONTINUOUS
 62
     7
 10
99.4118717742
 20
275.7570705251
 30
0.0
  0
VERTEX
  5
190
  8
0
  6
CONTINUOUS
 62
     7
 10
96.0119146613
 20
275.7222112895
 30
0.0
  0
VERTEX
  5
191
  8
0
  6
CONTINUOUS
 62
     7
 10
92.6050900646
 20
275.6928181567
 30
0.0
  0
VERTEX
  5
192
  8
0
  6
CONTINUOUS
 62
     7
 10
89.1925896201
 20
275.6689016456
 30
0.0
  0
VERTEX
  5
193
  8
0
  6
CONTINUOUS
 62
     7
 10
85.7755798093
 20
275.6504700728
 30
0.0
  0
VERTEX
  5
194
  8
0
  6
CONTINUOUS
 62
     7
 10
82.3552285825
 20
275.6375298508
 30
0.0
  0
VERTEX
  5
195
  8
0
  6
CONTINUOUS
 62
     7
 10
78.9327049763
 20
275.6300854857
 30
0.0
  0
VERTEX
  5
196
  8
0
  6
CONTINUOUS
 62
     7
 10
75.5091787308
 20
275.6281395772
 30
0.0
  0
VERTEX
  5
197
  8
0
  6
CONTINUOUS
 62
     7
 10
72.0858199049
 20
275.6316928174
 30
0.0
  0
VERTEX
  5
198
  8
0
  6
CONTINUOUS
 62
     7
 10
68.6637994225
 20
275.640743988
 30
0.0
  0
VERTEX
  5
199
  8
0
  6
CONTINUOUS
 62
     7
 10
65.2442873384
 20
275.65528996
 30
0.0
  0
VERTEX
  5
19A
  8
0
  6
CONTINUOUS
 62
     7
 10
61.8284523676
 20
275.675325698
 30
0.0
  0
VERTEX
  5
19B
  8
0
  6
CONTINUOUS
 62
     7
 10
58.4174620113
 20
275.7008442621
 30
0.0
  0
VERTEX
  5
19C
  8
0
  6
CONTINUOUS
 62
     7
 10
55.0124821738
 20
275.7318368087
 30
0.0
  0
VERTEX
  5
19D
  8
0
  6
CONTINUOUS
 62
     7
 10
51.7933087443
 20
275.7662378871
 30
0.0
  0
VERTEX
  5
19E
  8
0
  6
CONTINUOUS
 62
     7
 10
50.8209368143
 20
275.7776084824
 30
0.0
  0
SEQEND
  5
326
  8
0
  6
CONTINUOUS
 62
     7
  0
ARC
  5
4B
  8
0
  6
CONTINUOUS
 62
     7
 10
101.5131145379
 20
262.0728644454
 30
0.0
 40
13.70328450950481
 50
74.2380809295
 51
91.3153281493
  0
ARC
  5
4C
  8
0
  6
CONTINUOUS
 62
     7
 10
50.4965580558
 20
261.9474353524
 30
0.0
 40
13.82711931628226
 50
88.6547486967
 51
105.7868908246
  0
ARC
  5
4D
  8
0
  6
CONTINUOUS
 62
     7
 10
101.4104737231
 20
261.1150735761
 30
0.0
 40
9.272523301841225
 50
359.3257361101
 51
69.1492993629
  0
ARC
  5
4E
  8
0
  6
CONTINUOUS
 62
     7
 10
50.6262651183
 20
261.1031888251
 30
0.0
 40
9.292324099017357
 50
111.7579082945
 51
180.5966654146
  0
LINE
  5
4F
  8
0
  6
CONTINUOUS
 62
     7
 10
116.0682910845
 20
221.1576736338
 30
0.0
 11
116.0682910845
 21
261.0054615575
 31
0.0
  0
LINE
  5
50
  8
0
  6
CONTINUOUS
 62
     7
 10
35.9507778187
 20
261.0054615575
 30
0.0
 11
35.9507778187
 21
221.1576736338
 31
0.0
  0
POLYLINE
  5
51
  8
0
  6
CONTINUOUS
 62
     7
 66
     1
 10
0.0
 20
0.0
 30
0.0
  0
VERTEX
  5
19F
  8
0
  6
CONTINUOUS
 62
     7
 10
50.7567684598
 20
206.0238897799
 30
0.0
  0
VERTEX
  5
1A0
  8
0
  6
CONTINUOUS
 62
     7
 10
52.5476550447
 20
206.0032986297
 30
0.0
  0
VERTEX
  5
1A1
  8
0
  6
CONTINUOUS
 62
     7
 10
55.9564866855
 20
205.9683484903
 30
0.0
  0
VERTEX
  5
1A2
  8
0
  6
CONTINUOUS
 62
     7
 10
59.3721214494
 20
205.9388795939
 30
0.0
  0
VERTEX
  5
1A3
  8
0
  6
CONTINUOUS
 62
     7
 10
62.7933694485
 20
205.9149021331
 30
0.0
  0
VERTEX
  5
1A4
  8
0
  6
CONTINUOUS
 62
     7
 10
66.2190760623
 20
205.8964240656
 30
0.0
  0
VERTEX
  5
1A5
  8
0
  6
CONTINUOUS
 62
     7
 10
69.6480850974
 20
205.8834515227
 30
0.0
  0
VERTEX
  5
1A6
  8
0
  6
CONTINUOUS
 62
     7
 10
73.0792391928
 20
205.8759888067
 30
0.0
  0
VERTEX
  5
1A7
  8
0
  6
CONTINUOUS
 62
     7
 10
76.5113802264
 20
205.8740383881
 30
0.0
  0
VERTEX
  5
1A8
  8
0
  6
CONTINUOUS
 62
     7
 10
79.9433497228
 20
205.8776009051
 30
0.0
  0
VERTEX
  5
1A9
  8
0
  6
CONTINUOUS
 62
     7
 10
83.3739883285
 20
205.8866751596
 30
0.0
  0
VERTEX
  5
1AA
  8
0
  6
CONTINUOUS
 62
     7
 10
86.8021375711
 20
205.9012581173
 30
0.0
  0
VERTEX
  5
1AB
  8
0
  6
CONTINUOUS
 62
     7
 10
90.2266403523
 20
205.9213449128
 30
0.0
  0
VERTEX
  5
1AC
  8
0
  6
CONTINUOUS
 62
     7
 10
93.6463408447
 20
205.9469288514
 30
0.0
  0
VERTEX
  5
1AD
  8
0
  6
CONTINUOUS
 62
     7
 10
97.0600848982
 20
205.9780014124
 30
0.0
  0
VERTEX
  5
1AE
  8
0
  6
CONTINUOUS
 62
     7
 10
100.2876612254
 20
206.0124926121
 30
0.0
  0
VERTEX
  5
1AF
  8
0
  6
CONTINUOUS
 62
     7
 10
101.2623004434
 20
206.0238897799
 30
0.0
  0
SEQEND
  5
325
  8
0
  6
CONTINUOUS
 62
     7
  0
ARC
  5
52
  8
0
  6
CONTINUOUS
 62
     7
 10
50.9165288054
 20
220.8628104345
 30
0.0
 40
14.83225755785857
 50
218.4765965932
 51
269.3847764859
  0
ARC
  5
53
  8
0
  6
CONTINUOUS
 62
     7
 10
101.1040829672
 20
220.8584779357
 30
0.0
 40
14.82861802926846
 50
270.6098877482
 51
321.4777629996
  0
LINE
  5
54
  8
0
  6
CONTINUOUS
 62
     7
 10
41.3307778187
 20
221.1576736338
 30
0.0
 11
41.3307778187
 21
261.0054615575
 31
0.0
  0
LINE
  5
55
  8
0
  6
CONTINUOUS
 62
     7
 10
110.6882910845
 20
261.0054615575
 30
0.0
 11
110.6882910845
 21
221.1576736338
 31
0.0
  0
ARC
  5
56
  8
0
  6
CONTINUOUS
 62
     7
 10
100.9329592693
 20
221.12803605
 30
0.0
 40
15.12949214573002
 50
327.6393518031
 51
0.1104189391
  0
ARC
  5
57
  8
0
  6
CONTINUOUS
 62
     7
 10
50.913682435
 20
221.0835983679
 30
0.0
 40
14.9560087874202
 50
179.7162253626
 51
212.5692433246
  0
POLYLINE
  5
58
  8
0
  6
CONTINUOUS
 62
     7
 66
     1
 10
0.0
 20
0.0
 30
0.0
  0
VERTEX
  5
1B0
  8
0
  6
CONTINUOUS
 62
     7
 10
101.1981320889
 20
211.4035070917
 30
0.0
  0
VERTEX
  5
1B1
  8
0
  6
CONTINUOUS
 62
     7
 10
99.4118717742
 20
211.3829691345
 30
0.0
  0
VERTEX
  5
1B2
  8
0
  6
CONTINUOUS
 62
     7
 10
96.0119146613
 20
211.3481098988
 30
0.0
  0
VERTEX
  5
1B3
  8
0
  6
CONTINUOUS
 62
     7
 10
92.6050900646
 20
211.318716766
 30
0.0
  0
VERTEX
  5
1B4
  8
0
  6
CONTINUOUS
 62
     7
 10
89.1925896201
 20
211.2948002549
 30
0.0
  0
VERTEX
  5
1B5
  8
0
  6
CONTINUOUS
 62
     7
 10
85.7755798093
 20
211.2763686821
 30
0.0
  0
VERTEX
  5
1B6
  8
0
  6
CONTINUOUS
 62
     7
 10
82.3552285825
 20
211.2634284601
 30
0.0
  0
VERTEX
  5
1B7
  8
0
  6
CONTINUOUS
 62
     7
 10
78.9327049763
 20
211.2559840951
 30
0.0
  0
VERTEX
  5
1B8
  8
0
  6
CONTINUOUS
 62
     7
 10
75.5091787308
 20
211.2540381865
 30
0.0
  0
VERTEX
  5
1B9
  8
0
  6
CONTINUOUS
 62
     7
 10
72.0858199049
 20
211.2575914267
 30
0.0
  0
VERTEX
  5
1BA
  8
0
  6
CONTINUOUS
 62
     7
 10
68.6637994225
 20
211.2666425974
 30
0.0
  0
VERTEX
  5
1BB
  8
0
  6
CONTINUOUS
 62
     7
 10
65.2442873384
 20
211.2811885693
 30
0.0
  0
VERTEX
  5
1BC
  8
0
  6
CONTINUOUS
 62
     7
 10
61.8284523676
 20
211.3012243073
 30
0.0
  0
VERTEX
  5
1BD
  8
0
  6
CONTINUOUS
 62
     7
 10
58.4174620113
 20
211.3267428714
 30
0.0
  0
VERTEX
  5
1BE
  8
0
  6
CONTINUOUS
 62
     7
 10
55.0124821738
 20
211.3577354181
 30
0.0
  0
VERTEX
  5
1BF
  8
0
  6
CONTINUOUS
 62
     7
 10
51.7933087443
 20
211.3921364964
 30
0.0
  0
VERTEX
  5
1C0
  8
0
  6
CONTINUOUS
 62
     7
 10
50.8209368143
 20
211.4035070917
 30
0.0
  0
SEQEND
  5
324
  8
0
  6
CONTINUOUS
 62
     7
  0
ARC
  5
59
  8
0
  6
CONTINUOUS
 62
     7
 10
51.0080889818
 20
221.0773294767
 30
0.0
 40
9.670921166224385
 50
179.5279211659
 51
268.8864433838
  0
ARC
  5
5A
  8
0
  6
CONTINUOUS
 62
     7
 10
101.0142050689
 20
221.0795666479
 30
0.0
 40
9.670574197296022
 50
271.0898451888
 51
0.4549748671
  0
LINE
  5
5B
  8
0
  6
CONTINUOUS
 62
     7
 10
117.4095344516
 20
202.3180842795
 30
0.0
 11
114.0095344516
 21
202.3180842795
 31
0.0
  0
LINE
  5
5C
  8
0
  6
CONTINUOUS
 62
     7
 10
114.0095344516
 20
201.9180842795
 30
0.0
 11
113.7095344516
 21
201.9180842795
 31
0.0
  0
LINE
  5
5D
  8
0
  6
CONTINUOUS
 62
     7
 10
112.7095344516
 20
201.9180842795
 30
0.0
 11
96.6095344516
 21
201.9180842795
 31
0.0
  0
LINE
  5
5E
  8
0
  6
CONTINUOUS
 62
     7
 10
96.6095344516
 20
189.9180842795
 30
0.0
 11
114.0095344516
 21
189.9180842795
 31
0.0
  0
LINE
  5
5F
  8
0
  6
CONTINUOUS
 62
     7
 10
38.0095344516
 20
202.3180842795
 30
0.0
 11
34.6095344516
 21
202.3180842795
 31
0.0
  0
LINE
  5
60
  8
0
  6
CONTINUOUS
 62
     7
 10
38.0095344516
 20
189.9180842795
 30
0.0
 11
55.4095344516
 21
189.9180842795
 31
0.0
  0
LINE
  5
61
  8
0
  6
CONTINUOUS
 62
     7
 10
55.4095344516
 20
201.9180842795
 30
0.0
 11
39.3095344516
 21
201.9180842795
 31
0.0
  0
LINE
  5
62
  8
0
  6
CONTINUOUS
 62
     7
 10
38.3095344516
 20
201.9180842795
 30
0.0
 11
38.0095344516
 21
201.9180842795
 31
0.0
  0
LINE
  5
63
  8
0
  6
CONTINUOUS
 62
     7
 10
39.3095344516
 20
231.8421024308
 30
0.0
 11
38.3095344516
 21
231.8421024308
 31
0.0
  0
LINE
  5
64
  8
0
  6
CONTINUOUS
 62
     7
 10
39.3095344516
 20
231.8421024308
 30
0.0
 11
39.3095344516
 21
196.6960839026
 31
0.0
  0
LINE
  5
65
  8
0
  6
CONTINUOUS
 62
     7
 10
38.3095344516
 20
231.8421024308
 30
0.0
 11
38.3095344516
 21
196.6960839026
 31
0.0
  0
LINE
  5
66
  8
0
  6
CONTINUOUS
 62
     7
 10
112.7095344516
 20
231.8421024308
 30
0.0
 11
113.7095344516
 21
231.8421024308
 31
0.0
  0
LINE
  5
67
  8
0
  6
CONTINUOUS
 62
     7
 10
113.7095344516
 20
231.8421024308
 30
0.0
 11
113.7095344516
 21
196.6960839026
 31
0.0
  0
LINE
  5
68
  8
0
  6
CONTINUOUS
 62
     7
 10
112.7095344516
 20
231.8421024308
 30
0.0
 11
112.7095344516
 21
196.6960839026
 31
0.0
  0
ARC
  5
69
  8
0
  6
CONTINUOUS
 62
     7
 10
49.1255355962
 20
264.8372572162
 30
0.0
 40
10.66434262599609
 50
102.9874349342
 51
120.0657980983
  0
ARC
  5
6A
  8
0
  6
CONTINUOUS
 62
     7
 10
101.9771391395
 20
262.4756907204
 30
0.0
 40
13.19142973944125
 50
61.3380082074
 51
75.6470428257
  0
ARC
  5
6B
  8
0
  6
CONTINUOUS
 62
     7
 10
38.6402285052
 20
262.2467799129
 30
0.0
 40
30.36543002609136
 50
269.3760092276
 51
271.2629991327
  0
ARC
  5
6C
  8
0
  6
CONTINUOUS
 62
     7
 10
113.378840398
 20
262.2467799129
 30
0.0
 40
30.36543002609169
 50
268.7370008673
 51
270.6239907725
  0
LINE
  5
6D
  8
0
  6
CONTINUOUS
 62
     7
 10
38.3095344516
 20
231.8831506484
 30
0.0
 11
38.3095344516
 21
231.8421024308
 31
0.0
  0
LINE
  5
6E
  8
0
  6
CONTINUOUS
 62
     7
 10
39.3095344516
 20
231.8887271061
 30
0.0
 11
39.3095344516
 21
231.8421024308
 31
0.0
  0
LINE
  5
6F
  8
0
  6
CONTINUOUS
 62
     7
 10
113.7095344516
 20
231.8831506484
 30
0.0
 11
113.7095344516
 21
231.8421024308
 31
0.0
  0
LINE
  5
70
  8
0
  6
CONTINUOUS
 62
     7
 10
112.7095344516
 20
231.8887271061
 30
0.0
 11
112.7095344516
 21
231.8421024308
 31
0.0
  0
LINE
  5
71
  8
0
  6
CONTINUOUS
 62
     7
 10
114.0095344516
 20
202.3180842795
 30
0.0
 11
114.0095344516
 21
193.1608516188
 31
0.0
  0
LINE
  5
72
  8
0
  6
CONTINUOUS
 62
     7
 10
117.4095344516
 20
202.3180842795
 30
0.0
 11
117.4095344516
 21
193.1608516188
 31
0.0
  0
LINE
  5
73
  8
0
  6
CONTINUOUS
 62
     7
 10
96.6095344516
 20
201.9180842795
 30
0.0
 11
96.6095344516
 21
189.9180842795
 31
0.0
  0
LINE
  5
74
  8
0
  6
CONTINUOUS
 62
     7
 10
107.6095344516
 20
184.3180842795
 30
0.0
 11
107.6095344516
 21
185.3180842795
 31
0.0
  0
LINE
  5
75
  8
0
  6
CONTINUOUS
 62
     7
 10
107.6095344516
 20
185.3180842795
 30
0.0
 11
117.4095344516
 21
185.3180842795
 31
0.0
  0
LINE
  5
76
  8
0
  6
CONTINUOUS
 62
     7
 10
117.4095344516
 20
185.3180842795
 30
0.0
 11
117.4095344516
 21
184.3180842795
 31
0.0
  0
ARC
  5
77
  8
0
  6
CONTINUOUS
 62
     7
 10
109.6095344516
 20
176.3180842795
 30
0.0
 40
2.0
 50
180.0
 51
270.0
  0
LINE
  5
78
  8
0
  6
CONTINUOUS
 62
     7
 10
107.6095344516
 20
176.3180842795
 30
0.0
 11
107.6095344516
 21
184.3180842795
 31
0.0
  0
CIRCLE
  5
79
  8
0
  6
CONTINUOUS
 62
     7
 10
113.5095344516
 20
178.7180842795
 30
0.0
 40
1.100000000000009
  0
ARC
  5
7A
  8
0
  6
CONTINUOUS
 62
     7
 10
115.4095344516
 20
176.3180842795
 30
0.0
 40
2.0
 50
270.0
 51
0.0
  0
LINE
  5
7B
  8
0
  6
CONTINUOUS
 62
     7
 10
115.4095344516
 20
174.3180842795
 30
0.0
 11
109.6095344516
 21
174.3180842795
 31
0.0
  0
LINE
  5
7C
  8
0
  6
CONTINUOUS
 62
     7
 10
117.4095344516
 20
176.3180842795
 30
0.0
 11
117.4095344516
 21
184.3180842795
 31
0.0
  0
LINE
  5
7D
  8
0
  6
CONTINUOUS
 62
     7
 10
114.0095344516
 20
188.8526755865
 30
0.0
 11
114.0095344516
 21
193.1608516188
 31
0.0
  0
LINE
  5
7E
  8
0
  6
CONTINUOUS
 62
     7
 10
117.4095344516
 20
193.1608516188
 30
0.0
 11
117.4095344516
 21
188.8526755865
 31
0.0
  0
LINE
  5
7F
  8
0
  6
CONTINUOUS
 62
     7
 10
114.0095344516
 20
188.8526755865
 30
0.0
 11
114.0095344516
 21
185.3180842795
 31
0.0
  0
LINE
  5
80
  8
0
  6
CONTINUOUS
 62
     7
 10
117.4095344516
 20
188.8526755865
 30
0.0
 11
117.4095344516
 21
185.3180842795
 31
0.0
  0
LINE
  5
81
  8
0
  6
CONTINUOUS
 62
     7
 10
38.0095344516
 20
202.3180842795
 30
0.0
 11
38.0095344516
 21
193.1608516188
 31
0.0
  0
LINE
  5
82
  8
0
  6
CONTINUOUS
 62
     7
 10
34.6095344516
 20
202.3180842795
 30
0.0
 11
34.6095344516
 21
193.1608516188
 31
0.0
  0
LINE
  5
83
  8
0
  6
CONTINUOUS
 62
     7
 10
55.4095344516
 20
201.9180842795
 30
0.0
 11
55.4095344516
 21
189.9180842795
 31
0.0
  0
CIRCLE
  5
84
  8
0
  6
CONTINUOUS
 62
     7
 10
38.5095344516
 20
178.7180842795
 30
0.0
 40
1.100000000000001
  0
ARC
  5
85
  8
0
  6
CONTINUOUS
 62
     7
 10
36.6095344516
 20
176.3180842795
 30
0.0
 40
2.0
 50
180.0
 51
270.0
  0
ARC
  5
86
  8
0
  6
CONTINUOUS
 62
     7
 10
42.4095344516
 20
176.3180842795
 30
0.0
 40
2.0
 50
270.0
 51
0.0
  0
LINE
  5
87
  8
0
  6
CONTINUOUS
 62
     7
 10
42.4095344516
 20
174.3180842795
 30
0.0
 11
36.6095344516
 21
174.3180842795
 31
0.0
  0
LINE
  5
88
  8
0
  6
CONTINUOUS
 62
     7
 10
44.4095344516
 20
184.3180842795
 30
0.0
 11
44.4095344516
 21
176.3180842795
 31
0.0
  0
LINE
  5
89
  8
0
  6
CONTINUOUS
 62
     7
 10
34.6095344516
 20
176.3180842795
 30
0.0
 11
34.6095344516
 21
184.3180842795
 31
0.0
  0
LINE
  5
8A
  8
0
  6
CONTINUOUS
 62
     7
 10
34.6095344516
 20
185.3180842795
 30
0.0
 11
44.4095344516
 21
185.3180842795
 31
0.0
  0
LINE
  5
8B
  8
0
  6
CONTINUOUS
 62
     7
 10
44.4095344516
 20
185.3180842795
 30
0.0
 11
44.4095344516
 21
184.3180842795
 31
0.0
  0
LINE
  5
8C
  8
0
  6
CONTINUOUS
 62
     7
 10
34.6095344516
 20
184.3180842795
 30
0.0
 11
34.6095344516
 21
185.3180842795
 31
0.0
  0
LINE
  5
8D
  8
0
  6
CONTINUOUS
 62
     7
 10
38.0095344516
 20
193.1608516188
 30
0.0
 11
38.0095344516
 21
188.8526755865
 31
0.0
  0
LINE
  5
8E
  8
0
  6
CONTINUOUS
 62
     7
 10
34.6095344516
 20
188.8526755865
 30
0.0
 11
34.6095344516
 21
193.1608516188
 31
0.0
  0
LINE
  5
8F
  8
0
  6
CONTINUOUS
 62
     7
 10
38.0095344516
 20
188.8526755865
 30
0.0
 11
38.0095344516
 21
185.3180842795
 31
0.0
  0
LINE
  5
90
  8
0
  6
CONTINUOUS
 62
     7
 10
34.6095344516
 20
188.8526755865
 30
0.0
 11
34.6095344516
 21
185.3180842795
 31
0.0
  0
LINE
  5
91
  8
0
  6
CONTINUOUS
 62
     7
 10
68.8366036248
 20
110.5180842795
 30
0.0
 11
72.5952501662
 21
110.5180842795
 31
0.0
  0
LINE
  5
92
  8
0
  6
CONTINUOUS
 62
     7
 10
72.5952501662
 20
109.3180842795
 30
0.0
 11
68.8366036248
 21
109.3180842795
 31
0.0
  0
LINE
  5
93
  8
0
  6
CONTINUOUS
 62
     7
 10
83.1824652784
 20
109.3180842795
 30
0.0
 11
79.423818737
 21
109.3180842795
 31
0.0
  0
LINE
  5
94
  8
0
  6
CONTINUOUS
 62
     7
 10
79.423818737
 20
110.5180842795
 30
0.0
 11
83.1824652784
 21
110.5180842795
 31
0.0
  0
LINE
  5
95
  8
0
  6
CONTINUOUS
 62
     7
 10
72.5952501662
 20
109.3180842795
 30
0.0
 11
79.423818737
 21
109.3180842795
 31
0.0
  0
LINE
  5
96
  8
0
  6
CONTINUOUS
 62
     7
 10
72.5952501662
 20
110.5180842795
 30
0.0
 11
79.423818737
 21
110.5180842795
 31
0.0
  0
LINE
  5
97
  8
0
  6
CONTINUOUS
 62
     7
 10
64.0095344516
 20
109.3180842795
 30
0.0
 11
64.0095344516
 21
110.5180842795
 31
0.0
  0
LINE
  5
98
  8
0
  6
CONTINUOUS
 62
     7
 10
64.0095344516
 20
109.3180842795
 30
0.0
 11
68.8366036248
 21
109.3180842795
 31
0.0
  0
LINE
  5
99
  8
0
  6
CONTINUOUS
 62
     7
 10
68.8366036248
 20
110.5180842795
 30
0.0
 11
64.0095344516
 21
110.5180842795
 31
0.0
  0
LINE
  5
9A
  8
0
  6
CONTINUOUS
 62
     7
 10
88.0095344516
 20
109.3180842795
 30
0.0
 11
88.0095344516
 21
110.5180842795
 31
0.0
  0
LINE
  5
9B
  8
0
  6
CONTINUOUS
 62
     7
 10
83.1824652784
 20
109.3180842795
 30
0.0
 11
88.0095344516
 21
109.3180842795
 31
0.0
  0
LINE
  5
9C
  8
0
  6
CONTINUOUS
 62
     7
 10
88.0095344516
 20
110.5180842795
 30
0.0
 11
83.1824652784
 21
110.5180842795
 31
0.0
  0
LINE
  5
9D
  8
0
  6
CONTINUOUS
 62
     7
 10
80.0095344516
 20
175.5180842795
 30
0.0
 11
81.0095344516
 21
174.5180842795
 31
0.0
  0
LINE
  5
9E
  8
0
  6
CONTINUOUS
 62
     7
 10
119.2095344516
 20
174.5180842795
 30
0.0
 11
116.2813142403
 21
174.5180842795
 31
0.0
  0
LINE
  5
9F
  8
0
  6
CONTINUOUS
 62
     7
 10
108.7377546629
 20
174.5180842795
 30
0.0
 11
81.0095344516
 21
174.5180842795
 31
0.0
  0
LINE
  5
A0
  8
0
  6
CONTINUOUS
 62
     7
 10
32.4095344516
 20
175.5180842795
 30
0.0
 11
32.4095344516
 21
183.5180842795
 31
0.0
  0
LINE
  5
A1
  8
0
  6
CONTINUOUS
 62
     7
 10
81.0095344516
 20
174.5180842795
 30
0.0
 11
81.0095344516
 21
110.5180842795
 31
0.0
  0
LINE
  5
A2
  8
0
  6
CONTINUOUS
 62
     7
 10
32.8095344516
 20
184.5180842795
 30
0.0
 11
34.6095344516
 21
184.5180842795
 31
0.0
  0
LINE
  5
A3
  8
0
  6
CONTINUOUS
 62
     7
 10
44.4095344516
 20
184.5180842795
 30
0.0
 11
107.6095344516
 21
184.5180842795
 31
0.0
  0
LINE
  5
A4
  8
0
  6
CONTINUOUS
 62
     7
 10
117.4095344516
 20
184.5180842795
 30
0.0
 11
119.2095344516
 21
184.5180842795
 31
0.0
  0
LINE
  5
A5
  8
0
  6
CONTINUOUS
 62
     7
 10
119.6095344516
 20
175.5180842795
 30
0.0
 11
119.6095344516
 21
174.9180842795
 31
0.0
  0
ARC
  5
A6
  8
0
  6
CONTINUOUS
 62
     7
 10
119.2095344516
 20
174.9180842795
 30
0.0
 40
0.4000000000000341
 50
270.0
 51
0.0
  0
LINE
  5
A7
  8
0
  6
CONTINUOUS
 62
     7
 10
71.0095344516
 20
174.5180842795
 30
0.0
 11
72.0095344516
 21
175.5180842795
 31
0.0
  0
LINE
  5
A8
  8
0
  6
CONTINUOUS
 62
     7
 10
71.0095344516
 20
174.5180842795
 30
0.0
 11
43.2813142403
 21
174.5180842795
 31
0.0
  0
LINE
  5
A9
  8
0
  6
CONTINUOUS
 62
     7
 10
35.7377546629
 20
174.5180842795
 30
0.0
 11
32.8095344516
 21
174.5180842795
 31
0.0
  0
LINE
  5
AA
  8
0
  6
CONTINUOUS
 62
     7
 10
119.6095344516
 20
183.5180842795
 30
0.0
 11
119.6095344516
 21
175.5180842795
 31
0.0
  0
LINE
  5
AB
  8
0
  6
CONTINUOUS
 62
     7
 10
32.4095344516
 20
183.5180842795
 30
0.0
 11
32.4095344516
 21
184.1180842795
 31
0.0
  0
ARC
  5
AC
  8
0
  6
CONTINUOUS
 62
     7
 10
32.8095344516
 20
184.1180842795
 30
0.0
 40
0.4000000000000057
 50
90.0
 51
180.0
  0
CIRCLE
  5
AD
  8
0
  6
CONTINUOUS
 62
     7
 10
113.5095344516
 20
178.7180842795
 30
0.0
 40
1.050000000000011
  0
CIRCLE
  5
AE
  8
0
  6
CONTINUOUS
 62
     7
 10
38.5095344516
 20
178.7180842795
 30
0.0
 40
1.049999999999997
  0
LINE
  5
AF
  8
0
  6
CONTINUOUS
 62
     7
 10
71.0095344516
 20
110.5180842795
 30
0.0
 11
71.0095344516
 21
174.5180842795
 31
0.0
  0
LINE
  5
B0
  8
0
  6
CONTINUOUS
 62
     7
 10
119.6095344516
 20
184.1180842795
 30
0.0
 11
119.6095344516
 21
183.5180842795
 31
0.0
  0
ARC
  5
B1
  8
0
  6
CONTINUOUS
 62
     7
 10
119.2095344516
 20
184.1180842795
 30
0.0
 40
0.4000000000000057
 50
0.0
 51
90.0
  0
LINE
  5
B2
  8
0
  6
CONTINUOUS
 62
     7
 10
32.4095344516
 20
174.9180842795
 30
0.0
 11
32.4095344516
 21
175.5180842795
 31
0.0
  0
ARC
  5
B3
  8
0
  6
CONTINUOUS
 62
     7
 10
32.8095344516
 20
174.9180842795
 30
0.0
 40
0.4000000000000057
 50
180.0
 51
270.0
  0
POLYLINE
  5
B4
  8
0
  6
CONTINUOUS
 62
     7
 66
     1
 10
0.0
 20
0.0
 30
0.0
  0
VERTEX
  5
1C1
  8
0
  6
CONTINUOUS
 62
     7
 10
224.7287596844
 20
275.7609306614
 30
0.0
  0
VERTEX
  5
1C2
  8
0
  6
CONTINUOUS
 62
     7
 10
224.45997082
 20
275.7790685422
 30
0.0
  0
VERTEX
  5
1C3
  8
0
  6
CONTINUOUS
 62
     7
 10
224.0487583294
 20
275.7475895491
 30
0.0
  0
VERTEX
  5
1C4
  8
0
  6
CONTINUOUS
 62
     7
 10
223.6611433011
 20
275.66347567
 30
0.0
  0
VERTEX
  5
1C5
  8
0
  6
CONTINUOUS
 62
     7
 10
223.3025943533
 20
275.5351298107
 30
0.0
  0
VERTEX
  5
1C6
  8
0
  6
CONTINUOUS
 62
     7
 10
222.9764385462
 20
275.3711816378
 30
0.0
  0
VERTEX
  5
1C7
  8
0
  6
CONTINUOUS
 62
     7
 10
222.6832834166
 20
275.1795290291
 30
0.0
  0
VERTEX
  5
1C8
  8
0
  6
CONTINUOUS
 62
     7
 10
222.4204891953
 20
274.9657130197
 30
0.0
  0
VERTEX
  5
1C9
  8
0
  6
CONTINUOUS
 62
     7
 10
222.1822337682
 20
274.7310165694
 30
0.0
  0
VERTEX
  5
1CA
  8
0
  6
CONTINUOUS
 62
     7
 10
221.9597931841
 20
274.4702712738
 30
0.0
  0
VERTEX
  5
1CB
  8
0
  6
CONTINUOUS
 62
     7
 10
221.740145663
 20
274.1663269422
 30
0.0
  0
VERTEX
  5
1CC
  8
0
  6
CONTINUOUS
 62
     7
 10
221.5147884039
 20
273.7991388394
 30
0.0
  0
VERTEX
  5
1CD
  8
0
  6
CONTINUOUS
 62
     7
 10
221.2596420001
 20
273.3078601909
 30
0.0
  0
VERTEX
  5
1CE
  8
0
  6
CONTINUOUS
 62
     7
 10
221.0137602748
 20
272.7526892175
 30
0.0
  0
VERTEX
  5
1CF
  8
0
  6
CONTINUOUS
 62
     7
 10
220.7973486906
 20
272.1944721604
 30
0.0
  0
VERTEX
  5
1D0
  8
0
  6
CONTINUOUS
 62
     7
 10
220.5767761144
 20
271.5557326583
 30
0.0
  0
VERTEX
  5
1D1
  8
0
  6
CONTINUOUS
 62
     7
 10
220.3720999591
 20
270.8969062573
 30
0.0
  0
VERTEX
  5
1D2
  8
0
  6
CONTINUOUS
 62
     7
 10
220.1784124798
 20
270.2108796775
 30
0.0
  0
VERTEX
  5
1D3
  8
0
  6
CONTINUOUS
 62
     7
 10
219.9981168564
 20
269.5115939316
 30
0.0
  0
VERTEX
  5
1D4
  8
0
  6
CONTINUOUS
 62
     7
 10
219.8206904349
 20
268.7607670791
 30
0.0
  0
VERTEX
  5
1D5
  8
0
  6
CONTINUOUS
 62
     7
 10
219.6505166935
 20
267.9759868038
 30
0.0
  0
VERTEX
  5
1D6
  8
0
  6
CONTINUOUS
 62
     7
 10
219.4883332347
 20
267.1607898582
 30
0.0
  0
VERTEX
  5
1D7
  8
0
  6
CONTINUOUS
 62
     7
 10
219.3352138256
 20
266.3199999001
 30
0.0
  0
VERTEX
  5
1D8
  8
0
  6
CONTINUOUS
 62
     7
 10
219.1923711744
 20
265.4592664429
 30
0.0
  0
VERTEX
  5
1D9
  8
0
  6
CONTINUOUS
 62
     7
 10
219.0610221013
 20
264.5846494212
 30
0.0
  0
VERTEX
  5
1DA
  8
0
  6
CONTINUOUS
 62
     7
 10
218.9423245115
 20
263.7027174301
 30
0.0
  0
VERTEX
  5
1DB
  8
0
  6
CONTINUOUS
 62
     7
 10
218.835889427
 20
262.8120224303
 30
0.0
  0
VERTEX
  5
1DC
  8
0
  6
CONTINUOUS
 62
     7
 10
218.740410725
 20
261.901610941
 30
0.0
  0
VERTEX
  5
1DD
  8
0
  6
CONTINUOUS
 62
     7
 10
218.6805319017
 20
261.2397967763
 30
0.0
  0
SEQEND
  5
323
  8
0
  6
CONTINUOUS
 62
     7
  0
ARC
  5
B5
  8
0
  6
CONTINUOUS
 62
     7
 10
268.2560567717
 20
216.3448019504
 30
0.0
 40
53.3018614201465
 50
174.566602849
 51
183.8213569684
  0
LINE
  5
B6
  8
0
  6
CONTINUOUS
 62
     7
 10
218.6783931842
 20
261.2399105055
 30
0.0
 11
215.1921634743
 21
221.3921225818
 31
0.0
  0
POLYLINE
  5
B7
  8
0
  6
CONTINUOUS
 62
     7
 66
     1
 10
0.0
 20
0.0
 30
0.0
  0
VERTEX
  5
1DE
  8
0
  6
CONTINUOUS
 62
     7
 10
224.0394530872
 20
260.7707464045
 30
0.0
  0
VERTEX
  5
1DF
  8
0
  6
CONTINUOUS
 62
     7
 10
224.1064694968
 20
261.4955879909
 30
0.0
  0
VERTEX
  5
1E0
  8
0
  6
CONTINUOUS
 62
     7
 10
224.1958724924
 20
262.331646034
 30
0.0
  0
VERTEX
  5
1E1
  8
0
  6
CONTINUOUS
 62
     7
 10
224.296169509
 20
263.155327923
 30
0.0
  0
VERTEX
  5
1E2
  8
0
  6
CONTINUOUS
 62
     7
 10
224.4066151605
 20
263.9606822371
 30
0.0
  0
VERTEX
  5
1E3
  8
0
  6
CONTINUOUS
 62
     7
 10
224.5259840714
 20
264.7422830525
 30
0.0
  0
VERTEX
  5
1E4
  8
0
  6
CONTINUOUS
 62
     7
 10
224.6547483032
 20
265.5072157334
 30
0.0
  0
VERTEX
  5
1E5
  8
0
  6
CONTINUOUS
 62
     7
 10
224.791756403
 20
266.2504161817
 30
0.0
  0
VERTEX
  5
1E6
  8
0
  6
CONTINUOUS
 62
     7
 10
224.9350419332
 20
266.9630784513
 30
0.0
  0
VERTEX
  5
1E7
  8
0
  6
CONTINUOUS
 62
     7
 10
225.0820812857
 20
267.6352402958
 30
0.0
  0
VERTEX
  5
1E8
  8
0
  6
CONTINUOUS
 62
     7
 10
225.2303429933
 20
268.2586587312
 30
0.0
  0
VERTEX
  5
1E9
  8
0
  6
CONTINUOUS
 62
     7
 10
225.3770730177
 20
268.8257354456
 30
0.0
  0
VERTEX
  5
1EA
  8
0
  6
CONTINUOUS
 62
     7
 10
225.520219438
 20
269.3338556866
 30
0.0
  0
VERTEX
  5
1EB
  8
0
  6
CONTINUOUS
 62
     7
 10
225.663430126
 20
269.8005476592
 30
0.0
  0
VERTEX
  5
1EC
  8
0
  6
CONTINUOUS
 62
     7
 10
225.7993199276
 20
270.2052279646
 30
0.0
  0
VERTEX
  5
1ED
  8
0
  6
CONTINUOUS
 62
     7
 10
225.9248471645
 20
270.5450804224
 30
0.0
  0
VERTEX
  5
1EE
  8
0
  6
CONTINUOUS
 62
     7
 10
226.0353337199
 20
270.815115059
 30
0.0
  0
VERTEX
  5
1EF
  8
0
  6
CONTINUOUS
 62
     7
 10
226.1160692302
 20
270.9927779577
 30
0.0
  0
VERTEX
  5
1F0
  8
0
  6
CONTINUOUS
 62
     7
 10
226.1750671855
 20
271.1096288536
 30
0.0
  0
VERTEX
  5
1F1
  8
0
  6
CONTINUOUS
 62
     7
 10
226.2090789314
 20
271.1699735031
 30
0.0
  0
VERTEX
  5
1F2
  8
0
  6
CONTINUOUS
 62
     7
 10
226.2136549457
 20
271.1774531835
 30
0.0
  0
SEQEND
  5
322
  8
0
  6
CONTINUOUS
 62
     7
  0
LINE
  5
B8
  8
0
  6
CONTINUOUS
 62
     7
 10
221.5104041202
 20
231.8813663648
 30
0.0
 11
224.0379206599
 21
260.7710126095
 31
0.0
  0
LINE
  5
B9
  8
0
  6
CONTINUOUS
 62
     7
 10
221.6125059537
 20
231.8724336119
 30
0.0
 11
224.4376322975
 21
264.1637754827
 31
0.0
  0
ARC
  5
BA
  8
0
  6
CONTINUOUS
 62
     7
 10
226.2091043847
 20
272.9380808473
 30
0.0
 40
2.689999999999984
 50
355.0
 51
85.0
  0
ARC
  5
BB
  8
0
  6
CONTINUOUS
 62
     7
 10
226.2091043847
 20
272.9380808473
 30
0.0
 40
2.690000000000152
 50
265.0
 51
355.0
  0
POLYLINE
  5
BC
  8
0
  6
CONTINUOUS
 62
     7
 66
     1
 10
0.0
 20
0.0
 30
0.0
  0
VERTEX
  5
1F3
  8
0
  6
CONTINUOUS
 62
     7
 10
217.0592357747
 20
213.148934438
 30
0.0
  0
VERTEX
  5
1F4
  8
0
  6
CONTINUOUS
 62
     7
 10
216.7109667376
 20
213.350020236
 30
0.0
  0
VERTEX
  5
1F5
  8
0
  6
CONTINUOUS
 62
     7
 10
216.3955862349
 20
213.626083316
 30
0.0
  0
VERTEX
  5
1F6
  8
0
  6
CONTINUOUS
 62
     7
 10
216.0581510799
 20
214.0491134475
 30
0.0
  0
VERTEX
  5
1F7
  8
0
  6
CONTINUOUS
 62
     7
 10
215.7834470331
 20
214.5325103009
 30
0.0
  0
VERTEX
  5
1F8
  8
0
  6
CONTINUOUS
 62
     7
 10
215.5258911635
 20
215.1722453104
 30
0.0
  0
VERTEX
  5
1F9
  8
0
  6
CONTINUOUS
 62
     7
 10
215.3399063293
 20
215.8466191372
 30
0.0
  0
SEQEND
  5
321
  8
0
  6
CONTINUOUS
 62
     7
  0
POLYLINE
  5
BD
  8
0
  6
CONTINUOUS
 62
     7
 66
     1
 10
0.0
 20
0.0
 30
0.0
  0
VERTEX
  5
1FA
  8
0
  6
CONTINUOUS
 62
     7
 10
220.342127175
 20
218.6663608542
 30
0.0
  0
VERTEX
  5
1FB
  8
0
  6
CONTINUOUS
 62
     7
 10
220.1085270876
 20
216.6476467873
 30
0.0
  0
VERTEX
  5
1FC
  8
0
  6
CONTINUOUS
 62
     7
 10
219.8858093495
 20
215.5721089473
 30
0.0
  0
VERTEX
  5
1FD
  8
0
  6
CONTINUOUS
 62
     7
 10
219.5212196466
 20
214.5399896951
 30
0.0
  0
VERTEX
  5
1FE
  8
0
  6
CONTINUOUS
 62
     7
 10
219.1385307052
 20
213.8795582049
 30
0.0
  0
VERTEX
  5
1FF
  8
0
  6
CONTINUOUS
 62
     7
 10
218.8904270835
 20
213.584352167
 30
0.0
  0
VERTEX
  5
200
  8
0
  6
CONTINUOUS
 62
     7
 10
218.5999087696
 20
213.3318742041
 30
0.0
  0
VERTEX
  5
201
  8
0
  6
CONTINUOUS
 62
     7
 10
218.1140642893
 20
213.0842701555
 30
0.0
  0
VERTEX
  5
202
  8
0
  6
CONTINUOUS
 62
     7
 10
217.5693517438
 20
213.0198410715
 30
0.0
  0
VERTEX
  5
203
  8
0
  6
CONTINUOUS
 62
     7
 10
217.0592357747
 20
213.148934438
 30
0.0
  0
SEQEND
  5
320
  8
0
  6
CONTINUOUS
 62
     7
  0
LINE
  5
BE
  8
0
  6
CONTINUOUS
 62
     7
 10
220.5312964956
 20
220.9250089694
 30
0.0
 11
220.342127175
 21
218.6663608542
 31
0.0
  0
LINE
  5
BF
  8
0
  6
CONTINUOUS
 62
     7
 10
221.4900096658
 20
231.8831506484
 30
0.0
 11
220.5312964956
 21
220.9250089694
 31
0.0
  0
ARC
  5
C0
  8
0
  6
CONTINUOUS
 62
     7
 10
105.607597525
 20
202.4770510206
 30
0.0
 40
120.0000000000006
 50
357.9188963395
 51
14.1646231125
  0
LINE
  5
C1
  8
0
  6
CONTINUOUS
 62
     7
 10
213.8576404319
 20
198.9042424032
 30
0.0
 11
215.3399063293
 21
215.8466191372
 31
0.0
  0
LINE
  5
C2
  8
0
  6
CONTINUOUS
 62
     7
 10
221.4900096658
 20
231.8831506484
 30
0.0
 11
221.9591929403
 21
231.8421024308
 31
0.0
  0
LINE
  5
C3
  8
0
  6
CONTINUOUS
 62
     7
 10
226.4435533327
 20
275.6178445852
 30
0.0
 11
224.7322575697
 21
275.7675635644
 31
0.0
  0
LINE
  5
C4
  8
0
  6
CONTINUOUS
 62
     7
 10
225.8584490463
 20
270.2684838512
 30
0.0
 11
225.9746554367
 21
270.2583171094
 31
0.0
  0
LINE
  5
C5
  8
0
  6
CONTINUOUS
 62
     7
 10
224.7322575697
 20
275.7675635644
 30
0.0
 11
224.6841450086
 21
275.771330175
 31
0.0
  0
LINE
  5
C6
  8
0
  6
CONTINUOUS
 62
     7
 10
225.4189224901
 20
176.3180842795
 30
0.0
 11
225.4189224901
 21
174.3180842795
 31
0.0
  0
LINE
  5
C7
  8
0
  6
CONTINUOUS
 62
     7
 10
224.6189224901
 20
176.3180842795
 30
0.0
 11
224.6189224901
 21
184.1180842795
 31
0.0
  0
ARC
  5
C8
  8
0
  6
CONTINUOUS
 62
     7
 10
224.2189224901
 20
184.1180842795
 30
0.0
 40
0.4000000000000057
 50
0.0
 51
90.0
  0
LINE
  5
C9
  8
0
  6
CONTINUOUS
 62
     7
 10
224.2189224901
 20
184.5180842795
 30
0.0
 11
223.4189224901
 21
184.5180842795
 31
0.0
  0
LINE
  5
CA
  8
0
  6
CONTINUOUS
 62
     7
 10
215.4189224901
 20
184.5180842795
 30
0.0
 11
214.8189224901
 21
184.5180842795
 31
0.0
  0
ARC
  5
CB
  8
0
  6
CONTINUOUS
 62
     7
 10
214.8189224901
 20
184.1180842795
 30
0.0
 40
0.4000000000000057
 50
90.0
 51
180.0
  0
LINE
  5
CC
  8
0
  6
CONTINUOUS
 62
     7
 10
214.4189224901
 20
184.1180842795
 30
0.0
 11
214.4189224901
 21
183.5180842795
 31
0.0
  0
LINE
  5
CD
  8
0
  6
CONTINUOUS
 62
     7
 10
213.6189224901
 20
181.3180842795
 30
0.0
 11
213.6189224901
 21
176.3180842795
 31
0.0
  0
ARC
  5
CE
  8
0
  6
CONTINUOUS
 62
     7
 10
235.2280133992
 20
187.3180842795
 30
0.0
 40
24.30909090909089
 50
151.3013359141
 51
194.2894890274
  0
ARC
  5
CF
  8
0
  6
CONTINUOUS
 62
     7
 10
219.5189224901
 20
195.9180842795
 30
0.0
 40
6.399999999999999
 50
334.4805415091
 51
151.3013359141
  0
ARC
  5
D0
  8
0
  6
CONTINUOUS
 62
     7
 10
234.3189224901
 20
188.8526755865
 30
0.0
 40
10.00000000000003
 50
154.4805415091
 51
180.0
  0
LINE
  5
D1
  8
0
  6
CONTINUOUS
 62
     7
 10
224.3189224901
 20
188.8526755865
 30
0.0
 11
224.3189224901
 21
185.3180842795
 31
0.0
  0
LINE
  5
D2
  8
0
  6
CONTINUOUS
 62
     7
 10
224.4189224901
 20
185.3180842795
 30
0.0
 11
224.3189224901
 21
185.3180842795
 31
0.0
  0
ARC
  5
D3
  8
0
  6
CONTINUOUS
 62
     7
 10
224.4189224901
 20
184.3180842795
 30
0.0
 40
1.0
 50
0.0
 51
90.0
  0
LINE
  5
D4
  8
0
  6
CONTINUOUS
 62
     7
 10
225.4189224901
 20
176.3180842795
 30
0.0
 11
225.4189224901
 21
184.3180842795
 31
0.0
  0
LINE
  5
D5
  8
0
  6
CONTINUOUS
 62
     7
 10
213.6189224901
 20
181.3180842795
 30
0.0
 11
211.6710207892
 21
181.3180842795
 31
0.0
  0
LINE
  5
D6
  8
0
  6
CONTINUOUS
 62
     7
 10
214.4189224901
 20
175.5180842795
 30
0.0
 11
214.4189224901
 21
174.3180842795
 31
0.0
  0
LINE
  5
D7
  8
0
  6
CONTINUOUS
 62
     7
 10
214.4189224901
 20
174.3180842795
 30
0.0
 11
213.6189224901
 21
174.3180842795
 31
0.0
  0
LINE
  5
D8
  8
0
  6
CONTINUOUS
 62
     7
 10
213.6189224901
 20
174.3180842795
 30
0.0
 11
213.6189224901
 21
176.3180842795
 31
0.0
  0
LINE
  5
D9
  8
0
  6
CONTINUOUS
 62
     7
 10
225.4189224901
 20
176.3180842795
 30
0.0
 11
225.4189224901
 21
174.3180842795
 31
0.0
  0
LINE
  5
DA
  8
0
  6
CONTINUOUS
 62
     7
 10
225.4189224901
 20
174.3180842795
 30
0.0
 11
224.6189224901
 21
174.3180842795
 31
0.0
  0
LINE
  5
DB
  8
0
  6
CONTINUOUS
 62
     7
 10
224.6189224901
 20
174.3180842795
 30
0.0
 11
224.6189224901
 21
176.3180842795
 31
0.0
  0
LINE
  5
DC
  8
0
  6
CONTINUOUS
 62
     7
 10
215.4189224901
 20
184.5180842795
 30
0.0
 11
223.4189224901
 21
184.5180842795
 31
0.0
  0
ARC
  5
DD
  8
0
  6
CONTINUOUS
 62
     7
 10
215.4189224901
 20
183.5180842795
 30
0.0
 40
1.0
 50
90.0
 51
180.0
  0
LINE
  5
DE
  8
0
  6
CONTINUOUS
 62
     7
 10
214.4189224901
 20
175.5180842795
 30
0.0
 11
214.4189224901
 21
183.5180842795
 31
0.0
  0
ARC
  5
DF
  8
0
  6
CONTINUOUS
 62
     7
 10
215.4189224901
 20
175.5180842795
 30
0.0
 40
1.000000000000028
 50
180.0
 51
270.0
  0
LINE
  5
E0
  8
0
  6
CONTINUOUS
 62
     7
 10
223.4189224901
 20
174.5180842795
 30
0.0
 11
215.4189224901
 21
174.5180842795
 31
0.0
  0
ARC
  5
E1
  8
0
  6
CONTINUOUS
 62
     7
 10
223.4189224901
 20
183.5180842795
 30
0.0
 40
1.0
 50
0.0
 51
90.0
  0
LINE
  5
E2
  8
0
  6
CONTINUOUS
 62
     7
 10
224.4189224901
 20
183.5180842795
 30
0.0
 11
224.4189224901
 21
175.5180842795
 31
0.0
  0
ARC
  5
E3
  8
0
  6
CONTINUOUS
 62
     7
 10
223.4189224901
 20
175.5180842795
 30
0.0
 40
1.000000000000028
 50
270.0
 51
0.0
  0
LINE
  5
E4
  8
0
  6
CONTINUOUS
 62
     7
 10
207.4189224901
 20
109.3180842795
 30
0.0
 11
207.4189224901
 21
110.5180842795
 31
0.0
  0
LINE
  5
E5
  8
0
  6
CONTINUOUS
 62
     7
 10
211.4189224901
 20
109.3180842795
 30
0.0
 11
207.4189224901
 21
109.3180842795
 31
0.0
  0
LINE
  5
E6
  8
0
  6
CONTINUOUS
 62
     7
 10
207.4189224901
 20
110.5180842795
 30
0.0
 11
211.4189224901
 21
110.5180842795
 31
0.0
  0
LINE
  5
E7
  8
0
  6
CONTINUOUS
 62
     7
 10
211.4189224901
 20
109.3180842795
 30
0.0
 11
213.4189224901
 21
109.3180842795
 31
0.0
  0
LINE
  5
E8
  8
0
  6
CONTINUOUS
 62
     7
 10
211.4189224901
 20
110.5180842795
 30
0.0
 11
213.4189224901
 21
110.5180842795
 31
0.0
  0
LINE
  5
E9
  8
0
  6
CONTINUOUS
 62
     7
 10
213.4189224901
 20
109.3180842795
 30
0.0
 11
240.7873435427
 21
109.3180842795
 31
0.0
  0
LINE
  5
EA
  8
0
  6
CONTINUOUS
 62
     7
 10
240.7873435427
 20
110.5180842795
 30
0.0
 11
213.4189224901
 21
110.5180842795
 31
0.0
  0
LINE
  5
EB
  8
0
  6
CONTINUOUS
 62
     7
 10
243.4189224901
 20
110.5180842795
 30
0.0
 11
243.4189224901
 21
109.3180842795
 31
0.0
  0
LINE
  5
EC
  8
0
  6
CONTINUOUS
 62
     7
 10
243.4189224901
 20
109.3180842795
 30
0.0
 11
240.7873435427
 21
109.3180842795
 31
0.0
  0
LINE
  5
ED
  8
0
  6
CONTINUOUS
 62
     7
 10
240.7873435427
 20
110.5180842795
 30
0.0
 11
243.4189224901
 21
110.5180842795
 31
0.0
  0
LINE
  5
EE
  8
0
  6
CONTINUOUS
 62
     7
 10
214.4189224901
 20
110.5180842795
 30
0.0
 11
214.4189224901
 21
174.3180842795
 31
0.0
  0
LINE
  5
EF
  8
0
  6
CONTINUOUS
 62
     7
 10
224.4189224901
 20
175.5180842795
 30
0.0
 11
224.4189224901
 21
110.5180842795
 31
0.0
  0
POLYLINE
  5
F0
  8
0
  6
CONTINUOUS
 62
     7
 66
     1
 10
0.0
 20
0.0
 30
0.0
  0
VERTEX
  5
204
  8
0
  6
CONTINUOUS
 62
     7
 10
101.5936303535
 20
50.7820146558
 30
0.0
  0
VERTEX
  5
205
  8
0
  6
CONTINUOUS
 62
     7
 10
102.3845865868
 20
50.8929382072
 30
0.0
  0
VERTEX
  5
206
  8
0
  6
CONTINUOUS
 62
     7
 10
103.2850635667
 20
51.0291630545
 30
0.0
  0
VERTEX
  5
207
  8
0
  6
CONTINUOUS
 62
     7
 10
104.1759635178
 20
51.1740286115
 30
0.0
  0
VERTEX
  5
208
  8
0
  6
CONTINUOUS
 62
     7
 10
105.052434433
 20
51.3268301029
 30
0.0
  0
VERTEX
  5
209
  8
0
  6
CONTINUOUS
 62
     7
 10
105.9001745446
 20
51.4845706043
 30
0.0
  0
VERTEX
  5
20A
  8
0
  6
CONTINUOUS
 62
     7
 10
106.732157834
 20
51.6490296649
 30
0.0
  0
VERTEX
  5
20B
  8
0
  6
CONTINUOUS
 62
     7
 10
107.5466508323
 20
51.8196264027
 30
0.0
  0
VERTEX
  5
20C
  8
0
  6
CONTINUOUS
 62
     7
 10
108.3373049737
 20
51.9948658848
 30
0.0
  0
VERTEX
  5
20D
  8
0
  6
CONTINUOUS
 62
     7
 10
109.0979812889
 20
52.1732279171
 30
0.0
  0
VERTEX
  5
20E
  8
0
  6
CONTINUOUS
 62
     7
 10
109.8230115028
 20
52.3532477026
 30
0.0
  0
VERTEX
  5
20F
  8
0
  6
CONTINUOUS
 62
     7
 10
110.5075761398
 20
52.5336471318
 30
0.0
  0
VERTEX
  5
210
  8
0
  6
CONTINUOUS
 62
     7
 10
111.1466275796
 20
52.7126960031
 30
0.0
  0
VERTEX
  5
211
  8
0
  6
CONTINUOUS
 62
     7
 10
111.7313503727
 20
52.887023803
 30
0.0
  0
VERTEX
  5
212
  8
0
  6
CONTINUOUS
 62
     7
 10
112.2957908427
 20
53.0670612425
 30
0.0
  0
VERTEX
  5
213
  8
0
  6
CONTINUOUS
 62
     7
 10
112.8249006482
 20
53.249351599
 30
0.0
  0
VERTEX
  5
214
  8
0
  6
CONTINUOUS
 62
     7
 10
113.3240001465
 20
53.4376717188
 30
0.0
  0
VERTEX
  5
215
  8
0
  6
CONTINUOUS
 62
     7
 10
113.8078427504
 20
53.6424956904
 30
0.0
  0
VERTEX
  5
216
  8
0
  6
CONTINUOUS
 62
     7
 10
114.322603016
 20
53.8997255365
 30
0.0
  0
VERTEX
  5
217
  8
0
  6
CONTINUOUS
 62
     7
 10
114.6102457258
 20
54.0722497586
 30
0.0
  0
VERTEX
  5
218
  8
0
  6
CONTINUOUS
 62
     7
 10
114.8462546388
 20
54.2372516348
 30
0.0
  0
VERTEX
  5
219
  8
0
  6
CONTINUOUS
 62
     7
 10
115.068534193
 20
54.4193666134
 30
0.0
  0
VERTEX
  5
21A
  8
0
  6
CONTINUOUS
 62
     7
 10
115.2807481396
 20
54.6262842408
 30
0.0
  0
VERTEX
  5
21B
  8
0
  6
CONTINUOUS
 62
     7
 10
115.4838611076
 20
54.8670549919
 30
0.0
  0
VERTEX
  5
21C
  8
0
  6
CONTINUOUS
 62
     7
 10
115.6723677164
 20
55.1474685209
 30
0.0
  0
VERTEX
  5
21D
  8
0
  6
CONTINUOUS
 62
     7
 10
115.8353586065
 20
55.4666770972
 30
0.0
  0
VERTEX
  5
21E
  8
0
  6
CONTINUOUS
 62
     7
 10
115.9616077045
 20
55.8196469113
 30
0.0
  0
VERTEX
  5
21F
  8
0
  6
CONTINUOUS
 62
     7
 10
116.0414692533
 20
56.1972735029
 30
0.0
  0
VERTEX
  5
220
  8
0
  6
CONTINUOUS
 62
     7
 10
116.0674292048
 20
56.5719946867
 30
0.0
  0
SEQEND
  5
31F
  8
0
  6
CONTINUOUS
 62
     7
  0
POLYLINE
  5
F1
  8
0
  6
CONTINUOUS
 62
     7
 66
     1
 10
0.0
 20
0.0
 30
0.0
  0
VERTEX
  5
221
  8
0
  6
CONTINUOUS
 62
     7
 10
35.9592912814
 20
56.5885472166
 30
0.0
  0
VERTEX
  5
222
  8
0
  6
CONTINUOUS
 62
     7
 10
35.9596841035
 20
56.3772979267
 30
0.0
  0
VERTEX
  5
223
  8
0
  6
CONTINUOUS
 62
     7
 10
36.0151632106
 20
55.9939932188
 30
0.0
  0
VERTEX
  5
224
  8
0
  6
CONTINUOUS
 62
     7
 10
36.1171260756
 20
55.6378002257
 30
0.0
  0
VERTEX
  5
225
  8
0
  6
CONTINUOUS
 62
     7
 10
36.2564800603
 20
55.3140273382
 30
0.0
  0
VERTEX
  5
226
  8
0
  6
CONTINUOUS
 62
     7
 10
36.423288678
 20
55.0264344506
 30
0.0
  0
VERTEX
  5
227
  8
0
  6
CONTINUOUS
 62
     7
 10
36.6080052278
 20
54.7757857185
 30
0.0
  0
VERTEX
  5
228
  8
0
  6
CONTINUOUS
 62
     7
 10
36.802843811
 20
54.5598511659
 30
0.0
  0
VERTEX
  5
229
  8
0
  6
CONTINUOUS
 62
     7
 10
37.0043312091
 20
54.3727693209
 30
0.0
  0
VERTEX
  5
22A
  8
0
  6
CONTINUOUS
 62
     7
 10
37.2148953404
 20
54.206068756
 30
0.0
  0
VERTEX
  5
22B
  8
0
  6
CONTINUOUS
 62
     7
 10
37.4437683443
 20
54.049826779
 30
0.0
  0
VERTEX
  5
22C
  8
0
  6
CONTINUOUS
 62
     7
 10
37.713270746
 20
53.8904523848
 30
0.0
  0
VERTEX
  5
22D
  8
0
  6
CONTINUOUS
 62
     7
 10
38.0864682264
 20
53.7005785693
 30
0.0
  0
VERTEX
  5
22E
  8
0
  6
CONTINUOUS
 62
     7
 10
38.6279422659
 20
53.4652021706
 30
0.0
  0
VERTEX
  5
22F
  8
0
  6
CONTINUOUS
 62
     7
 10
39.1215785775
 20
53.2763169746
 30
0.0
  0
VERTEX
  5
230
  8
0
  6
CONTINUOUS
 62
     7
 10
39.6334019641
 20
53.0975734531
 30
0.0
  0
VERTEX
  5
231
  8
0
  6
CONTINUOUS
 62
     7
 10
40.2244877853
 20
52.9069034951
 30
0.0
  0
VERTEX
  5
232
  8
0
  6
CONTINUOUS
 62
     7
 10
40.8429038555
 20
52.7213482968
 30
0.0
  0
VERTEX
  5
233
  8
0
  6
CONTINUOUS
 62
     7
 10
41.4905139868
 20
52.5393560134
 30
0.0
  0
VERTEX
  5
234
  8
0
  6
CONTINUOUS
 62
     7
 10
42.1641378587
 20
52.361300359
 30
0.0
  0
VERTEX
  5
235
  8
0
  6
CONTINUOUS
 62
     7
 10
42.8867487894
 20
52.1811733665
 30
0.0
  0
VERTEX
  5
236
  8
0
  6
CONTINUOUS
 62
     7
 10
43.6440328053
 20
52.0029470477
 30
0.0
  0
VERTEX
  5
237
  8
0
  6
CONTINUOUS
 62
     7
 10
44.433116721
 20
51.8275202861
 30
0.0
  0
VERTEX
  5
238
  8
0
  6
CONTINUOUS
 62
     7
 10
45.250488019
 20
51.6559571568
 30
0.0
  0
VERTEX
  5
239
  8
0
  6
CONTINUOUS
 62
     7
 10
46.0922148887
 20
51.4893993827
 30
0.0
  0
VERTEX
  5
23A
  8
0
  6
CONTINUOUS
 62
     7
 10
46.9541439307
 20
51.3290018431
 30
0.0
  0
VERTEX
  5
23B
  8
0
  6
CONTINUOUS
 62
     7
 10
47.831817836
 20
51.1759285872
 30
0.0
  0
VERTEX
  5
23C
  8
0
  6
CONTINUOUS
 62
     7
 10
48.7153796167
 20
51.0320134126
 30
0.0
  0
VERTEX
  5
23D
  8
0
  6
CONTINUOUS
 62
     7
 10
49.6111587608
 20
50.8961581324
 30
0.0
  0
VERTEX
  5
23E
  8
0
  6
CONTINUOUS
 62
     7
 10
50.4253989611
 20
50.7816463969
 30
0.0
  0
SEQEND
  5
31E
  8
0
  6
CONTINUOUS
 62
     7
  0
ARC
  5
F2
  8
0
  6
CONTINUOUS
 62
     7
 10
76.0095344516
 20
238.4374211515
 30
0.0
 40
189.3926849725035
 50
262.2364774413
 51
277.7635225587
  0
POLYLINE
  5
F3
  8
0
  6
CONTINUOUS
 62
     7
 66
     1
 10
0.0
 20
0.0
 30
0.0
  0
VERTEX
  5
23F
  8
0
  6
CONTINUOUS
 62
     7
 10
111.7041832738
 20
58.5994309045
 30
0.0
  0
VERTEX
  5
240
  8
0
  6
CONTINUOUS
 62
     7
 10
111.7064661292
 20
58.6008161907
 30
0.0
  0
VERTEX
  5
241
  8
0
  6
CONTINUOUS
 62
     7
 10
111.6694630181
 20
58.5816952563
 30
0.0
  0
VERTEX
  5
242
  8
0
  6
CONTINUOUS
 62
     7
 10
111.5819030484
 20
58.5404171376
 30
0.0
  0
VERTEX
  5
243
  8
0
  6
CONTINUOUS
 62
     7
 10
111.435476192
 20
58.4772373636
 30
0.0
  0
VERTEX
  5
244
  8
0
  6
CONTINUOUS
 62
     7
 10
111.2249760551
 20
58.3936508945
 30
0.0
  0
VERTEX
  5
245
  8
0
  6
CONTINUOUS
 62
     7
 10
110.9477915794
 20
58.2917631384
 30
0.0
  0
VERTEX
  5
246
  8
0
  6
CONTINUOUS
 62
     7
 10
110.6041351047
 20
58.1741840156
 30
0.0
  0
VERTEX
  5
247
  8
0
  6
CONTINUOUS
 62
     7
 10
110.1963872715
 20
58.043706834
 30
0.0
  0
VERTEX
  5
248
  8
0
  6
CONTINUOUS
 62
     7
 10
109.7283262715
 20
57.9030700109
 30
0.0
  0
VERTEX
  5
249
  8
0
  6
CONTINUOUS
 62
     7
 10
109.2045103332
 20
57.7548316182
 30
0.0
  0
VERTEX
  5
24A
  8
0
  6
CONTINUOUS
 62
     7
 10
108.6308212318
 20
57.6017404589
 30
0.0
  0
VERTEX
  5
24B
  8
0
  6
CONTINUOUS
 62
     7
 10
108.015513883
 20
57.4467624415
 30
0.0
  0
VERTEX
  5
24C
  8
0
  6
CONTINUOUS
 62
     7
 10
107.3562787373
 20
57.2896699201
 30
0.0
  0
VERTEX
  5
24D
  8
0
  6
CONTINUOUS
 62
     7
 10
106.6515532027
 20
57.130706231
 30
0.0
  0
VERTEX
  5
24E
  8
0
  6
CONTINUOUS
 62
     7
 10
105.9084269215
 20
56.9721582928
 30
0.0
  0
VERTEX
  5
24F
  8
0
  6
CONTINUOUS
 62
     7
 10
105.1345938362
 20
56.8162739298
 30
0.0
  0
VERTEX
  5
250
  8
0
  6
CONTINUOUS
 62
     7
 10
104.3393928087
 20
56.6654406564
 30
0.0
  0
VERTEX
  5
251
  8
0
  6
CONTINUOUS
 62
     7
 10
103.5314742234
 20
56.5216969347
 30
0.0
  0
VERTEX
  5
252
  8
0
  6
CONTINUOUS
 62
     7
 10
102.7172209287
 20
56.386366257
 30
0.0
  0
VERTEX
  5
253
  8
0
  6
CONTINUOUS
 62
     7
 10
101.8878568188
 20
56.2578870937
 30
0.0
  0
VERTEX
  5
254
  8
0
  6
CONTINUOUS
 62
     7
 10
101.0445521184
 20
56.1365486093
 30
0.0
  0
VERTEX
  5
255
  8
0
  6
CONTINUOUS
 62
     7
 10
100.866842006
 20
56.1129168079
 30
0.0
  0
SEQEND
  5
31D
  8
0
  6
CONTINUOUS
 62
     7
  0
POLYLINE
  5
F4
  8
0
  6
CONTINUOUS
 62
     7
 66
     1
 10
0.0
 20
0.0
 30
0.0
  0
VERTEX
  5
256
  8
0
  6
CONTINUOUS
 62
     7
 10
51.152486412
 20
56.1126447795
 30
0.0
  0
VERTEX
  5
257
  8
0
  6
CONTINUOUS
 62
     7
 10
50.4870379615
 20
56.2053677986
 30
0.0
  0
VERTEX
  5
258
  8
0
  6
CONTINUOUS
 62
     7
 10
49.6433725545
 20
56.3322551101
 30
0.0
  0
VERTEX
  5
259
  8
0
  6
CONTINUOUS
 62
     7
 10
48.80788545
 20
56.4673411083
 30
0.0
  0
VERTEX
  5
25A
  8
0
  6
CONTINUOUS
 62
     7
 10
47.9868954597
 20
56.6095914506
 30
0.0
  0
VERTEX
  5
25B
  8
0
  6
CONTINUOUS
 62
     7
 10
47.1911808894
 20
56.7567194925
 30
0.0
  0
VERTEX
  5
25C
  8
0
  6
CONTINUOUS
 62
     7
 10
46.4159080141
 20
56.9090938783
 30
0.0
  0
VERTEX
  5
25D
  8
0
  6
CONTINUOUS
 62
     7
 10
45.664567634
 20
57.0656707506
 30
0.0
  0
VERTEX
  5
25E
  8
0
  6
CONTINUOUS
 62
     7
 10
44.9428146384
 20
57.224903614
 30
0.0
  0
VERTEX
  5
25F
  8
0
  6
CONTINUOUS
 62
     7
 10
44.2566350131
 20
57.3850472153
 30
0.0
  0
VERTEX
  5
260
  8
0
  6
CONTINUOUS
 62
     7
 10
43.6116222527
 20
57.5443060784
 30
0.0
  0
VERTEX
  5
261
  8
0
  6
CONTINUOUS
 62
     7
 10
43.0132129157
 20
57.7007736387
 30
0.0
  0
VERTEX
  5
262
  8
0
  6
CONTINUOUS
 62
     7
 10
42.4660821452
 20
57.8525343656
 30
0.0
  0
VERTEX
  5
263
  8
0
  6
CONTINUOUS
 62
     7
 10
41.972010257
 20
57.9981475449
 30
0.0
  0
VERTEX
  5
264
  8
0
  6
CONTINUOUS
 62
     7
 10
41.5297195945
 20
58.1370653696
 30
0.0
  0
VERTEX
  5
265
  8
0
  6
CONTINUOUS
 62
     7
 10
41.1459748672
 20
58.2661449839
 30
0.0
  0
VERTEX
  5
266
  8
0
  6
CONTINUOUS
 62
     7
 10
40.8278725262
 20
58.3815064261
 30
0.0
  0
VERTEX
  5
267
  8
0
  6
CONTINUOUS
 62
     7
 10
40.6050248967
 20
58.4690137214
 30
0.0
  0
VERTEX
  5
268
  8
0
  6
CONTINUOUS
 62
     7
 10
40.4470299994
 20
58.5364061592
 30
0.0
  0
VERTEX
  5
269
  8
0
  6
CONTINUOUS
 62
     7
 10
40.3513324494
 20
58.5810534213
 30
0.0
  0
VERTEX
  5
26A
  8
0
  6
CONTINUOUS
 62
     7
 10
40.3118332587
 20
58.6012810228
 30
0.0
  0
VERTEX
  5
26B
  8
0
  6
CONTINUOUS
 62
     7
 10
40.3146234361
 20
58.5995879701
 30
0.0
  0
SEQEND
  5
31C
  8
0
  6
CONTINUOUS
 62
     7
  0
ARC
  5
F5
  8
0
  6
CONTINUOUS
 62
     7
 10
76.0095344516
 20
238.4373809132
 30
0.0
 40
184.0126451030057
 50
262.2364820603
 51
277.7635179397
  0
LINE
  5
F6
  8
0
  6
CONTINUOUS
 62
     7
 10
35.9507778187
 20
60.0719249654
 30
0.0
 11
35.9507778187
 21
56.5856952555
 31
0.0
  0
LINE
  5
F7
  8
0
  6
CONTINUOUS
 62
     7
 10
116.0682910845
 20
56.5856952555
 30
0.0
 11
116.0682910845
 21
60.0719249654
 31
0.0
  0
LINE
  5
F8
  8
0
  6
CONTINUOUS
 62
     7
 10
112.7095344516
 20
52.3362546525
 30
0.0
 11
113.7095344516
 21
52.3362546525
 31
0.0
  0
LINE
  5
F9
  8
0
  6
CONTINUOUS
 62
     7
 10
38.3095344516
 20
52.3362546525
 30
0.0
 11
39.3095344516
 21
52.3362546525
 31
0.0
  0
POLYLINE
  5
FA
  8
0
  6
CONTINUOUS
 62
     7
 66
     1
 10
0.0
 20
0.0
 30
0.0
  0
VERTEX
  5
26C
  8
0
  6
CONTINUOUS
 62
     7
 10
51.1522856292
 20
61.7438469022
 30
0.0
  0
VERTEX
  5
26D
  8
0
  6
CONTINUOUS
 62
     7
 10
50.3816043101
 20
61.8483528675
 30
0.0
  0
VERTEX
  5
26E
  8
0
  6
CONTINUOUS
 62
     7
 10
49.5058978124
 20
61.9657195891
 30
0.0
  0
VERTEX
  5
26F
  8
0
  6
CONTINUOUS
 62
     7
 10
48.6409995564
 20
62.0802934769
 30
0.0
  0
VERTEX
  5
270
  8
0
  6
CONTINUOUS
 62
     7
 10
47.7911207007
 20
62.1914683462
 30
0.0
  0
VERTEX
  5
271
  8
0
  6
CONTINUOUS
 62
     7
 10
46.9630100493
 20
62.2980304141
 30
0.0
  0
VERTEX
  5
272
  8
0
  6
CONTINUOUS
 62
     7
 10
46.1496943627
 20
62.4005452621
 30
0.0
  0
VERTEX
  5
273
  8
0
  6
CONTINUOUS
 62
     7
 10
45.352569943
 20
62.4984323133
 30
0.0
  0
VERTEX
  5
274
  8
0
  6
CONTINUOUS
 62
     7
 10
44.5784027537
 20
62.5904128449
 30
0.0
  0
VERTEX
  5
275
  8
0
  6
CONTINUOUS
 62
     7
 10
43.8336970491
 20
62.6752446117
 30
0.0
  0
VERTEX
  5
276
  8
0
  6
CONTINUOUS
 62
     7
 10
43.1243499715
 20
62.7517623792
 30
0.0
  0
VERTEX
  5
277
  8
0
  6
CONTINUOUS
 62
     7
 10
42.4553965611
 20
62.8188953542
 30
0.0
  0
VERTEX
  5
278
  8
0
  6
CONTINUOUS
 62
     7
 10
41.8281644213
 20
62.8758479338
 30
0.0
  0
VERTEX
  5
279
  8
0
  6
CONTINUOUS
 62
     7
 10
41.2341852214
 20
62.9225942506
 30
0.0
  0
VERTEX
  5
27A
  8
0
  6
CONTINUOUS
 62
     7
 10
40.6721962139
 20
62.9580933468
 30
0.0
  0
VERTEX
  5
27B
  8
0
  6
CONTINUOUS
 62
     7
 10
40.1379443622
 20
62.9807671406
 30
0.0
  0
VERTEX
  5
27C
  8
0
  6
CONTINUOUS
 62
     7
 10
39.6189668898
 20
62.9875468653
 30
0.0
  0
VERTEX
  5
27D
  8
0
  6
CONTINUOUS
 62
     7
 10
39.0777749946
 20
62.9694171829
 30
0.0
  0
VERTEX
  5
27E
  8
0
  6
CONTINUOUS
 62
     7
 10
38.7237031219
 20
62.9360045731
 30
0.0
  0
VERTEX
  5
27F
  8
0
  6
CONTINUOUS
 62
     7
 10
38.4247005372
 20
62.8887316213
 30
0.0
  0
VERTEX
  5
280
  8
0
  6
CONTINUOUS
 62
     7
 10
38.1422375925
 20
62.8234623436
 30
0.0
  0
VERTEX
  5
281
  8
0
  6
CONTINUOUS
 62
     7
 10
37.8659608565
 20
62.7359900079
 30
0.0
  0
VERTEX
  5
282
  8
0
  6
CONTINUOUS
 62
     7
 10
37.5876870418
 20
62.6195991864
 30
0.0
  0
VERTEX
  5
283
  8
0
  6
CONTINUOUS
 62
     7
 10
37.3048572338
 20
62.4662630508
 30
0.0
  0
VERTEX
  5
284
  8
0
  6
CONTINUOUS
 62
     7
 10
37.0223342609
 20
62.2692341252
 30
0.0
  0
VERTEX
  5
285
  8
0
  6
CONTINUOUS
 62
     7
 10
36.7516941364
 20
62.0263080546
 30
0.0
  0
VERTEX
  5
286
  8
0
  6
CONTINUOUS
 62
     7
 10
36.5053052172
 20
61.738870267
 30
0.0
  0
VERTEX
  5
287
  8
0
  6
CONTINUOUS
 62
     7
 10
36.295113157
 20
61.4125379887
 30
0.0
  0
VERTEX
  5
288
  8
0
  6
CONTINUOUS
 62
     7
 10
36.1302187988
 20
61.0550605376
 30
0.0
  0
VERTEX
  5
289
  8
0
  6
CONTINUOUS
 62
     7
 10
36.0188896649
 20
60.6724137613
 30
0.0
  0
SEQEND
  5
31B
  8
0
  6
CONTINUOUS
 62
     7
  0
POLYLINE
  5
FB
  8
0
  6
CONTINUOUS
 62
     7
 66
     1
 10
0.0
 20
0.0
 30
0.0
  0
VERTEX
  5
28A
  8
0
  6
CONTINUOUS
 62
     7
 10
115.9964779219
 20
60.6716155778
 30
0.0
  0
VERTEX
  5
28B
  8
0
  6
CONTINUOUS
 62
     7
 10
115.9081864818
 20
60.9982767551
 30
0.0
  0
VERTEX
  5
28C
  8
0
  6
CONTINUOUS
 62
     7
 10
115.7466515587
 20
61.3677950506
 30
0.0
  0
VERTEX
  5
28D
  8
0
  6
CONTINUOUS
 62
     7
 10
115.5434082035
 20
61.6965941203
 30
0.0
  0
VERTEX
  5
28E
  8
0
  6
CONTINUOUS
 62
     7
 10
115.3084977496
 20
61.9821694989
 30
0.0
  0
VERTEX
  5
28F
  8
0
  6
CONTINUOUS
 62
     7
 10
115.0523510884
 20
62.2232770538
 30
0.0
  0
VERTEX
  5
290
  8
0
  6
CONTINUOUS
 62
     7
 10
114.7855046328
 20
62.4204673392
 30
0.0
  0
VERTEX
  5
291
  8
0
  6
CONTINUOUS
 62
     7
 10
114.5168368316
 20
62.576908439
 30
0.0
  0
VERTEX
  5
292
  8
0
  6
CONTINUOUS
 62
     7
 10
114.2524764392
 20
62.6977242863
 30
0.0
  0
VERTEX
  5
293
  8
0
  6
CONTINUOUS
 62
     7
 10
113.9928700802
 20
62.7897272135
 30
0.0
  0
VERTEX
  5
294
  8
0
  6
CONTINUOUS
 62
     7
 10
113.7320877251
 20
62.8596670974
 30
0.0
  0
VERTEX
  5
295
  8
0
  6
CONTINUOUS
 62
     7
 10
113.4560975817
 20
62.9130766195
 30
0.0
  0
VERTEX
  5
296
  8
0
  6
CONTINUOUS
 62
     7
 10
113.1380716203
 20
62.9532869105
 30
0.0
  0
VERTEX
  5
297
  8
0
  6
CONTINUOUS
 62
     7
 10
112.7627337195
 20
62.9786364812
 30
0.0
  0
VERTEX
  5
298
  8
0
  6
CONTINUOUS
 62
     7
 10
112.1634357776
 20
62.9860946831
 30
0.0
  0
VERTEX
  5
299
  8
0
  6
CONTINUOUS
 62
     7
 10
111.641487605
 20
62.9716020294
 30
0.0
  0
VERTEX
  5
29A
  8
0
  6
CONTINUOUS
 62
     7
 10
111.1081608348
 20
62.9438226618
 30
0.0
  0
VERTEX
  5
29B
  8
0
  6
CONTINUOUS
 62
     7
 10
110.4969836821
 20
62.9007643129
 30
0.0
  0
VERTEX
  5
29C
  8
0
  6
CONTINUOUS
 62
     7
 10
109.8639902563
 20
62.8469835704
 30
0.0
  0
VERTEX
  5
29D
  8
0
  6
CONTINUOUS
 62
     7
 10
109.2078184588
 20
62.7838948778
 30
0.0
  0
VERTEX
  5
29E
  8
0
  6
CONTINUOUS
 62
     7
 10
108.5093267579
 20
62.7108565748
 30
0.0
  0
VERTEX
  5
29F
  8
0
  6
CONTINUOUS
 62
     7
 10
107.7808217104
 20
62.6297918957
 30
0.0
  0
VERTEX
  5
2A0
  8
0
  6
CONTINUOUS
 62
     7
 10
107.020269382
 20
62.5410334399
 30
0.0
  0
VERTEX
  5
2A1
  8
0
  6
CONTINUOUS
 62
     7
 10
106.2310162011
 20
62.445431719
 30
0.0
  0
VERTEX
  5
2A2
  8
0
  6
CONTINUOUS
 62
     7
 10
105.4169968926
 20
62.3438924006
 30
0.0
  0
VERTEX
  5
2A3
  8
0
  6
CONTINUOUS
 62
     7
 10
104.5824945959
 20
62.2373567707
 30
0.0
  0
VERTEX
  5
2A4
  8
0
  6
CONTINUOUS
 62
     7
 10
103.7319409345
 20
62.126778737
 30
0.0
  0
VERTEX
  5
2A5
  8
0
  6
CONTINUOUS
 62
     7
 10
102.872928993
 20
62.0135490641
 30
0.0
  0
VERTEX
  5
2A6
  8
0
  6
CONTINUOUS
 62
     7
 10
102.00535808
 20
61.8978524536
 30
0.0
  0
VERTEX
  5
2A7
  8
0
  6
CONTINUOUS
 62
     7
 10
101.1308356746
 20
61.7798641356
 30
0.0
  0
VERTEX
  5
2A8
  8
0
  6
CONTINUOUS
 62
     7
 10
100.8666635776
 20
61.7438001451
 30
0.0
  0
SEQEND
  5
31A
  8
0
  6
CONTINUOUS
 62
     7
  0
LINE
  5
FC
  8
0
  6
CONTINUOUS
 62
     7
 10
116.0081071127
 20
60.6091022885
 30
0.0
 11
115.9982066938
 21
60.6714477567
 31
0.0
  0
POLYLINE
  5
FD
  8
0
  6
CONTINUOUS
 62
     7
 66
     1
 10
0.0
 20
0.0
 30
0.0
  0
VERTEX
  5
2A9
  8
0
  6
CONTINUOUS
 62
     7
 10
36.0232080094
 20
60.6706082179
 30
0.0
  0
VERTEX
  5
2AA
  8
0
  6
CONTINUOUS
 62
     7
 10
35.9690231504
 20
60.3921229247
 30
0.0
  0
VERTEX
  5
2AB
  8
0
  6
CONTINUOUS
 62
     7
 10
35.9556343875
 20
60.073058181
 30
0.0
  0
SEQEND
  5
319
  8
0
  6
CONTINUOUS
 62
     7
  0
ARC
  5
FE
  8
0
  6
CONTINUOUS
 62
     7
 10
76.0095344516
 20
244.0693850095
 30
0.0
 40
184.0126451030042
 50
262.2364820603
 51
277.7635179397
  0
LINE
  5
FF
  8
0
  6
CONTINUOUS
 62
     7
 10
114.0095344516
 20
52.0249296875
 30
0.0
 11
117.4095344516
 21
52.0249296875
 31
0.0
  0
LINE
  5
100
  8
0
  6
CONTINUOUS
 62
     7
 10
114.0095344516
 20
64.4249296875
 30
0.0
 11
96.6095344516
 21
64.4249296875
 31
0.0
  0
LINE
  5
101
  8
0
  6
CONTINUOUS
 62
     7
 10
110.0950242923
 20
52.4249296875
 30
0.0
 11
112.7095344516
 21
52.4249296875
 31
0.0
  0
LINE
  5
102
  8
0
  6
CONTINUOUS
 62
     7
 10
113.7095344516
 20
52.4249296875
 30
0.0
 11
114.0095344516
 21
52.4249296875
 31
0.0
  0
LINE
  5
103
  8
0
  6
CONTINUOUS
 62
     7
 10
117.4095344516
 20
67.0249296875
 30
0.0
 11
114.0095344516
 21
67.0249296875
 31
0.0
  0
LINE
  5
104
  8
0
  6
CONTINUOUS
 62
     7
 10
34.6095344516
 20
52.0249296875
 30
0.0
 11
38.0095344516
 21
52.0249296875
 31
0.0
  0
LINE
  5
105
  8
0
  6
CONTINUOUS
 62
     7
 10
38.0095344516
 20
52.4249296875
 30
0.0
 11
38.3095344516
 21
52.4249296875
 31
0.0
  0
LINE
  5
106
  8
0
  6
CONTINUOUS
 62
     7
 10
39.3095344516
 20
52.4249296875
 30
0.0
 11
41.9234140539
 21
52.4249296875
 31
0.0
  0
LINE
  5
107
  8
0
  6
CONTINUOUS
 62
     7
 10
55.4095344516
 20
64.4249296875
 30
0.0
 11
38.0095344516
 21
64.4249296875
 31
0.0
  0
LINE
  5
108
  8
0
  6
CONTINUOUS
 62
     7
 10
38.0095344516
 20
67.0249296875
 30
0.0
 11
34.6095344516
 21
67.0249296875
 31
0.0
  0
LINE
  5
109
  8
0
  6
CONTINUOUS
 62
     7
 10
41.0739259897
 20
61.2146822954
 30
0.0
 11
41.0739259897
 21
58.2922738782
 31
0.0
  0
POLYLINE
  5
10A
  8
0
  6
CONTINUOUS
 62
     7
 66
     1
 10
0.0
 20
0.0
 30
0.0
  0
VERTEX
  5
2AC
  8
0
  6
CONTINUOUS
 62
     7
 10
49.3089802897
 20
60.6952578179
 30
0.0
  0
VERTEX
  5
2AD
  8
0
  6
CONTINUOUS
 62
     7
 10
48.2278269046
 20
60.8340287294
 30
0.0
  0
VERTEX
  5
2AE
  8
0
  6
CONTINUOUS
 62
     7
 10
47.1790382839
 20
60.9635709502
 30
0.0
  0
VERTEX
  5
2AF
  8
0
  6
CONTINUOUS
 62
     7
 10
46.1821977896
 20
61.0807568498
 30
0.0
  0
VERTEX
  5
2B0
  8
0
  6
CONTINUOUS
 62
     7
 10
45.2472763918
 20
61.1834976386
 30
0.0
  0
VERTEX
  5
2B1
  8
0
  6
CONTINUOUS
 62
     7
 10
44.3819629326
 20
61.270000791
 30
0.0
  0
VERTEX
  5
2B2
  8
0
  6
CONTINUOUS
 62
     7
 10
43.6019486329
 20
61.337636548
 30
0.0
  0
VERTEX
  5
2B3
  8
0
  6
CONTINUOUS
 62
     7
 10
42.9116606492
 20
61.3846460645
 30
0.0
  0
VERTEX
  5
2B4
  8
0
  6
CONTINUOUS
 62
     7
 10
42.3204687309
 20
61.4094371686
 30
0.0
  0
VERTEX
  5
2B5
  8
0
  6
CONTINUOUS
 62
     7
 10
41.8387938246
 20
61.4106232701
 30
0.0
  0
VERTEX
  5
2B6
  8
0
  6
CONTINUOUS
 62
     7
 10
41.46924569
 20
61.3866287075
 30
0.0
  0
VERTEX
  5
2B7
  8
0
  6
CONTINUOUS
 62
     7
 10
41.2184574272
 20
61.3373171075
 30
0.0
  0
VERTEX
  5
2B8
  8
0
  6
CONTINUOUS
 62
     7
 10
41.0908092196
 20
61.2631448719
 30
0.0
  0
VERTEX
  5
2B9
  8
0
  6
CONTINUOUS
 62
     7
 10
41.0739259897
 20
61.2146822954
 30
0.0
  0
SEQEND
  5
318
  8
0
  6
CONTINUOUS
 62
     7
  0
ARC
  5
10B
  8
0
  6
CONTINUOUS
 62
     7
 10
76.0095344516
 20
243.8546878789
 30
0.0
 40
185.0953711274771
 50
261.7059781563
 51
278.2940218437
  0
POLYLINE
  5
10C
  8
0
  6
CONTINUOUS
 62
     7
 66
     1
 10
0.0
 20
0.0
 30
0.0
  0
VERTEX
  5
2BA
  8
0
  6
CONTINUOUS
 62
     7
 10
110.9451429135
 20
61.2146822954
 30
0.0
  0
VERTEX
  5
2BB
  8
0
  6
CONTINUOUS
 62
     7
 10
110.8810552589
 20
61.3023389233
 30
0.0
  0
VERTEX
  5
2BC
  8
0
  6
CONTINUOUS
 62
     7
 10
110.6910361513
 20
61.3650484292
 30
0.0
  0
VERTEX
  5
2BD
  8
0
  6
CONTINUOUS
 62
     7
 10
110.3784513748
 20
61.4019870742
 30
0.0
  0
VERTEX
  5
2BE
  8
0
  6
CONTINUOUS
 62
     7
 10
109.9443848169
 20
61.4129273013
 30
0.0
  0
VERTEX
  5
2BF
  8
0
  6
CONTINUOUS
 62
     7
 10
109.3941393838
 20
61.3989942464
 30
0.0
  0
VERTEX
  5
2C0
  8
0
  6
CONTINUOUS
 62
     7
 10
108.7377036644
 20
61.3613744368
 30
0.0
  0
VERTEX
  5
2C1
  8
0
  6
CONTINUOUS
 62
     7
 10
107.9843351879
 20
61.301546579
 30
0.0
  0
VERTEX
  5
2C2
  8
0
  6
CONTINUOUS
 62
     7
 10
107.1385213324
 20
61.2213490723
 30
0.0
  0
VERTEX
  5
2C3
  8
0
  6
CONTINUOUS
 62
     7
 10
106.216046792
 20
61.1234078563
 30
0.0
  0
VERTEX
  5
2C4
  8
0
  6
CONTINUOUS
 62
     7
 10
105.2342296934
 20
61.0106919437
 30
0.0
  0
VERTEX
  5
2C5
  8
0
  6
CONTINUOUS
 62
     7
 10
104.1947518223
 20
60.8845210007
 30
0.0
  0
VERTEX
  5
2C6
  8
0
  6
CONTINUOUS
 62
     7
 10
103.117275832
 20
60.7480772024
 30
0.0
  0
VERTEX
  5
2C7
  8
0
  6
CONTINUOUS
 62
     7
 10
102.7100886135
 20
60.6952578179
 30
0.0
  0
SEQEND
  5
317
  8
0
  6
CONTINUOUS
 62
     7
  0
LINE
  5
10D
  8
0
  6
CONTINUOUS
 62
     7
 10
110.9451429135
 20
58.2908569201
 30
0.0
 11
110.9451429135
 21
61.2146822954
 31
0.0
  0
POLYLINE
  5
10E
  8
0
  6
CONTINUOUS
 62
     7
 66
     1
 10
0.0
 20
0.0
 30
0.0
  0
VERTEX
  5
2C8
  8
0
  6
CONTINUOUS
 62
     7
 10
36.0137178707
 20
60.6482182424
 30
0.0
  0
VERTEX
  5
2C9
  8
0
  6
CONTINUOUS
 62
     7
 10
35.9529953195
 20
60.1807121492
 30
0.0
  0
VERTEX
  5
2CA
  8
0
  6
CONTINUOUS
 62
     7
 10
35.9507778187
 20
60.0719249654
 30
0.0
  0
SEQEND
  5
316
  8
0
  6
CONTINUOUS
 62
     7
  0
POLYLINE
  5
10F
  8
0
  6
CONTINUOUS
 62
     7
 66
     1
 10
0.0
 20
0.0
 30
0.0
  0
VERTEX
  5
2CB
  8
0
  6
CONTINUOUS
 62
     7
 10
116.0682910845
 20
60.0719249654
 30
0.0
  0
VERTEX
  5
2CC
  8
0
  6
CONTINUOUS
 62
     7
 10
116.0660735837
 20
60.1807121492
 30
0.0
  0
VERTEX
  5
2CD
  8
0
  6
CONTINUOUS
 62
     7
 10
116.0053510325
 20
60.6482182424
 30
0.0
  0
SEQEND
  5
315
  8
0
  6
CONTINUOUS
 62
     7
  0
LINE
  5
110
  8
0
  6
CONTINUOUS
 62
     7
 10
113.7095344516
 20
53.5853616183
 30
0.0
 11
113.7095344516
 21
52.3362546525
 31
0.0
  0
LINE
  5
111
  8
0
  6
CONTINUOUS
 62
     7
 10
112.7095344516
 20
53.1785887269
 30
0.0
 11
112.7095344516
 21
52.3362546525
 31
0.0
  0
LINE
  5
112
  8
0
  6
CONTINUOUS
 62
     7
 10
38.3095344516
 20
53.5884830858
 30
0.0
 11
38.3095344516
 21
52.3362546525
 31
0.0
  0
LINE
  5
113
  8
0
  6
CONTINUOUS
 62
     7
 10
39.3095344516
 20
53.1795945075
 30
0.0
 11
39.3095344516
 21
52.3362546525
 31
0.0
  0
LINE
  5
114
  8
0
  6
CONTINUOUS
 62
     7
 10
113.7095344516
 20
64.2074027155
 30
0.0
 11
113.7095344516
 21
62.8640315995
 31
0.0
  0
LINE
  5
115
  8
0
  6
CONTINUOUS
 62
     7
 10
112.7095344516
 20
64.2074027155
 30
0.0
 11
112.7095344516
 21
62.9792985407
 31
0.0
  0
LINE
  5
116
  8
0
  6
CONTINUOUS
 62
     7
 10
38.3095344516
 20
64.2074027155
 30
0.0
 11
38.3095344516
 21
62.8621199635
 31
0.0
  0
LINE
  5
117
  8
0
  6
CONTINUOUS
 62
     7
 10
39.3095344516
 20
64.2074027155
 30
0.0
 11
39.3095344516
 21
62.9771810193
 31
0.0
  0
LINE
  5
118
  8
0
  6
CONTINUOUS
 62
     7
 10
114.0095344516
 20
64.0387367941
 30
0.0
 11
114.0095344516
 21
62.8078124693
 31
0.0
  0
LINE
  5
119
  8
0
  6
CONTINUOUS
 62
     7
 10
114.0095344516
 20
53.7392917949
 30
0.0
 11
114.0095344516
 21
52.0249296875
 31
0.0
  0
LINE
  5
11A
  8
0
  6
CONTINUOUS
 62
     7
 10
117.4095344516
 20
64.0387367941
 30
0.0
 11
117.4095344516
 21
52.0249296875
 31
0.0
  0
LINE
  5
11B
  8
0
  6
CONTINUOUS
 62
     7
 10
96.6095344516
 20
64.4249296875
 30
0.0
 11
96.6095344516
 21
61.2209344085
 31
0.0
  0
LINE
  5
11C
  8
0
  6
CONTINUOUS
 62
     7
 10
114.0095344516
 20
67.0249296875
 30
0.0
 11
114.0095344516
 21
64.0387367941
 31
0.0
  0
LINE
  5
11D
  8
0
  6
CONTINUOUS
 62
     7
 10
117.4095344516
 20
67.0249296875
 30
0.0
 11
117.4095344516
 21
64.0387367941
 31
0.0
  0
LINE
  5
11E
  8
0
  6
CONTINUOUS
 62
     7
 10
34.6095344516
 20
64.0387367941
 30
0.0
 11
34.6095344516
 21
52.0249296875
 31
0.0
  0
LINE
  5
11F
  8
0
  6
CONTINUOUS
 62
     7
 10
38.0095344516
 20
64.0387367941
 30
0.0
 11
38.0095344516
 21
62.8054294192
 31
0.0
  0
LINE
  5
120
  8
0
  6
CONTINUOUS
 62
     7
 10
38.0095344516
 20
53.7352915701
 30
0.0
 11
38.0095344516
 21
52.0249296875
 31
0.0
  0
LINE
  5
121
  8
0
  6
CONTINUOUS
 62
     7
 10
55.4095344516
 20
64.4249296875
 30
0.0
 11
55.4095344516
 21
61.2184835593
 31
0.0
  0
LINE
  5
122
  8
0
  6
CONTINUOUS
 62
     7
 10
34.6095344516
 20
67.0249296875
 30
0.0
 11
34.6095344516
 21
64.0387367941
 31
0.0
  0
LINE
  5
123
  8
0
  6
CONTINUOUS
 62
     7
 10
38.0095344516
 20
67.0249296875
 30
0.0
 11
38.0095344516
 21
64.0387367941
 31
0.0
  0
LINE
  5
124
  8
0
  6
CONTINUOUS
 62
     7
 10
119.6095344516
 20
63.1249296875
 30
0.0
 11
119.6095344516
 21
62.5249296875
 31
0.0
  0
ARC
  5
125
  8
0
  6
CONTINUOUS
 62
     7
 10
119.2095344516
 20
63.1249296875
 30
0.0
 40
0.4000000000000128
 50
0.0
 51
90.0
  0
LINE
  5
126
  8
0
  6
CONTINUOUS
 62
     7
 10
32.8095344516
 20
63.5249296875
 30
0.0
 11
34.6095344516
 21
63.5249296875
 31
0.0
  0
LINE
  5
127
  8
0
  6
CONTINUOUS
 62
     7
 10
55.4095344516
 20
63.5249296875
 30
0.0
 11
96.6095344516
 21
63.5249296875
 31
0.0
  0
LINE
  5
128
  8
0
  6
CONTINUOUS
 62
     7
 10
117.4095344516
 20
63.5249296875
 30
0.0
 11
119.2095344516
 21
63.5249296875
 31
0.0
  0
LINE
  5
129
  8
0
  6
CONTINUOUS
 62
     7
 10
119.6095344516
 20
62.5249296875
 30
0.0
 11
119.6095344516
 21
54.5249296875
 31
0.0
  0
LINE
  5
12A
  8
0
  6
CONTINUOUS
 62
     7
 10
32.4095344516
 20
54.5249296875
 30
0.0
 11
32.4095344516
 21
62.5249296875
 31
0.0
  0
LINE
  5
12B
  8
0
  6
CONTINUOUS
 62
     7
 10
32.4095344516
 20
62.5249296875
 30
0.0
 11
32.4095344516
 21
63.1249296875
 31
0.0
  0
ARC
  5
12C
  8
0
  6
CONTINUOUS
 62
     7
 10
32.8095344516
 20
63.1249296875
 30
0.0
 40
0.4000000000000128
 50
90.0
 51
180.0
  0
LINE
  5
12D
  8
0
  6
CONTINUOUS
 62
     7
 10
32.4095344516
 20
53.9249296875
 30
0.0
 11
32.4095344516
 21
54.5249296875
 31
0.0
  0
ARC
  5
12E
  8
0
  6
CONTINUOUS
 62
     7
 10
32.8095344516
 20
53.9249296875
 30
0.0
 40
0.3999999999999986
 50
180.0
 51
270.0
  0
LINE
  5
12F
  8
0
  6
CONTINUOUS
 62
     7
 10
119.6095344516
 20
54.5249296875
 30
0.0
 11
119.6095344516
 21
53.9249296875
 31
0.0
  0
ARC
  5
130
  8
0
  6
CONTINUOUS
 62
     7
 10
119.2095344516
 20
53.9249296875
 30
0.0
 40
0.3999999999999986
 50
270.0
 51
0.0
  0
LINE
  5
131
  8
0
  6
CONTINUOUS
 62
     7
 10
119.2095344516
 20
53.5249296875
 30
0.0
 11
117.4095344516
 21
53.5249296875
 31
0.0
  0
LINE
  5
132
  8
0
  6
CONTINUOUS
 62
     7
 10
34.6095344516
 20
53.5249296875
 30
0.0
 11
32.8095344516
 21
53.5249296875
 31
0.0
  0
CIRCLE
  5
133
  8
0
  6
CONTINUOUS
 62
     7
 10
76.0095344516
 20
38.5249296875
 30
0.0
 40
1.500000000000007
  0
CIRCLE
  5
134
  8
0
  6
CONTINUOUS
 62
     7
 10
84.0095344516
 20
66.5249296875
 30
0.0
 40
1.5
  0
CIRCLE
  5
135
  8
0
  6
CONTINUOUS
 62
     7
 10
68.0095344516
 20
66.5249296875
 30
0.0
 40
1.5
  0
ARC
  5
136
  8
0
  6
CONTINUOUS
 62
     7
 10
72.5952501662
 20
38.5249296875
 30
0.0
 40
4.000000000000007
 50
200.0051900882
 51
270.0
  0
ARC
  5
137
  8
0
  6
CONTINUOUS
 62
     7
 10
144.0095344516
 20
64.5249296875
 30
0.0
 40
80.0
 50
190.9456914391
 51
200.0051900882
  0
LINE
  5
138
  8
0
  6
CONTINUOUS
 62
     7
 10
64.0157846958
 20
63.5249296875
 30
0.0
 11
64.0095344516
 21
64.5249296875
 31
0.0
  0
LINE
  5
139
  8
0
  6
CONTINUOUS
 62
     7
 10
64.0095344516
 20
66.5249296875
 30
0.0
 11
64.0095344516
 21
64.5249296875
 31
0.0
  0
ARC
  5
13A
  8
0
  6
CONTINUOUS
 62
     7
 10
68.0095344516
 20
66.5249296875
 30
0.0
 40
4.0
 50
90.0
 51
180.0
  0
LINE
  5
13B
  8
0
  6
CONTINUOUS
 62
     7
 10
84.0095344516
 20
70.5249296875
 30
0.0
 11
68.0095344516
 21
70.5249296875
 31
0.0
  0
ARC
  5
13C
  8
0
  6
CONTINUOUS
 62
     7
 10
84.0095344516
 20
66.5249296875
 30
0.0
 40
4.0
 50
0.0
 51
90.0
  0
LINE
  5
13D
  8
0
  6
CONTINUOUS
 62
     7
 10
88.0095344516
 20
64.5249296875
 30
0.0
 11
88.0095344516
 21
66.5249296875
 31
0.0
  0
LINE
  5
13E
  8
0
  6
CONTINUOUS
 62
     7
 10
88.0095344516
 20
64.5249296875
 30
0.0
 11
88.0032842074
 21
63.5249296875
 31
0.0
  0
ARC
  5
13F
  8
0
  6
CONTINUOUS
 62
     7
 10
8.0095344516
 20
64.5249296875
 30
0.0
 40
80.00000000000001
 50
339.9948099118
 51
349.0535794239
  0
ARC
  5
140
  8
0
  6
CONTINUOUS
 62
     7
 10
79.423818737
 20
38.5249296875
 30
0.0
 40
4.000000000000012
 50
270.0
 51
339.9948099118
  0
LINE
  5
141
  8
0
  6
CONTINUOUS
 62
     7
 10
72.5952501662
 20
34.5249296875
 30
0.0
 11
79.423818737
 21
34.5249296875
 31
0.0
  0
POLYLINE
  5
142
  8
0
  6
CONTINUOUS
 62
     7
 66
     1
 10
0.0
 20
0.0
 30
0.0
  0
VERTEX
  5
2CE
  8
0
  6
CONTINUOUS
 62
     7
 10
401.5654519401
 20
197.6868346681
 30
0.0
  0
VERTEX
  5
2CF
  8
0
  6
CONTINUOUS
 62
     7
 10
401.5600943077
 20
197.9561815302
 30
0.0
  0
VERTEX
  5
2D0
  8
0
  6
CONTINUOUS
 62
     7
 10
401.4928955716
 20
198.3630856581
 30
0.0
  0
VERTEX
  5
2D1
  8
0
  6
CONTINUOUS
 62
     7
 10
401.3753188955
 20
198.7418946866
 30
0.0
  0
VERTEX
  5
2D2
  8
0
  6
CONTINUOUS
 62
     7
 10
401.2162118311
 20
199.0878931687
 30
0.0
  0
VERTEX
  5
2D3
  8
0
  6
CONTINUOUS
 62
     7
 10
401.0244611789
 20
199.3985188297
 30
0.0
  0
VERTEX
  5
2D4
  8
0
  6
CONTINUOUS
 62
     7
 10
400.8079877131
 20
199.6738547901
 30
0.0
  0
VERTEX
  5
2D5
  8
0
  6
CONTINUOUS
 62
     7
 10
400.5720813127
 20
199.9170137069
 30
0.0
  0
VERTEX
  5
2D6
  8
0
  6
CONTINUOUS
 62
     7
 10
400.3175126245
 20
200.1339073567
 30
0.0
  0
VERTEX
  5
2D7
  8
0
  6
CONTINUOUS
 62
     7
 10
400.0383725691
 20
200.3327760374
 30
0.0
  0
VERTEX
  5
2D8
  8
0
  6
CONTINUOUS
 62
     7
 10
399.7164412947
 20
200.5250972393
 30
0.0
  0
VERTEX
  5
2D9
  8
0
  6
CONTINUOUS
 62
     7
 10
399.3310092742
 20
200.7175943942
 30
0.0
  0
VERTEX
  5
2DA
  8
0
  6
CONTINUOUS
 62
     7
 10
398.8193626148
 20
200.9289521334
 30
0.0
  0
VERTEX
  5
2DB
  8
0
  6
CONTINUOUS
 62
     7
 10
398.2448742303
 20
201.1255118659
 30
0.0
  0
VERTEX
  5
2DC
  8
0
  6
CONTINUOUS
 62
     7
 10
397.6699198453
 20
201.2924481166
 30
0.0
  0
VERTEX
  5
2DD
  8
0
  6
CONTINUOUS
 62
     7
 10
397.014386773
 20
201.4565115317
 30
0.0
  0
VERTEX
  5
2DE
  8
0
  6
CONTINUOUS
 62
     7
 10
396.3402287031
 20
201.6029883281
 30
0.0
  0
VERTEX
  5
2DF
  8
0
  6
CONTINUOUS
 62
     7
 10
395.6399316854
 20
201.736147612
 30
0.0
  0
VERTEX
  5
2E0
  8
0
  6
CONTINUOUS
 62
     7
 10
394.9275931339
 20
201.8548103876
 30
0.0
  0
VERTEX
  5
2E1
  8
0
  6
CONTINUOUS
 62
     7
 10
394.1641596727
 20
201.966122776
 30
0.0
  0
VERTEX
  5
2E2
  8
0
  6
CONTINUOUS
 62
     7
 10
393.3675341045
 20
202.0672508471
 30
0.0
  0
VERTEX
  5
2E3
  8
0
  6
CONTINUOUS
 62
     7
 10
392.5413040095
 20
202.1577680536
 30
0.0
  0
VERTEX
  5
2E4
  8
0
  6
CONTINUOUS
 62
     7
 10
391.6903682753
 20
202.2370251238
 30
0.0
  0
VERTEX
  5
2E5
  8
0
  6
CONTINUOUS
 62
     7
 10
390.8204606113
 20
202.3043063519
 30
0.0
  0
VERTEX
  5
2E6
  8
0
  6
CONTINUOUS
 62
     7
 10
389.9377239454
 20
202.3589277059
 30
0.0
  0
VERTEX
  5
2E7
  8
0
  6
CONTINUOUS
 62
     7
 10
389.0488027953
 20
202.4003081778
 30
0.0
  0
VERTEX
  5
2E8
  8
0
  6
CONTINUOUS
 62
     7
 10
388.15222073
 20
202.4287090605
 30
0.0
  0
VERTEX
  5
2E9
  8
0
  6
CONTINUOUS
 62
     7
 10
387.2369521141
 20
202.4444768476
 30
0.0
  0
VERTEX
  5
2EA
  8
0
  6
CONTINUOUS
 62
     7
 10
386.5724375688
 20
202.4464469088
 30
0.0
  0
SEQEND
  5
314
  8
0
  6
CONTINUOUS
 62
     7
  0
ARC
  5
143
  8
0
  6
CONTINUOUS
 62
     7
 10
346.1690734445
 20
149.1467152584
 30
0.0
 40
53.30186142015897
 50
89.566602849
 51
98.8213569684
  0
LINE
  5
144
  8
0
  6
CONTINUOUS
 62
     7
 10
386.5723644637
 20
202.4485874
 30
0.0
 11
346.5723644637
 21
202.4485874
 31
0.0
  0
POLYLINE
  5
145
  8
0
  6
CONTINUOUS
 62
     7
 66
     1
 10
0.0
 20
0.0
 30
0.0
  0
VERTEX
  5
2EB
  8
0
  6
CONTINUOUS
 62
     7
 10
386.5722328315
 20
197.0670376028
 30
0.0
  0
VERTEX
  5
2EC
  8
0
  6
CONTINUOUS
 62
     7
 10
387.3001570418
 20
197.0634503177
 30
0.0
  0
VERTEX
  5
2ED
  8
0
  6
CONTINUOUS
 62
     7
 10
388.1408256161
 20
197.0472547872
 30
0.0
  0
VERTEX
  5
2EE
  8
0
  6
CONTINUOUS
 62
     7
 10
388.9701146078
 20
197.0191280379
 30
0.0
  0
VERTEX
  5
2EF
  8
0
  6
CONTINUOUS
 62
     7
 10
389.7820302784
 20
196.9792939188
 30
0.0
  0
VERTEX
  5
2F0
  8
0
  6
CONTINUOUS
 62
     7
 10
390.5710605528
 20
196.9285002423
 30
0.0
  0
VERTEX
  5
2F1
  8
0
  6
CONTINUOUS
 62
     7
 10
391.3443049762
 20
196.8668942732
 30
0.0
  0
VERTEX
  5
2F2
  8
0
  6
CONTINUOUS
 62
     7
 10
392.0966183651
 20
196.7951817177
 30
0.0
  0
VERTEX
  5
2F3
  8
0
  6
CONTINUOUS
 62
     7
 10
392.8190568964
 20
196.7145540416
 30
0.0
  0
VERTEX
  5
2F4
  8
0
  6
CONTINUOUS
 62
     7
 10
393.5014762861
 20
196.626656983
 30
0.0
  0
VERTEX
  5
2F5
  8
0
  6
CONTINUOUS
 62
     7
 10
394.1354442854
 20
196.5332939528
 30
0.0
  0
VERTEX
  5
2F6
  8
0
  6
CONTINUOUS
 62
     7
 10
394.713151466
 20
196.4365462727
 30
0.0
  0
VERTEX
  5
2F7
  8
0
  6
CONTINUOUS
 62
     7
 10
395.2318141886
 20
196.3382301647
 30
0.0
  0
VERTEX
  5
2F8
  8
0
  6
CONTINUOUS
 62
     7
 10
395.7092118912
 20
196.2362393221
 30
0.0
  0
VERTEX
  5
2F9
  8
0
  6
CONTINUOUS
 62
     7
 10
396.1241958426
 20
196.1361368348
 30
0.0
  0
VERTEX
  5
2FA
  8
0
  6
CONTINUOUS
 62
     7
 10
396.4736954787
 20
196.0407073603
 30
0.0
  0
VERTEX
  5
2FB
  8
0
  6
CONTINUOUS
 62
     7
 10
396.7523320898
 20
195.9541763089
 30
0.0
  0
VERTEX
  5
2FC
  8
0
  6
CONTINUOUS
 62
     7
 10
396.9363554908
 20
195.8892323636
 30
0.0
  0
VERTEX
  5
2FD
  8
0
  6
CONTINUOUS
 62
     7
 10
397.0579037445
 20
195.8406431399
 30
0.0
  0
VERTEX
  5
2FE
  8
0
  6
CONTINUOUS
 62
     7
 10
397.1209830833
 20
195.8120202017
 30
0.0
  0
VERTEX
  5
2FF
  8
0
  6
CONTINUOUS
 62
     7
 10
397.1288331272
 20
195.8081134977
 30
0.0
  0
SEQEND
  5
313
  8
0
  6
CONTINUOUS
 62
     7
  0
LINE
  5
146
  8
0
  6
CONTINUOUS
 62
     7
 10
357.5723644637
 20
197.0685874
 30
0.0
 11
386.5723644637
 21
197.0685874
 31
0.0
  0
LINE
  5
147
  8
0
  6
CONTINUOUS
 62
     7
 10
357.5723644637
 20
196.9660955541
 30
0.0
 11
389.9870540145
 21
196.9660955541
 31
0.0
  0
ARC
  5
148
  8
0
  6
CONTINUOUS
 62
     7
 10
398.8823644637
 20
195.9660955541
 30
0.0
 40
2.690000000000168
 50
180.0
 51
270.0
  0
ARC
  5
149
  8
0
  6
CONTINUOUS
 62
     7
 10
398.8823644637
 20
195.9660955541
 30
0.0
 40
2.690000000000026
 50
270.0
 51
0.0
  0
POLYLINE
  5
14A
  8
0
  6
CONTINUOUS
 62
     7
 66
     1
 10
0.0
 20
0.0
 30
0.0
  0
VERTEX
  5
300
  8
0
  6
CONTINUOUS
 62
     7
 10
338.5232702126
 20
199.8701786881
 30
0.0
  0
VERTEX
  5
301
  8
0
  6
CONTINUOUS
 62
     7
 10
338.6932371717
 20
200.2346482384
 30
0.0
  0
VERTEX
  5
302
  8
0
  6
CONTINUOUS
 62
     7
 10
338.9407625265
 20
200.5728891059
 30
0.0
  0
VERTEX
  5
303
  8
0
  6
CONTINUOUS
 62
     7
 10
339.332773489
 20
200.9459097236
 30
0.0
  0
VERTEX
  5
304
  8
0
  6
CONTINUOUS
 62
     7
 10
339.7903888362
 20
201.2616992504
 30
0.0
  0
VERTEX
  5
305
  8
0
  6
CONTINUOUS
 62
     7
 10
340.4052419877
 20
201.574031622
 30
0.0
  0
VERTEX
  5
306
  8
0
  6
CONTINUOUS
 62
     7
 10
341.0608399721
 20
201.8180842795
 30
0.0
  0
SEQEND
  5
312
  8
0
  6
CONTINUOUS
 62
     7
  0
POLYLINE
  5
14B
  8
0
  6
CONTINUOUS
 62
     7
 66
     1
 10
0.0
 20
0.0
 30
0.0
  0
VERTEX
  5
307
  8
0
  6
CONTINUOUS
 62
     7
 10
344.3058239938
 20
197.0806550781
 30
0.0
  0
VERTEX
  5
308
  8
0
  6
CONTINUOUS
 62
     7
 10
342.2744321543
 20
197.1374237227
 30
0.0
  0
VERTEX
  5
309
  8
0
  6
CONTINUOUS
 62
     7
 10
341.1835759306
 20
197.2655546533
 30
0.0
  0
VERTEX
  5
30A
  8
0
  6
CONTINUOUS
 62
     7
 10
340.1236081174
 20
197.5388018623
 30
0.0
  0
VERTEX
  5
30B
  8
0
  6
CONTINUOUS
 62
     7
 10
339.4323362295
 20
197.8624741596
 30
0.0
  0
VERTEX
  5
30C
  8
0
  6
CONTINUOUS
 62
     7
 10
339.1166298843
 20
198.0839047707
 30
0.0
  0
VERTEX
  5
30D
  8
0
  6
CONTINUOUS
 62
     7
 10
338.8397923368
 20
198.3513126703
 30
0.0
  0
VERTEX
  5
30E
  8
0
  6
CONTINUOUS
 62
     7
 10
338.5507863598
 20
198.8137282509
 30
0.0
  0
VERTEX
  5
30F
  8
0
  6
CONTINUOUS
 62
     7
 10
338.4391276215
 20
199.350752636
 30
0.0
  0
VERTEX
  5
310
  8
0
  6
CONTINUOUS
 62
     7
 10
338.5232702126
 20
199.8701786881
 30
0.0
  0
SEQEND
  5
311
  8
0
  6
CONTINUOUS
 62
     7
  0
LINE
  5
14C
  8
0
  6
CONTINUOUS
 62
     7
 10
346.5723644637
 20
197.089059758
 30
0.0
 11
344.3058239938
 21
197.0806550781
 31
0.0
  0
LINE
  5
14D
  8
0
  6
CONTINUOUS
 62
     7
 10
357.5723644637
 20
197.089059758
 30
0.0
 11
346.5723644637
 21
197.089059758
 31
0.0
  0
ARC
  5
14E
  8
0
  6
CONTINUOUS
 62
     7
 10
318.1783462214
 20
309.9675938803
 30
0.0
 40
120.0000000000006
 50
273.9626587205
 51
289.1646231125
  0
LINE
  5
14F
  8
0
  6
CONTINUOUS
 62
     7
 10
324.0522838172
 20
201.8180842795
 30
0.0
 11
341.0608399721
 21
201.8180842795
 31
0.0
  0
LINE
  5
150
  8
0
  6
CONTINUOUS
 62
     7
 10
357.5723644637
 20
197.089059758
 30
0.0
 11
357.5723644637
 21
196.6180842795
 31
0.0
  0
LINE
  5
151
  8
0
  6
CONTINUOUS
 62
     7
 10
396.1923644637
 20
196.0836600277
 30
0.0
 11
396.1923644637
 21
195.9660955541
 31
0.0
  0
LINE
  5
152
  8
0
  6
CONTINUOUS
 62
     7
 10
401.5723644637
 20
195.9660955541
 30
0.0
 11
401.5723644637
 21
197.6839281889
 31
0.0
  0
LINE
  5
153
  8
0
  6
CONTINUOUS
 62
     7
 10
401.5723644637
 20
197.6839281889
 30
0.0
 11
401.5719234552
 21
197.7321859489
 31
0.0
  0
LINE
  5
154
  8
0
  6
CONTINUOUS
 62
     7
 10
326.6723644637
 20
176.3180842795
 30
0.0
 11
326.6723644637
 21
184.1180842795
 31
0.0
  0
ARC
  5
155
  8
0
  6
CONTINUOUS
 62
     7
 10
326.2723644637
 20
184.1180842795
 30
0.0
 40
0.4000000000000057
 50
0.0
 51
90.0
  0
LINE
  5
156
  8
0
  6
CONTINUOUS
 62
     7
 10
326.2723644637
 20
184.5180842795
 30
0.0
 11
325.4723644637
 21
184.5180842795
 31
0.0
  0
LINE
  5
157
  8
0
  6
CONTINUOUS
 62
     7
 10
317.4723644637
 20
184.5180842795
 30
0.0
 11
316.8723644637
 21
184.5180842795
 31
0.0
  0
ARC
  5
158
  8
0
  6
CONTINUOUS
 62
     7
 10
316.8723644637
 20
184.1180842795
 30
0.0
 40
0.4000000000000057
 50
90.0
 51
180.0
  0
LINE
  5
159
  8
0
  6
CONTINUOUS
 62
     7
 10
316.4723644637
 20
184.1180842795
 30
0.0
 11
316.4723644637
 21
183.5180842795
 31
0.0
  0
LINE
  5
15A
  8
0
  6
CONTINUOUS
 62
     7
 10
315.6723644637
 20
181.3180842795
 30
0.0
 11
315.6723644637
 21
176.3180842795
 31
0.0
  0
ARC
  5
15B
  8
0
  6
CONTINUOUS
 62
     7
 10
337.2814553727
 20
187.3180842795
 30
0.0
 40
24.30909090909085
 50
151.3013359141
 51
194.2894890274
  0
ARC
  5
15C
  8
0
  6
CONTINUOUS
 62
     7
 10
321.5723644637
 20
195.9180842795
 30
0.0
 40
6.399999999999999
 50
334.4805415091
 51
151.3013359141
  0
ARC
  5
15D
  8
0
  6
CONTINUOUS
 62
     7
 10
336.3723644637
 20
188.8526755865
 30
0.0
 40
10.0
 50
154.4805415091
 51
180.0
  0
LINE
  5
15E
  8
0
  6
CONTINUOUS
 62
     7
 10
326.3723644637
 20
188.8526755865
 30
0.0
 11
326.3723644637
 21
185.3180842795
 31
0.0
  0
LINE
  5
15F
  8
0
  6
CONTINUOUS
 62
     7
 10
326.4723644637
 20
185.3180842795
 30
0.0
 11
326.3723644637
 21
185.3180842795
 31
0.0
  0
ARC
  5
160
  8
0
  6
CONTINUOUS
 62
     7
 10
326.4723644637
 20
184.3180842795
 30
0.0
 40
1.0
 50
0.0
 51
90.0
  0
LINE
  5
161
  8
0
  6
CONTINUOUS
 62
     7
 10
327.4723644637
 20
176.3180842795
 30
0.0
 11
327.4723644637
 21
184.3180842795
 31
0.0
  0
LINE
  5
162
  8
0
  6
CONTINUOUS
 62
     7
 10
315.6723644637
 20
181.3180842795
 30
0.0
 11
313.7244627628
 21
181.3180842795
 31
0.0
  0
LINE
  5
163
  8
0
  6
CONTINUOUS
 62
     7
 10
316.4723644637
 20
175.5180842795
 30
0.0
 11
316.4723644637
 21
174.3180842795
 31
0.0
  0
LINE
  5
164
  8
0
  6
CONTINUOUS
 62
     7
 10
316.4723644637
 20
174.3180842795
 30
0.0
 11
315.6723644637
 21
174.3180842795
 31
0.0
  0
LINE
  5
165
  8
0
  6
CONTINUOUS
 62
     7
 10
315.6723644637
 20
174.3180842795
 30
0.0
 11
315.6723644637
 21
176.3180842795
 31
0.0
  0
LINE
  5
166
  8
0
  6
CONTINUOUS
 62
     7
 10
327.4723644637
 20
176.3180842795
 30
0.0
 11
327.4723644637
 21
174.3180842795
 31
0.0
  0
LINE
  5
167
  8
0
  6
CONTINUOUS
 62
     7
 10
327.4723644637
 20
174.3180842795
 30
0.0
 11
326.6723644637
 21
174.3180842795
 31
0.0
  0
LINE
  5
168
  8
0
  6
CONTINUOUS
 62
     7
 10
326.6723644637
 20
174.3180842795
 30
0.0
 11
326.6723644637
 21
176.3180842795
 31
0.0
  0
LINE
  5
169
  8
0
  6
CONTINUOUS
 62
     7
 10
317.4723644637
 20
184.5180842795
 30
0.0
 11
325.4723644637
 21
184.5180842795
 31
0.0
  0
ARC
  5
16A
  8
0
  6
CONTINUOUS
 62
     7
 10
317.4723644637
 20
183.5180842795
 30
0.0
 40
1.0
 50
90.0
 51
180.0
  0
LINE
  5
16B
  8
0
  6
CONTINUOUS
 62
     7
 10
316.4723644637
 20
175.5180842795
 30
0.0
 11
316.4723644637
 21
183.5180842795
 31
0.0
  0
ARC
  5
16C
  8
0
  6
CONTINUOUS
 62
     7
 10
317.4723644637
 20
175.5180842795
 30
0.0
 40
1.000000000000028
 50
180.0
 51
270.0
  0
LINE
  5
16D
  8
0
  6
CONTINUOUS
 62
     7
 10
325.4723644637
 20
174.5180842795
 30
0.0
 11
317.4723644637
 21
174.5180842795
 31
0.0
  0
ARC
  5
16E
  8
0
  6
CONTINUOUS
 62
     7
 10
325.4723644637
 20
183.5180842795
 30
0.0
 40
1.0
 50
0.0
 51
90.0
  0
LINE
  5
16F
  8
0
  6
CONTINUOUS
 62
     7
 10
326.4723644637
 20
183.5180842795
 30
0.0
 11
326.4723644637
 21
175.5180842795
 31
0.0
  0
ARC
  5
170
  8
0
  6
CONTINUOUS
 62
     7
 10
325.4723644637
 20
175.5180842795
 30
0.0
 40
1.000000000000028
 50
270.0
 51
0.0
  0
LINE
  5
171
  8
0
  6
CONTINUOUS
 62
     7
 10
309.4723644637
 20
109.3180842795
 30
0.0
 11
309.4723644637
 21
110.5180842795
 31
0.0
  0
LINE
  5
172
  8
0
  6
CONTINUOUS
 62
     7
 10
313.4723644637
 20
109.3180842795
 30
0.0
 11
309.4723644637
 21
109.3180842795
 31
0.0
  0
LINE
  5
173
  8
0
  6
CONTINUOUS
 62
     7
 10
309.4723644637
 20
110.5180842795
 30
0.0
 11
313.4723644637
 21
110.5180842795
 31
0.0
  0
LINE
  5
174
  8
0
  6
CONTINUOUS
 62
     7
 10
313.4723644637
 20
109.3180842795
 30
0.0
 11
315.4723644637
 21
109.3180842795
 31
0.0
  0
LINE
  5
175
  8
0
  6
CONTINUOUS
 62
     7
 10
313.4723644637
 20
110.5180842795
 30
0.0
 11
315.4723644637
 21
110.5180842795
 31
0.0
  0
LINE
  5
176
  8
0
  6
CONTINUOUS
 62
     7
 10
315.4723644637
 20
109.3180842795
 30
0.0
 11
342.8407855163
 21
109.3180842795
 31
0.0
  0
LINE
  5
177
  8
0
  6
CONTINUOUS
 62
     7
 10
342.8407855163
 20
110.5180842795
 30
0.0
 11
315.4723644637
 21
110.5180842795
 31
0.0
  0
LINE
  5
178
  8
0
  6
CONTINUOUS
 62
     7
 10
345.4723644637
 20
110.5180842795
 30
0.0
 11
345.4723644637
 21
109.3180842795
 31
0.0
  0
LINE
  5
179
  8
0
  6
CONTINUOUS
 62
     7
 10
345.4723644637
 20
109.3180842795
 30
0.0
 11
342.8407855163
 21
109.3180842795
 31
0.0
  0
LINE
  5
17A
  8
0
  6
CONTINUOUS
 62
     7
 10
342.8407855163
 20
110.5180842795
 30
0.0
 11
345.4723644637
 21
110.5180842795
 31
0.0
  0
LINE
  5
17B
  8
0
  6
CONTINUOUS
 62
     7
 10
316.4723644637
 20
110.5180842795
 30
0.0
 11
316.4723644637
 21
174.3180842795
 31
0.0
  0
LINE
  5
17C
  8
0
  6
CONTINUOUS
 62
     7
 10
326.4723644637
 20
175.5180842795
 30
0.0
 11
326.4723644637
 21
110.5180842795
 31
0.0
  0
ENDSEC
  0
EOF
