  0
SECTION
  2
HEADER
  9
$ACADVER
  1
AC1009
  9
$DWGCODEPAGE
  3
ansi_1252
  9
$INSBASE
 10
0.0
 20
0.0
 30
0.0
  9
$EXTMIN
 10
0.0
 20
0.0
 30
0.0
  9
$EXTMAX
 10
420.0
 20
297.0
 30
0.0
  9
$LIMMIN
 10
0.0
 20
0.0
  9
$LIMMAX
 10
420.0
 20
297.0
  9
$ORTHOMODE
 70
     0
  9
$REGENMODE
 70
     1
  9
$FILLMODE
 70
     1
  9
$QTEXTMODE
 70
     0
  9
$MIRRTEXT
 70
     1
  9
$DRAGMODE
 70
     2
  9
$LTSCALE
 40
1.0
  9
$OSMODE
 70
    37
  9
$ATTMODE
 70
     1
  9
$TEXTSIZE
 40
3.5
  9
$TRACEWID
 40
1.0
  9
$TEXTSTYLE
  7
STANDARD
  9
$CLAYER
  8
0
  9
$CELTYPE
  6
BYLAYER
  9
$CECOLOR
 62
   256
  9
$DIMSCALE
 40
1.0
  9
$DIMASZ
 40
4.0
  9
$DIMEXO
 40
0.0
  9
$DIMDLI
 40
3.75
  9
$DIMRND
 40
0.0
  9
$DIMDLE
 40
0.0
  9
$DIMEXE
 40
2.0
  9
$DIMTP
 40
0.0
  9
$DIMTM
 40
0.0
  9
$DIMTXT
 40
3.5
  9
$DIMCEN
 40
2.5
  9
$DIMTSZ
 40
0.0
  9
$DIMTOL
 70
     0
  9
$DIMLIM
 70
     0
  9
$DIMTIH
 70
     1
  9
$DIMTOH
 70
     1
  9
$DIMSE1
 70
     0
  9
$DIMSE2
 70
     0
  9
$DIMTAD
 70
     1
  9
$DIMZIN
 70
     0
  9
$DIMBLK
  1

  9
$DIMASO
 70
     1
  9
$DIMSHO
 70
     1
  9
$DIMPOST
  1

  9
$DIMAPOST
  1

  9
$DIMALT
 70
     0
  9
$DIMALTD
 70
     3
  9
$DIMALTF
 40
0.0393700787
  9
$DIMLFAC
 40
5.0
  9
$DIMTOFL
 70
     1
  9
$DIMTVP
 40
0.0
  9
$DIMTIX
 70
     0
  9
$DIMSOXD
 70
     0
  9
$DIMSAH
 70
     0
  9
$DIMBLK1
  1

  9
$DIMBLK2
  1

  9
$DIMSTYLE
  2
ISO-25
  9
$DIMCLRD
 70
     0
  9
$DIMCLRE
 70
     0
  9
$DIMCLRT
 70
     0
  9
$DIMTFAC
 40
1.0
  9
$DIMGAP
 40
1.524
  9
$LUNITS
 70
     2
  9
$LUPREC
 70
     2
  9
$SKETCHINC
 40
1.0
  9
$FILLETRAD
 40
10.0
  9
$AUNITS
 70
     0
  9
$AUPREC
 70
     2
  9
$MENU
  1
.
  9
$ELEVATION
 40
0.0
  9
$PELEVATION
 40
0.0
  9
$THICKNESS
 40
0.0
  9
$LIMCHECK
 70
     0
  9
$CHAMFERA
 40
10.0
  9
$CHAMFERB
 40
10.0
  9
$SKPOLY
 70
     0
  9
$TDCREATE
 40
2457792.490579271
  9
$TDUPDATE
 40
2457792.490580509
  9
$TDINDWG
 40
0.0000000116
  9
$TDUSRTIMER
 40
0.0000000116
  9
$USRTIMER
 70
     1
  9
$ANGBASE
 50
0.0
  9
$ANGDIR
 70
     0
  9
$PDMODE
 70
     0
  9
$PDSIZE
 40
-1.0
  9
$PLINEWID
 40
0.0
  9
$COORDS
 70
     1
  9
$SPLFRAME
 70
     0
  9
$SPLINETYPE
 70
     6
  9
$SPLINESEGS
 70
     8
  9
$ATTDIA
 70
     0
  9
$ATTREQ
 70
     1
  9
$HANDLING
 70
     1
  9
$HANDSEED
  5
114
  9
$SURFTAB1
 70
     6
  9
$SURFTAB2
 70
     6
  9
$SURFTYPE
 70
     6
  9
$SURFU
 70
     6
  9
$SURFV
 70
     6
  9
$UCSNAME
  2

  9
$UCSORG
 10
0.0
 20
0.0
 30
0.0
  9
$UCSXDIR
 10
1.0
 20
0.0
 30
0.0
  9
$UCSYDIR
 10
0.0
 20
1.0
 30
0.0
  9
$PUCSNAME
  2

  9
$PUCSORG
 10
0.0
 20
0.0
 30
0.0
  9
$PUCSXDIR
 10
1.0
 20
0.0
 30
0.0
  9
$PUCSYDIR
 10
0.0
 20
1.0
 30
0.0
  9
$USERI1
 70
     0
  9
$USERI2
 70
     0
  9
$USERI3
 70
     0
  9
$USERI4
 70
     0
  9
$USERI5
 70
     0
  9
$USERR1
 40
0.0
  9
$USERR2
 40
0.0
  9
$USERR3
 40
0.0
  9
$USERR4
 40
0.0
  9
$USERR5
 40
0.0
  9
$WORLDVIEW
 70
     1
  9
$SHADEDGE
 70
     3
  9
$SHADEDIF
 70
    70
  9
$TILEMODE
 70
     1
  9
$MAXACTVP
 70
    64
  9
$PLIMCHECK
 70
     0
  9
$PEXTMIN
 10
1.0000000000E+20
 20
1.0000000000E+20
 30
1.0000000000E+20
  9
$PEXTMAX
 10
-1.0000000000E+20
 20
-1.0000000000E+20
 30
-1.0000000000E+20
  9
$PLIMMIN
 10
0.0
 20
0.0
  9
$PLIMMAX
 10
420.0
 20
297.0
  9
$UNITMODE
 70
     0
  9
$VISRETAIN
 70
     1
  9
$PLINEGEN
 70
     0
  9
$PSLTSCALE
 70
     1
  0
ENDSEC
  0
SECTION
  2
TABLES
  0
TABLE
  2
VPORT
 70
     1
  0
VPORT
  2
*ACTIVE
 70
     0
 10
0.0
 20
0.0
 11
1.0
 21
1.0
 12
210.0
 22
148.5
 13
0.0
 23
0.0
 14
10.0
 24
10.0
 15
10.0
 25
10.0
 16
0.0
 26
0.0
 36
1.0
 17
0.0
 27
0.0
 37
0.0
 40
297.0
 41
1.4141414141
 42
50.0
 43
0.0
 44
0.0
 50
0.0
 51
0.0
 71
     0
 72
  2000
 73
     1
 74
     3
 75
     0
 76
     0
 77
     0
 78
     0
  0
ENDTAB
  0
TABLE
  2
LTYPE
 70
     6
  0
LTYPE
  2
CONTINUOUS
 70
     0
  3
Solid line
 72
    65
 73
     0
 40
0.0
  0
LTYPE
  2
HIDDEN
 70
     0
  3
Hidden __ __ __ __ __ __ __ __ __ __ __ __ __ __
 72
    65
 73
     2
 40
1.905
 49
1.27
 49
-0.635
  0
LTYPE
  2
PHANTOM
 70
     0
  3
Phantom ______  __  __  ______  __  __  ______
 72
    65
 73
     6
 40
12.7
 49
6.35
 49
-1.27
 49
1.27
 49
-1.27
 49
1.27
 49
-1.27
  0
LTYPE
  2
CENTER
 70
     0
  3
Center ____ _ ____ _ ____ _ ____ _ ____ _ ____
 72
    65
 73
     4
 40
10.16
 49
6.35
 49
-1.27
 49
1.27
 49
-1.27
  0
LTYPE
  2
CENTERX2
 70
     0
  3
Center (2x) ________  __  ________  __  _____
 72
    65
 73
     4
 40
20.32
 49
12.7
 49
-2.54
 49
2.54
 49
-2.54
  0
LTYPE
  2
DOT2
 70
     0
  3
Dot (.5x) ........................................
 72
    65
 73
     2
 40
0.635
 49
0.0
 49
-0.635
  0
ENDTAB
  0
TABLE
  2
LAYER
 70
     2
  0
LAYER
  2
0
 70
     0
 62
     7
  6
CONTINUOUS
  0
LAYER
  2
FORMAT
 70
     0
 62
     7
  6
CONTINUOUS
  0
ENDTAB
  0
TABLE
  2
STYLE
 70
     1
  0
STYLE
  2
STANDARD
 70
     0
 40
0.0
 41
1.0
 50
0.0
 71
     0
 42
3.5
  3
txt
  4

  0
ENDTAB
  0
TABLE
  2
VIEW
 70
     0
  0
ENDTAB
  0
TABLE
  2
UCS
 70
     0
  0
ENDTAB
  0
TABLE
  2
APPID
 70
     1
  0
APPID
  2
ACAD
 70
     0
  0
ENDTAB
  0
TABLE
  2
DIMSTYLE
 70
     1
  0
DIMSTYLE
  2
ISO-25
 70
     0
  3

  4

  5

  6

  7

 40
1.0
 41
2.5
 42
0.625
 43
3.75
 44
1.25
 45
0.0
 46
0.0
 47
0.0
 48
0.0
140
2.5
141
2.5
142
0.0
143
0.0393700787
144
1.0
145
0.0
146
1.0
147
0.625
 71
     0
 72
     0
 73
     0
 74
     0
 75
     0
 76
     0
 77
     1
 78
     8
170
     0
171
     3
172
     1
173
     0
174
     0
175
     0
176
     0
177
     0
178
     0
  0
ENDTAB
  0
ENDSEC
  0
SECTION
  2
BLOCKS
  0
BLOCK
  8
0
  2
$MODEL_SPACE
 70
     0
 10
0.0
 20
0.0
 30
0.0
  3
$MODEL_SPACE
  1

  0
ENDBLK
  5
21
  8
0
  0
BLOCK
 67
     1
  8
0
  2
$PAPER_SPACE
 70
     0
 10
0.0
 20
0.0
 30
0.0
  3
$PAPER_SPACE
  1

  0
ENDBLK
  5
1D
 67
     1
  8
0
  0
ENDSEC
  0
SECTION
  2
ENTITIES
  0
LINE
  5
45
  8
0
  6
CONTINUOUS
 62
     7
 10
414.85
 20
5.15
 30
0.0
 11
5.15
 21
5.15
 31
0.0
  0
LINE
  5
46
  8
0
  6
CONTINUOUS
 62
     7
 10
415.0
 20
5.0
 30
0.0
 11
415.0
 21
277.0
 31
0.0
  0
LINE
  5
47
  8
0
  6
CONTINUOUS
 62
     7
 10
415.0
 20
277.0
 30
0.0
 11
5.0
 21
277.0
 31
0.0
  0
LINE
  5
48
  8
0
  6
CONTINUOUS
 62
     7
 10
5.15
 20
276.85
 30
0.0
 11
5.15
 21
5.15
 31
0.0
  0
LINE
  5
49
  8
0
  6
CONTINUOUS
 62
     7
 10
115.1189229064
 20
197.1340628571
 30
0.0
 11
112.7189229064
 21
197.1340628571
 31
0.0
  0
LINE
  5
4A
  8
0
  6
CONTINUOUS
 62
     7
 10
29.5189229064
 20
197.1340628571
 30
0.0
 11
27.1189229064
 21
197.1340628571
 31
0.0
  0
LINE
  5
4B
  8
0
  6
CONTINUOUS
 62
     7
 10
27.1189229064
 20
193.1340628571
 30
0.0
 11
29.5189229064
 21
193.1340628571
 31
0.0
  0
LINE
  5
4C
  8
0
  6
CONTINUOUS
 62
     7
 10
112.7189229064
 20
193.1340628571
 30
0.0
 11
115.1189229064
 21
193.1340628571
 31
0.0
  0
LINE
  5
4D
  8
0
  6
CONTINUOUS
 62
     7
 10
31.0189229064
 20
204.5340628571
 30
0.0
 11
111.2189229064
 21
204.5340628571
 31
0.0
  0
ARC
  5
4E
  8
0
  6
CONTINUOUS
 62
     7
 10
111.2189229064
 20
202.9340628571
 30
0.0
 40
1.600000000000023
 50
0.0
 51
90.0
  0
ARC
  5
4F
  8
0
  6
CONTINUOUS
 62
     7
 10
31.0189229064
 20
202.9340628571
 30
0.0
 40
1.600000000000033
 50
90.0
 51
180.0
  0
LINE
  5
50
  8
0
  6
CONTINUOUS
 62
     7
 10
29.4189229064
 20
202.9340628571
 30
0.0
 11
29.4189229064
 21
198.5340628571
 31
0.0
  0
LINE
  5
51
  8
0
  6
CONTINUOUS
 62
     7
 10
112.8189229064
 20
202.9340628571
 30
0.0
 11
112.8189229064
 21
198.5340628571
 31
0.0
  0
LINE
  5
52
  8
0
  6
CONTINUOUS
 62
     7
 10
112.8189229064
 20
198.5340628571
 30
0.0
 11
29.4189229064
 21
198.5340628571
 31
0.0
  0
LINE
  5
53
  8
0
  6
CONTINUOUS
 62
     7
 10
112.7189229064
 20
198.5340628571
 30
0.0
 11
112.7189229064
 21
197.5340628571
 31
0.0
  0
LINE
  5
54
  8
0
  6
CONTINUOUS
 62
     7
 10
29.5189229064
 20
197.5340628571
 30
0.0
 11
29.5189229064
 21
198.5340628571
 31
0.0
  0
LINE
  5
55
  8
0
  6
CONTINUOUS
 62
     7
 10
29.5189229064
 20
191.5340628571
 30
0.0
 11
29.5189229064
 21
197.5340628571
 31
0.0
  0
LINE
  5
56
  8
0
  6
CONTINUOUS
 62
     7
 10
112.7189229064
 20
197.5340628571
 30
0.0
 11
112.7189229064
 21
191.5340628571
 31
0.0
  0
ARC
  5
57
  8
0
  6
CONTINUOUS
 62
     7
 10
30.5189229064
 20
191.5340628571
 30
0.0
 40
1.0
 50
180.0
 51
270.0
  0
ARC
  5
58
  8
0
  6
CONTINUOUS
 62
     7
 10
111.7189229064
 20
191.5340628571
 30
0.0
 40
1.0
 50
270.0
 51
0.0
  0
LINE
  5
59
  8
0
  6
CONTINUOUS
 62
     7
 10
30.5189229064
 20
190.5340628571
 30
0.0
 11
111.7189229064
 21
190.5340628571
 31
0.0
  0
LINE
  5
5A
  8
0
  6
CONTINUOUS
 62
     7
 10
26.3189229064
 20
183.2750628571
 30
0.0
 11
26.3189229064
 21
180.7303577053
 31
0.0
  0
LINE
  5
5B
  8
0
  6
CONTINUOUS
 62
     7
 10
27.1189229064
 20
183.2750628571
 30
0.0
 11
27.1189229064
 21
180.7303577053
 31
0.0
  0
LINE
  5
5C
  8
0
  6
CONTINUOUS
 62
     7
 10
115.1189229064
 20
180.7303577053
 30
0.0
 11
115.1189229064
 21
183.2750628571
 31
0.0
  0
LINE
  5
5D
  8
0
  6
CONTINUOUS
 62
     7
 10
115.9189229064
 20
183.2750628571
 30
0.0
 11
115.9189229064
 21
180.7303577053
 31
0.0
  0
LINE
  5
5E
  8
0
  6
CONTINUOUS
 62
     7
 10
26.3189229064
 20
197.1509094952
 30
0.0
 11
26.3189229064
 21
183.2750628571
 31
0.0
  0
LINE
  5
5F
  8
0
  6
CONTINUOUS
 62
     7
 10
27.1189229064
 20
197.1509094952
 30
0.0
 11
27.1189229064
 21
183.2750628571
 31
0.0
  0
LINE
  5
60
  8
0
  6
CONTINUOUS
 62
     7
 10
115.1189229064
 20
183.2750628571
 30
0.0
 11
115.1189229064
 21
197.1509094952
 31
0.0
  0
LINE
  5
61
  8
0
  6
CONTINUOUS
 62
     7
 10
115.9189229064
 20
197.1509094952
 30
0.0
 11
115.9189229064
 21
183.2750628571
 31
0.0
  0
LINE
  5
62
  8
0
  6
CONTINUOUS
 62
     7
 10
26.3189229064
 20
179.7340628571
 30
0.0
 11
27.1189229064
 21
179.7340628571
 31
0.0
  0
LINE
  5
63
  8
0
  6
CONTINUOUS
 62
     7
 10
26.3189229064
 20
180.7303577053
 30
0.0
 11
26.3189229064
 21
179.7340628571
 31
0.0
  0
LINE
  5
64
  8
0
  6
CONTINUOUS
 62
     7
 10
27.1189229064
 20
180.7303577053
 30
0.0
 11
27.1189229064
 21
179.7340628571
 31
0.0
  0
LINE
  5
65
  8
0
  6
CONTINUOUS
 62
     7
 10
115.1189229064
 20
179.7340628571
 30
0.0
 11
115.9189229064
 21
179.7340628571
 31
0.0
  0
LINE
  5
66
  8
0
  6
CONTINUOUS
 62
     7
 10
115.1189229064
 20
179.7340628571
 30
0.0
 11
115.1189229064
 21
180.7303577053
 31
0.0
  0
LINE
  5
67
  8
0
  6
CONTINUOUS
 62
     7
 10
115.9189229064
 20
180.7303577053
 30
0.0
 11
115.9189229064
 21
179.7340628571
 31
0.0
  0
LINE
  5
68
  8
0
  6
CONTINUOUS
 62
     7
 10
115.1189229064
 20
197.1509094952
 30
0.0
 11
115.1189229064
 21
201.4062325761
 31
0.0
  0
LINE
  5
69
  8
0
  6
CONTINUOUS
 62
     7
 10
115.9189229064
 20
201.4062325761
 30
0.0
 11
115.9189229064
 21
197.1509094952
 31
0.0
  0
LINE
  5
6A
  8
0
  6
CONTINUOUS
 62
     7
 10
26.3189229064
 20
201.4062325761
 30
0.0
 11
26.3189229064
 21
197.1509094952
 31
0.0
  0
LINE
  5
6B
  8
0
  6
CONTINUOUS
 62
     7
 10
27.1189229064
 20
201.4062325761
 30
0.0
 11
27.1189229064
 21
197.1509094952
 31
0.0
  0
LINE
  5
6C
  8
0
  6
CONTINUOUS
 62
     7
 10
115.1189229064
 20
203.5340628571
 30
0.0
 11
115.9189229064
 21
203.5340628571
 31
0.0
  0
LINE
  5
6D
  8
0
  6
CONTINUOUS
 62
     7
 10
115.1189229064
 20
201.4062325761
 30
0.0
 11
115.1189229064
 21
203.5340628571
 31
0.0
  0
LINE
  5
6E
  8
0
  6
CONTINUOUS
 62
     7
 10
115.9189229064
 20
203.5340628571
 30
0.0
 11
115.9189229064
 21
201.4062325761
 31
0.0
  0
LINE
  5
6F
  8
0
  6
CONTINUOUS
 62
     7
 10
26.3189229064
 20
203.5340628571
 30
0.0
 11
27.1189229064
 21
203.5340628571
 31
0.0
  0
LINE
  5
70
  8
0
  6
CONTINUOUS
 62
     7
 10
26.3189229064
 20
203.5340628571
 30
0.0
 11
26.3189229064
 21
201.4062325761
 31
0.0
  0
LINE
  5
71
  8
0
  6
CONTINUOUS
 62
     7
 10
27.1189229064
 20
203.5340628571
 30
0.0
 11
27.1189229064
 21
201.4062325761
 31
0.0
  0
LINE
  5
72
  8
0
  6
CONTINUOUS
 62
     7
 10
115.1189229064
 20
151.2557166552
 30
0.0
 11
115.1189229064
 21
179.7340628571
 31
0.0
  0
LINE
  5
73
  8
0
  6
CONTINUOUS
 62
     7
 10
115.9189229064
 20
179.7340628571
 30
0.0
 11
115.9189229064
 21
151.2557166552
 31
0.0
  0
LINE
  5
74
  8
0
  6
CONTINUOUS
 62
     7
 10
26.3189229064
 20
151.2557166552
 30
0.0
 11
26.3189229064
 21
179.7340628571
 31
0.0
  0
LINE
  5
75
  8
0
  6
CONTINUOUS
 62
     7
 10
27.1189229064
 20
179.7340628571
 30
0.0
 11
27.1189229064
 21
151.2557166552
 31
0.0
  0
LINE
  5
76
  8
0
  6
CONTINUOUS
 62
     7
 10
27.1189229064
 20
149.5340628571
 30
0.0
 11
26.3189229064
 21
149.5340628571
 31
0.0
  0
LINE
  5
77
  8
0
  6
CONTINUOUS
 62
     7
 10
26.3189229064
 20
149.5340628571
 30
0.0
 11
26.3189229064
 21
151.2557166552
 31
0.0
  0
LINE
  5
78
  8
0
  6
CONTINUOUS
 62
     7
 10
27.1189229064
 20
151.2557166552
 30
0.0
 11
27.1189229064
 21
149.5340628571
 31
0.0
  0
LINE
  5
79
  8
0
  6
CONTINUOUS
 62
     7
 10
115.9189229064
 20
149.5340628571
 30
0.0
 11
115.1189229064
 21
149.5340628571
 31
0.0
  0
LINE
  5
7A
  8
0
  6
CONTINUOUS
 62
     7
 10
115.1189229064
 20
149.5340628571
 30
0.0
 11
115.1189229064
 21
151.2557166552
 31
0.0
  0
LINE
  5
7B
  8
0
  6
CONTINUOUS
 62
     7
 10
115.9189229064
 20
151.2557166552
 30
0.0
 11
115.9189229064
 21
149.5340628571
 31
0.0
  0
LINE
  5
7C
  8
0
  6
CONTINUOUS
 62
     7
 10
27.5189229064
 20
149.5340628571
 30
0.0
 11
27.1189229064
 21
149.5340628571
 31
0.0
  0
LINE
  5
7D
  8
0
  6
CONTINUOUS
 62
     7
 10
27.1189229064
 20
203.5340628571
 30
0.0
 11
27.5189229064
 21
203.5340628571
 31
0.0
  0
LINE
  5
7E
  8
0
  6
CONTINUOUS
 62
     7
 10
115.1189229064
 20
149.5340628571
 30
0.0
 11
114.7189229064
 21
149.5340628571
 31
0.0
  0
LINE
  5
7F
  8
0
  6
CONTINUOUS
 62
     7
 10
114.7189229064
 20
203.5340628571
 30
0.0
 11
115.1189229064
 21
203.5340628571
 31
0.0
  0
LINE
  5
80
  8
0
  6
CONTINUOUS
 62
     7
 10
35.9189229064
 20
190.5340628571
 30
0.0
 11
35.9189229064
 21
151.5340628571
 31
0.0
  0
ARC
  5
81
  8
0
  6
CONTINUOUS
 62
     7
 10
33.9189229064
 20
151.5340628571
 30
0.0
 40
2.0
 50
270.0
 51
0.0
  0
ARC
  5
82
  8
0
  6
CONTINUOUS
 62
     7
 10
31.6189229064
 20
154.5340628571
 30
0.0
 40
1.099999999999994
 50
270.0
 51
90.0
  0
LINE
  5
83
  8
0
  6
CONTINUOUS
 62
     7
 10
31.6189229064
 20
155.6340628571
 30
0.0
 11
31.1189229064
 21
155.6340628571
 31
0.0
  0
ARC
  5
84
  8
0
  6
CONTINUOUS
 62
     7
 10
31.1189229064
 20
154.5340628571
 30
0.0
 40
1.099999999999994
 50
90.0
 51
270.0
  0
LINE
  5
85
  8
0
  6
CONTINUOUS
 62
     7
 10
31.1189229064
 20
153.4340628571
 30
0.0
 11
31.6189229064
 21
153.4340628571
 31
0.0
  0
LINE
  5
86
  8
0
  6
CONTINUOUS
 62
     7
 10
33.9189229064
 20
149.5340628571
 30
0.0
 11
27.5189229064
 21
149.5340628571
 31
0.0
  0
LINE
  5
87
  8
0
  6
CONTINUOUS
 62
     7
 10
29.535683209
 20
203.5340628571
 30
0.0
 11
27.5189229064
 21
203.5340628571
 31
0.0
  0
ARC
  5
88
  8
0
  6
CONTINUOUS
 62
     7
 10
108.3189229064
 20
151.5340628571
 30
0.0
 40
2.0
 50
180.0
 51
270.0
  0
LINE
  5
89
  8
0
  6
CONTINUOUS
 62
     7
 10
106.3189229064
 20
151.5340628571
 30
0.0
 11
106.3189229064
 21
190.5340628571
 31
0.0
  0
ARC
  5
8A
  8
0
  6
CONTINUOUS
 62
     7
 10
111.1189229064
 20
154.5340628571
 30
0.0
 40
1.099999999999994
 50
270.0
 51
90.0
  0
LINE
  5
8B
  8
0
  6
CONTINUOUS
 62
     7
 10
111.1189229064
 20
155.6340628571
 30
0.0
 11
110.6189229064
 21
155.6340628571
 31
0.0
  0
ARC
  5
8C
  8
0
  6
CONTINUOUS
 62
     7
 10
110.6189229064
 20
154.5340628571
 30
0.0
 40
1.099999999999994
 50
90.0
 51
270.0
  0
LINE
  5
8D
  8
0
  6
CONTINUOUS
 62
     7
 10
110.6189229064
 20
153.4340628571
 30
0.0
 11
111.1189229064
 21
153.4340628571
 31
0.0
  0
LINE
  5
8E
  8
0
  6
CONTINUOUS
 62
     7
 10
114.7189229064
 20
149.5340628571
 30
0.0
 11
108.3189229064
 21
149.5340628571
 31
0.0
  0
LINE
  5
8F
  8
0
  6
CONTINUOUS
 62
     7
 10
114.7189229064
 20
203.5340628571
 30
0.0
 11
112.7021626038
 21
203.5340628571
 31
0.0
  0
LINE
  5
90
  8
0
  6
CONTINUOUS
 62
     7
 10
115.1189229064
 20
89.2138517391
 30
0.0
 11
112.8189229064
 21
89.2138517391
 31
0.0
  0
LINE
  5
91
  8
0
  6
CONTINUOUS
 62
     7
 10
29.4189229064
 20
89.2138517391
 30
0.0
 11
27.1189229064
 21
89.2138517391
 31
0.0
  0
LINE
  5
92
  8
0
  6
CONTINUOUS
 62
     7
 10
27.1189229064
 20
85.2138517391
 30
0.0
 11
29.4189229064
 21
85.2138517391
 31
0.0
  0
LINE
  5
93
  8
0
  6
CONTINUOUS
 62
     7
 10
112.8189229064
 20
85.2138517391
 30
0.0
 11
115.1189229064
 21
85.2138517391
 31
0.0
  0
LINE
  5
94
  8
0
  6
CONTINUOUS
 62
     7
 10
115.1189229064
 20
80.0893577285
 30
0.0
 11
115.9189229064
 21
80.0893577285
 31
0.0
  0
LINE
  5
95
  8
0
  6
CONTINUOUS
 62
     7
 10
26.3189229064
 20
80.0893577285
 30
0.0
 11
27.1189229064
 21
80.0893577285
 31
0.0
  0
LINE
  5
96
  8
0
  6
CONTINUOUS
 62
     7
 10
29.4189229064
 20
101.5138517391
 30
0.0
 11
112.8189229064
 21
101.5138517391
 31
0.0
  0
LINE
  5
97
  8
0
  6
CONTINUOUS
 62
     7
 10
112.8189229064
 20
101.5138517391
 30
0.0
 11
111.2189229064
 21
99.9138517391
 31
0.0
  0
LINE
  5
98
  8
0
  6
CONTINUOUS
 62
     7
 10
29.4189229064
 20
101.5138517391
 30
0.0
 11
31.0189229064
 21
99.9138517391
 31
0.0
  0
LINE
  5
99
  8
0
  6
CONTINUOUS
 62
     7
 10
112.8189229064
 20
101.5138517391
 30
0.0
 11
112.8189229064
 21
22.8459025466
 31
0.0
  0
LINE
  5
9A
  8
0
  6
CONTINUOUS
 62
     7
 10
111.2189229064
 20
24.4459025466
 30
0.0
 11
112.8189229064
 21
22.8459025466
 31
0.0
  0
LINE
  5
9B
  8
0
  6
CONTINUOUS
 62
     7
 10
29.4189229064
 20
22.8459025466
 30
0.0
 11
29.4189229064
 21
101.5138517391
 31
0.0
  0
LINE
  5
9C
  8
0
  6
CONTINUOUS
 62
     7
 10
31.0189229064
 20
24.4459025466
 30
0.0
 11
29.4189229064
 21
22.8459025466
 31
0.0
  0
LINE
  5
9D
  8
0
  6
CONTINUOUS
 62
     7
 10
112.8189229064
 20
22.8459025466
 30
0.0
 11
29.4189229064
 21
22.8459025466
 31
0.0
  0
LINE
  5
9E
  8
0
  6
CONTINUOUS
 62
     7
 10
115.1189229064
 20
97.4138517391
 30
0.0
 11
115.1189229064
 21
105.4138517391
 31
0.0
  0
ARC
  5
9F
  8
0
  6
CONTINUOUS
 62
     7
 10
114.7189229064
 20
105.4138517391
 30
0.0
 40
0.3999999999999915
 50
0.0
 51
90.0
  0
LINE
  5
A0
  8
0
  6
CONTINUOUS
 62
     7
 10
114.7189229064
 20
105.8138517391
 30
0.0
 11
108.3189229064
 21
105.8138517391
 31
0.0
  0
LINE
  5
A1
  8
0
  6
CONTINUOUS
 62
     7
 10
108.3189229064
 20
106.6138517391
 30
0.0
 11
114.7189229064
 21
106.6138517391
 31
0.0
  0
ARC
  5
A2
  8
0
  6
CONTINUOUS
 62
     7
 10
114.7189229064
 20
105.4138517391
 30
0.0
 40
1.200000000000003
 50
0.0
 51
90.0
  0
LINE
  5
A3
  8
0
  6
CONTINUOUS
 62
     7
 10
115.9189229064
 20
105.4138517391
 30
0.0
 11
115.9189229064
 21
97.4138517391
 31
0.0
  0
LINE
  5
A4
  8
0
  6
CONTINUOUS
 62
     7
 10
33.9189229064
 20
105.8138517391
 30
0.0
 11
27.5189229064
 21
105.8138517391
 31
0.0
  0
ARC
  5
A5
  8
0
  6
CONTINUOUS
 62
     7
 10
27.5189229064
 20
105.4138517391
 30
0.0
 40
0.4000000000000057
 50
90.0
 51
180.0
  0
LINE
  5
A6
  8
0
  6
CONTINUOUS
 62
     7
 10
27.1189229064
 20
105.4138517391
 30
0.0
 11
27.1189229064
 21
97.4138517391
 31
0.0
  0
LINE
  5
A7
  8
0
  6
CONTINUOUS
 62
     7
 10
26.3189229064
 20
105.4138517391
 30
0.0
 11
26.3189229064
 21
97.4138517391
 31
0.0
  0
ARC
  5
A8
  8
0
  6
CONTINUOUS
 62
     7
 10
27.5189229064
 20
105.4138517391
 30
0.0
 40
1.200000000000006
 50
90.0
 51
180.0
  0
LINE
  5
A9
  8
0
  6
CONTINUOUS
 62
     7
 10
27.5189229064
 20
106.6138517391
 30
0.0
 11
33.9189229064
 21
106.6138517391
 31
0.0
  0
LINE
  5
AA
  8
0
  6
CONTINUOUS
 62
     7
 10
35.9189229064
 20
106.6138517391
 30
0.0
 11
35.9189229064
 21
105.8138517391
 31
0.0
  0
LINE
  5
AB
  8
0
  6
CONTINUOUS
 62
     7
 10
35.9189229064
 20
105.8138517391
 30
0.0
 11
33.9189229064
 21
105.8138517391
 31
0.0
  0
LINE
  5
AC
  8
0
  6
CONTINUOUS
 62
     7
 10
33.9189229064
 20
106.6138517391
 30
0.0
 11
35.9189229064
 21
106.6138517391
 31
0.0
  0
LINE
  5
AD
  8
0
  6
CONTINUOUS
 62
     7
 10
106.3189229064
 20
105.8138517391
 30
0.0
 11
106.3189229064
 21
106.6138517391
 31
0.0
  0
LINE
  5
AE
  8
0
  6
CONTINUOUS
 62
     7
 10
108.3189229064
 20
105.8138517391
 30
0.0
 11
106.3189229064
 21
105.8138517391
 31
0.0
  0
LINE
  5
AF
  8
0
  6
CONTINUOUS
 62
     7
 10
106.3189229064
 20
106.6138517391
 30
0.0
 11
108.3189229064
 21
106.6138517391
 31
0.0
  0
LINE
  5
B0
  8
0
  6
CONTINUOUS
 62
     7
 10
27.1189229064
 20
97.4138517391
 30
0.0
 11
27.1189229064
 21
85.2205700427
 31
0.0
  0
LINE
  5
B1
  8
0
  6
CONTINUOUS
 62
     7
 10
26.3189229064
 20
97.4138517391
 30
0.0
 11
26.3189229064
 21
85.2205700427
 31
0.0
  0
LINE
  5
B2
  8
0
  6
CONTINUOUS
 62
     7
 10
115.1189229064
 20
85.2205700427
 30
0.0
 11
115.1189229064
 21
97.4138517391
 31
0.0
  0
LINE
  5
B3
  8
0
  6
CONTINUOUS
 62
     7
 10
115.9189229064
 20
97.4138517391
 30
0.0
 11
115.9189229064
 21
85.2205700427
 31
0.0
  0
LINE
  5
B4
  8
0
  6
CONTINUOUS
 62
     7
 10
27.1189229064
 20
85.2205700427
 30
0.0
 11
27.1189229064
 21
81.8210255329
 31
0.0
  0
LINE
  5
B5
  8
0
  6
CONTINUOUS
 62
     7
 10
26.3189229064
 20
85.2205700427
 30
0.0
 11
26.3189229064
 21
81.8210255329
 31
0.0
  0
LINE
  5
B6
  8
0
  6
CONTINUOUS
 62
     7
 10
115.1189229064
 20
81.8210255329
 30
0.0
 11
115.1189229064
 21
85.2205700427
 31
0.0
  0
LINE
  5
B7
  8
0
  6
CONTINUOUS
 62
     7
 10
115.9189229064
 20
85.2205700427
 30
0.0
 11
115.9189229064
 21
81.8210255329
 31
0.0
  0
LINE
  5
B8
  8
0
  6
CONTINUOUS
 62
     7
 10
115.1189229064
 20
80.1074517391
 30
0.0
 11
115.1189229064
 21
81.8210255329
 31
0.0
  0
LINE
  5
B9
  8
0
  6
CONTINUOUS
 62
     7
 10
115.9189229064
 20
81.8210255329
 30
0.0
 11
115.9189229064
 21
80.1074517391
 31
0.0
  0
LINE
  5
BA
  8
0
  6
CONTINUOUS
 62
     7
 10
27.1189229064
 20
81.8210255329
 30
0.0
 11
27.1189229064
 21
80.1074517391
 31
0.0
  0
LINE
  5
BB
  8
0
  6
CONTINUOUS
 62
     7
 10
26.3189229064
 20
81.8210255329
 30
0.0
 11
26.3189229064
 21
80.1074517391
 31
0.0
  0
LINE
  5
BC
  8
0
  6
CONTINUOUS
 62
     7
 10
115.1189229064
 20
80.0893577285
 30
0.0
 11
115.1189229064
 21
80.1074517391
 31
0.0
  0
LINE
  5
BD
  8
0
  6
CONTINUOUS
 62
     7
 10
115.9189229064
 20
80.1074517391
 30
0.0
 11
115.9189229064
 21
80.0893577285
 31
0.0
  0
LINE
  5
BE
  8
0
  6
CONTINUOUS
 62
     7
 10
27.1189229064
 20
80.1074517391
 30
0.0
 11
27.1189229064
 21
80.0893577285
 31
0.0
  0
LINE
  5
BF
  8
0
  6
CONTINUOUS
 62
     7
 10
26.3189229064
 20
80.1074517391
 30
0.0
 11
26.3189229064
 21
80.0893577285
 31
0.0
  0
LINE
  5
C0
  8
0
  6
CONTINUOUS
 62
     7
 10
232.8805832169
 20
202.9340628571
 30
0.0
 11
232.8805832169
 21
198.5340628571
 31
0.0
  0
LINE
  5
C1
  8
0
  6
CONTINUOUS
 62
     7
 10
232.8805832169
 20
198.5340628571
 30
0.0
 11
173.5360804769
 21
198.5340628571
 31
0.0
  0
LINE
  5
C2
  8
0
  6
CONTINUOUS
 62
     7
 10
155.8126340245
 20
204.5340628571
 30
0.0
 11
231.2805832169
 21
204.5340628571
 31
0.0
  0
ARC
  5
C3
  8
0
  6
CONTINUOUS
 62
     7
 10
231.2805832169
 20
202.9340628571
 30
0.0
 40
1.600000000000023
 50
0.0
 51
90.0
  0
ARC
  5
C4
  8
0
  6
CONTINUOUS
 62
     7
 10
155.8126340245
 20
202.9340628571
 30
0.0
 40
1.599999999999994
 50
90.0
 51
157.975687163
  0
LINE
  5
C5
  8
0
  6
CONTINUOUS
 62
     7
 10
228.3164816018
 20
190.5340628571
 30
0.0
 11
174.7225963156
 21
190.5340628571
 31
0.0
  0
LINE
  5
C6
  8
0
  6
CONTINUOUS
 62
     7
 10
232.6466086207
 20
197.0340628571
 30
0.0
 11
229.1825070056
 21
191.0340628571
 31
0.0
  0
ARC
  5
C7
  8
0
  6
CONTINUOUS
 62
     7
 10
228.3164816018
 20
191.5340628571
 30
0.0
 40
1.0
 50
270.0
 51
330.0
  0
ARC
  5
C8
  8
0
  6
CONTINUOUS
 62
     7
 10
231.7805832169
 20
197.5340628571
 30
0.0
 40
1.000000000000033
 50
330.0
 51
0.0
  0
LINE
  5
C9
  8
0
  6
CONTINUOUS
 62
     7
 10
232.7805832169
 20
198.5340628571
 30
0.0
 11
232.7805832169
 21
197.5340628571
 31
0.0
  0
LINE
  5
CA
  8
0
  6
CONTINUOUS
 62
     7
 10
149.1126340245
 20
149.5340628571
 30
0.0
 11
149.1126340245
 21
203.5340628571
 31
0.0
  0
LINE
  5
CB
  8
0
  6
CONTINUOUS
 62
     7
 10
149.1126340245
 20
203.5340628571
 30
0.0
 11
150.3126340245
 21
203.5340628571
 31
0.0
  0
LINE
  5
CC
  8
0
  6
CONTINUOUS
 62
     7
 10
150.3126340245
 20
149.5340628571
 30
0.0
 11
149.1126340245
 21
149.5340628571
 31
0.0
  0
ARC
  5
CD
  8
0
  6
CONTINUOUS
 62
     7
 10
158.3126340245
 20
167.5340628571
 30
0.0
 40
36.00000000000003
 50
70.2021709788
 51
90.0
  0
ARC
  5
CE
  8
0
  6
CONTINUOUS
 62
     7
 10
168.7446639203
 20
196.5135858389
 30
0.0
 40
5.199999999999988
 50
7.04
 51
70.2021709788
  0
LINE
  5
CF
  8
0
  6
CONTINUOUS
 62
     7
 10
173.9054602307
 20
197.1509094952
 30
0.0
 11
175.6190340245
 21
183.2750628571
 31
0.0
  0
ARC
  5
D0
  8
0
  6
CONTINUOUS
 62
     7
 10
173.2371280351
 20
182.9809134773
 30
0.0
 40
2.400000000000016
 50
290.3259722805
 51
7.04
  0
ARC
  5
D1
  8
0
  6
CONTINUOUS
 62
     7
 10
168.5130216628
 20
195.7340628524
 30
0.0
 40
16.00000000000001
 50
269.9986118724
 51
290.3259722805
  0
LINE
  5
D2
  8
0
  6
CONTINUOUS
 62
     7
 10
168.5126340245
 20
179.7340628571
 30
0.0
 11
157.7569672325
 21
179.7340628571
 31
0.0
  0
LINE
  5
D3
  8
0
  6
CONTINUOUS
 62
     7
 10
153.7545966863
 20
151.2557166552
 30
0.0
 11
157.7569672325
 21
179.7340628571
 31
0.0
  0
ARC
  5
D4
  8
0
  6
CONTINUOUS
 62
     7
 10
151.7740605488
 20
151.5340628571
 30
0.0
 40
2.0
 50
270.0
 51
352.0
  0
LINE
  5
D5
  8
0
  6
CONTINUOUS
 62
     7
 10
150.3126340245
 20
203.5340628571
 30
0.0
 11
158.3126340245
 21
203.5340628571
 31
0.0
  0
LINE
  5
D6
  8
0
  6
CONTINUOUS
 62
     7
 10
150.3126340245
 20
149.5340628571
 30
0.0
 11
151.7740605488
 21
149.5340628571
 31
0.0
  0
LINE
  5
D7
  8
0
  6
CONTINUOUS
 62
     7
 10
382.7919191102
 20
203.5323908351
 30
0.0
 11
379.9728186125
 21
257.324032768
 31
0.0
  0
ARC
  5
D8
  8
0
  6
CONTINUOUS
 62
     7
 10
381.5706258681
 20
257.407770298
 30
0.0
 40
1.59999999999996
 50
93.0
 51
183.0
  0
LINE
  5
D9
  8
0
  6
CONTINUOUS
 62
     7
 10
385.8808582911
 20
259.2358557611
 30
0.0
 11
388.8299774794
 21
202.9633094193
 31
0.0
  0
LINE
  5
DA
  8
0
  6
CONTINUOUS
 62
     7
 10
381.4868883381
 20
259.0055775536
 30
0.0
 11
385.8808582911
 21
259.2358557611
 31
0.0
  0
LINE
  5
DB
  8
0
  6
CONTINUOUS
 62
     7
 10
385.8860918867
 20
259.1359928076
 30
0.0
 11
386.8847214214
 21
259.1883287638
 31
0.0
  0
ARC
  5
DC
  8
0
  6
CONTINUOUS
 62
     7
 10
386.9370573777
 20
258.1896992291
 30
0.0
 40
1.000000000000002
 50
63.0
 51
93.0
  0
LINE
  5
DD
  8
0
  6
CONTINUOUS
 62
     7
 10
387.3910478774
 20
259.0807057533
 30
0.0
 11
393.5641221565
 21
255.9353673065
 31
0.0
  0
LINE
  5
DE
  8
0
  6
CONTINUOUS
 62
     7
 10
394.1087611915
 20
255.0966967385
 30
0.0
 11
397.0138556951
 21
199.6641914249
 31
0.0
  0
ARC
  5
DF
  8
0
  6
CONTINUOUS
 62
     7
 10
393.1101316568
 20
255.0443607823
 30
0.0
 40
1.000000000000002
 50
3.0
 51
63.0
  0
LINE
  5
E0
  8
0
  6
CONTINUOUS
 62
     7
 10
373.2449568816
 20
149.5340628571
 30
0.0
 11
373.2449568816
 21
203.5340628571
 31
0.0
  0
LINE
  5
E1
  8
0
  6
CONTINUOUS
 62
     7
 10
373.2449568816
 20
203.5340628571
 30
0.0
 11
374.4449568816
 21
203.5340628571
 31
0.0
  0
LINE
  5
E2
  8
0
  6
CONTINUOUS
 62
     7
 10
374.4449568816
 20
149.5340628571
 30
0.0
 11
373.2449568816
 21
149.5340628571
 31
0.0
  0
ARC
  5
E3
  8
0
  6
CONTINUOUS
 62
     7
 10
382.4449568816
 20
167.5340628571
 30
0.0
 40
36.00000000000004
 50
70.2021709788
 51
90.0
  0
ARC
  5
E4
  8
0
  6
CONTINUOUS
 62
     7
 10
392.8769867774
 20
196.5135858389
 30
0.0
 40
5.199999999999988
 50
7.04
 51
70.2021709788
  0
LINE
  5
E5
  8
0
  6
CONTINUOUS
 62
     7
 10
398.0377830878
 20
197.1509094952
 30
0.0
 11
399.7513568816
 21
183.2750628571
 31
0.0
  0
ARC
  5
E6
  8
0
  6
CONTINUOUS
 62
     7
 10
397.3694508922
 20
182.9809134773
 30
0.0
 40
2.400000000000016
 50
290.3259722805
 51
7.04
  0
ARC
  5
E7
  8
0
  6
CONTINUOUS
 62
     7
 10
392.64534452
 20
195.7340628524
 30
0.0
 40
16.00000000000001
 50
269.9986118724
 51
290.3259722805
  0
LINE
  5
E8
  8
0
  6
CONTINUOUS
 62
     7
 10
392.6449568816
 20
179.7340628571
 30
0.0
 11
381.8892900896
 21
179.7340628571
 31
0.0
  0
LINE
  5
E9
  8
0
  6
CONTINUOUS
 62
     7
 10
377.8869195435
 20
151.2557166552
 30
0.0
 11
381.8892900896
 21
179.7340628571
 31
0.0
  0
ARC
  5
EA
  8
0
  6
CONTINUOUS
 62
     7
 10
375.906383406
 20
151.5340628571
 30
0.0
 40
2.000000000000025
 50
270.0
 51
352.0
  0
LINE
  5
EB
  8
0
  6
CONTINUOUS
 62
     7
 10
374.4449568816
 20
203.5340628571
 30
0.0
 11
382.4449568816
 21
203.5340628571
 31
0.0
  0
LINE
  5
EC
  8
0
  6
CONTINUOUS
 62
     7
 10
374.4449568816
 20
149.5340628571
 30
0.0
 11
375.906383406
 21
149.5340628571
 31
0.0
  0
ARC
  5
ED
  8
0
  6
CONTINUOUS
 62
     7
 10
255.930234335
 20
202.9340628571
 30
0.0
 40
1.600000000000015
 50
90.0
 51
157.975687163
  0
LINE
  5
EE
  8
0
  6
CONTINUOUS
 62
     7
 10
255.930234335
 20
204.5340628571
 30
0.0
 11
336.130234335
 21
204.5340628571
 31
0.0
  0
ARC
  5
EF
  8
0
  6
CONTINUOUS
 62
     7
 10
336.130234335
 20
202.9340628571
 30
0.0
 40
1.599999999999881
 50
22.024312837
 51
90.0
  0
LINE
  5
F0
  8
0
  6
CONTINUOUS
 62
     7
 10
254.930234335
 20
198.5340628571
 30
0.0
 11
257.630234335
 21
198.5340628571
 31
0.0
  0
LINE
  5
F1
  8
0
  6
CONTINUOUS
 62
     7
 10
260.830234335
 20
198.5340628571
 30
0.0
 11
331.230234335
 21
198.5340628571
 31
0.0
  0
LINE
  5
F2
  8
0
  6
CONTINUOUS
 62
     7
 10
334.430234335
 20
198.5340628571
 30
0.0
 11
337.130234335
 21
198.5340628571
 31
0.0
  0
LINE
  5
F3
  8
0
  6
CONTINUOUS
 62
     7
 10
331.230234335
 20
190.5340628571
 30
0.0
 11
260.830234335
 21
190.5340628571
 31
0.0
  0
LINE
  5
F4
  8
0
  6
CONTINUOUS
 62
     7
 10
251.230234335
 20
149.5340628571
 30
0.0
 11
251.230234335
 21
203.5340628571
 31
0.0
  0
LINE
  5
F5
  8
0
  6
CONTINUOUS
 62
     7
 10
251.230234335
 20
203.5340628571
 30
0.0
 11
252.430234335
 21
203.5340628571
 31
0.0
  0
LINE
  5
F6
  8
0
  6
CONTINUOUS
 62
     7
 10
252.430234335
 20
149.5340628571
 30
0.0
 11
251.230234335
 21
149.5340628571
 31
0.0
  0
LINE
  5
F7
  8
0
  6
CONTINUOUS
 62
     7
 10
256.530234335
 20
155.6340628571
 30
0.0
 11
256.030234335
 21
155.6340628571
 31
0.0
  0
ARC
  5
F8
  8
0
  6
CONTINUOUS
 62
     7
 10
256.030234335
 20
154.5340628571
 30
0.0
 40
1.099999999999994
 50
90.0
 51
270.0
  0
LINE
  5
F9
  8
0
  6
CONTINUOUS
 62
     7
 10
256.030234335
 20
153.4340628571
 30
0.0
 11
256.530234335
 21
153.4340628571
 31
0.0
  0
ARC
  5
FA
  8
0
  6
CONTINUOUS
 62
     7
 10
256.530234335
 20
154.5340628571
 30
0.0
 40
1.099999999999994
 50
270.0
 51
90.0
  0
ARC
  5
FB
  8
0
  6
CONTINUOUS
 62
     7
 10
258.830234335
 20
201.5340628571
 30
0.0
 40
2.0
 50
0.0
 51
90.0
  0
LINE
  5
FC
  8
0
  6
CONTINUOUS
 62
     7
 10
260.830234335
 20
201.5340628571
 30
0.0
 11
260.830234335
 21
151.5340628571
 31
0.0
  0
ARC
  5
FD
  8
0
  6
CONTINUOUS
 62
     7
 10
258.830234335
 20
151.5340628571
 30
0.0
 40
2.0
 50
270.0
 51
0.0
  0
LINE
  5
FE
  8
0
  6
CONTINUOUS
 62
     7
 10
256.530234335
 20
199.6340628571
 30
0.0
 11
256.030234335
 21
199.6340628571
 31
0.0
  0
ARC
  5
FF
  8
0
  6
CONTINUOUS
 62
     7
 10
256.030234335
 20
198.5340628571
 30
0.0
 40
1.100000000000023
 50
90.0
 51
270.0
  0
LINE
  5
100
  8
0
  6
CONTINUOUS
 62
     7
 10
256.030234335
 20
197.4340628571
 30
0.0
 11
256.530234335
 21
197.4340628571
 31
0.0
  0
ARC
  5
101
  8
0
  6
CONTINUOUS
 62
     7
 10
256.530234335
 20
198.5340628571
 30
0.0
 40
1.100000000000023
 50
270.0
 51
90.0
  0
LINE
  5
102
  8
0
  6
CONTINUOUS
 62
     7
 10
258.830234335
 20
203.5340628571
 30
0.0
 11
252.430234335
 21
203.5340628571
 31
0.0
  0
LINE
  5
103
  8
0
  6
CONTINUOUS
 62
     7
 10
258.830234335
 20
149.5340628571
 30
0.0
 11
252.430234335
 21
149.5340628571
 31
0.0
  0
LINE
  5
104
  8
0
  6
CONTINUOUS
 62
     7
 10
331.230234335
 20
151.5340628571
 30
0.0
 11
331.230234335
 21
201.5340628571
 31
0.0
  0
ARC
  5
105
  8
0
  6
CONTINUOUS
 62
     7
 10
333.230234335
 20
201.5340628571
 30
0.0
 40
2.0
 50
90.0
 51
180.0
  0
LINE
  5
106
  8
0
  6
CONTINUOUS
 62
     7
 10
339.630234335
 20
203.5340628571
 30
0.0
 11
333.230234335
 21
203.5340628571
 31
0.0
  0
LINE
  5
107
  8
0
  6
CONTINUOUS
 62
     7
 10
339.630234335
 20
149.5340628571
 30
0.0
 11
333.230234335
 21
149.5340628571
 31
0.0
  0
LINE
  5
108
  8
0
  6
CONTINUOUS
 62
     7
 10
336.030234335
 20
155.6340628571
 30
0.0
 11
335.530234335
 21
155.6340628571
 31
0.0
  0
ARC
  5
109
  8
0
  6
CONTINUOUS
 62
     7
 10
335.530234335
 20
154.5340628571
 30
0.0
 40
1.099999999999994
 50
90.0
 51
270.0
  0
LINE
  5
10A
  8
0
  6
CONTINUOUS
 62
     7
 10
335.530234335
 20
153.4340628571
 30
0.0
 11
336.030234335
 21
153.4340628571
 31
0.0
  0
ARC
  5
10B
  8
0
  6
CONTINUOUS
 62
     7
 10
336.030234335
 20
154.5340628571
 30
0.0
 40
1.099999999999994
 50
270.0
 51
90.0
  0
LINE
  5
10C
  8
0
  6
CONTINUOUS
 62
     7
 10
336.030234335
 20
199.6340628571
 30
0.0
 11
335.530234335
 21
199.6340628571
 31
0.0
  0
ARC
  5
10D
  8
0
  6
CONTINUOUS
 62
     7
 10
335.530234335
 20
198.5340628571
 30
0.0
 40
1.100000000000023
 50
90.0
 51
270.0
  0
LINE
  5
10E
  8
0
  6
CONTINUOUS
 62
     7
 10
335.530234335
 20
197.4340628571
 30
0.0
 11
336.030234335
 21
197.4340628571
 31
0.0
  0
ARC
  5
10F
  8
0
  6
CONTINUOUS
 62
     7
 10
336.030234335
 20
198.5340628571
 30
0.0
 40
1.100000000000023
 50
270.0
 51
90.0
  0
ARC
  5
110
  8
0
  6
CONTINUOUS
 62
     7
 10
333.230234335
 20
151.5340628571
 30
0.0
 40
2.0
 50
180.0
 51
270.0
  0
LINE
  5
111
  8
0
  6
CONTINUOUS
 62
     7
 10
340.830234335
 20
203.5340628571
 30
0.0
 11
340.830234335
 21
149.5340628571
 31
0.0
  0
LINE
  5
112
  8
0
  6
CONTINUOUS
 62
     7
 10
339.630234335
 20
203.5340628571
 30
0.0
 11
340.830234335
 21
203.5340628571
 31
0.0
  0
LINE
  5
113
  8
0
  6
CONTINUOUS
 62
     7
 10
340.830234335
 20
149.5340628571
 30
0.0
 11
339.630234335
 21
149.5340628571
 31
0.0
  0
ENDSEC
  0
EOF
